 0
SECTION
 2
HEADER
 9
$ACADVER
 1
AC1009
 0
ENDSEC
 0
SECTION
 2
TABLES
 0
TABLE
 2
LTYPE
 70
1
 0
LTYPE
 2
CONTINUOUS
 70
64
 3
solid line
 72
65
 73
0
 40
0.0
 0
ENDTAB
 0
TABLE
 2
LAYER
 70
6
 0
LAYER
 2
0
 70
0
 62
7
 6
CONTINUOUS
 0
LAYER
 2
MESH_83_F0
 70
64
 62
7
 6
CONTINUOUS
 0
LAYER
 2
MESH_82_F0
 70
64
 62
7
 6
CONTINUOUS
 0
LAYER
 2
MESH_81_F0
 70
64
 62
7
 6
CONTINUOUS
 0
LAYER
 2
MESH_80_F0
 70
64
 62
7
 6
CONTINUOUS
 0
LAYER
 2
MESH_79_F0
 70
64
 62
7
 6
CONTINUOUS
 0
LAYER
 2
MESH_78_F0
 70
64
 62
7
 6
CONTINUOUS
 0
LAYER
 2
MESH_77_F0
 70
64
 62
7
 6
CONTINUOUS
 0
LAYER
 2
MESH_76_F0
 70
64
 62
7
 6
CONTINUOUS
 0
LAYER
 2
MESH_75_F0
 70
64
 62
7
 6
CONTINUOUS
 0
LAYER
 2
MESH_74_F0
 70
64
 62
7
 6
CONTINUOUS
 0
LAYER
 2
MESH_73_F0
 70
64
 62
7
 6
CONTINUOUS
 0
LAYER
 2
MESH_72_F0
 70
64
 62
7
 6
CONTINUOUS
 0
LAYER
 2
MESH_71_F0
 70
64
 62
7
 6
CONTINUOUS
 0
LAYER
 2
MESH_70_F0
 70
64
 62
7
 6
CONTINUOUS
 0
ENDTAB
 0
ENDSEC
 0
SECTION
 2
BLOCKS
 0
ENDSEC
 0
SECTION
 2
ENTITIES
 0
POLYLINE
 8
MESH_83_F0
 66
1
 10
0.0
 20
0.0
 30
0.0
 70
64
 71
4
 72
2
 0
VERTEX
 8
MESH_83_F0
 10
-116
 20
2
 30
-109
 70
192
 0
VERTEX
 8
MESH_83_F0
 10
-115
 20
3
 30
-108
 70
192
 0
VERTEX
 8
MESH_83_F0
 10
115
 20
3
 30
-108
 70
192
 0
VERTEX
 8
MESH_83_F0
 10
116
 20
2
 30
-109
 70
192
 0
VERTEX
 8
MESH_83_F0
 10
0
 20
0
 30
0
 70
128
 71
4
 72
2
 73
1
 74
1
 0
VERTEX
 8
MESH_83_F0
 10
0
 20
0
 30
0
 70
128
 71
3
 72
2
 73
4
 74
4
 0
SEQEND
 0
POLYLINE
 8
MESH_82_F0
 66
1
 10
0.0
 20
0.0
 30
0.0
 70
64
 71
4
 72
2
 0
VERTEX
 8
MESH_82_F0
 10
-116
 20
2
 30
109
 70
192
 0
VERTEX
 8
MESH_82_F0
 10
-115
 20
3
 30
108
 70
192
 0
VERTEX
 8
MESH_82_F0
 10
-115
 20
3
 30
-108
 70
192
 0
VERTEX
 8
MESH_82_F0
 10
-116
 20
2
 30
-109
 70
192
 0
VERTEX
 8
MESH_82_F0
 10
0
 20
0
 30
0
 70
128
 71
4
 72
2
 73
1
 74
1
 0
VERTEX
 8
MESH_82_F0
 10
0
 20
0
 30
0
 70
128
 71
3
 72
2
 73
4
 74
4
 0
SEQEND
 0
POLYLINE
 8
MESH_81_F0
 66
1
 10
0.0
 20
0.0
 30
0.0
 70
64
 71
4
 72
2
 0
VERTEX
 8
MESH_81_F0
 10
116
 20
2
 30
109
 70
192
 0
VERTEX
 8
MESH_81_F0
 10
115
 20
3
 30
108
 70
192
 0
VERTEX
 8
MESH_81_F0
 10
-115
 20
3
 30
108
 70
192
 0
VERTEX
 8
MESH_81_F0
 10
-116
 20
2
 30
109
 70
192
 0
VERTEX
 8
MESH_81_F0
 10
0
 20
0
 30
0
 70
128
 71
1
 72
3
 73
2
 74
2
 0
VERTEX
 8
MESH_81_F0
 10
0
 20
0
 30
0
 70
128
 71
4
 72
3
 73
1
 74
1
 0
SEQEND
 0
POLYLINE
 8
MESH_80_F0
 66
1
 10
0.0
 20
0.0
 30
0.0
 70
64
 71
4
 72
2
 0
VERTEX
 8
MESH_80_F0
 10
115
 20
3
 30
108
 70
192
 0
VERTEX
 8
MESH_80_F0
 10
115
 20
3
 30
-108
 70
192
 0
VERTEX
 8
MESH_80_F0
 10
-115
 20
3
 30
-108
 70
192
 0
VERTEX
 8
MESH_80_F0
 10
-115
 20
3
 30
108
 70
192
 0
VERTEX
 8
MESH_80_F0
 10
0
 20
0
 30
0
 70
128
 71
4
 72
2
 73
1
 74
1
 0
VERTEX
 8
MESH_80_F0
 10
0
 20
0
 30
0
 70
128
 71
3
 72
2
 73
4
 74
4
 0
SEQEND
 0
POLYLINE
 8
MESH_79_F0
 66
1
 10
0.0
 20
0.0
 30
0.0
 70
64
 71
4
 72
2
 0
VERTEX
 8
MESH_79_F0
 10
115
 20
3
 30
108
 70
192
 0
VERTEX
 8
MESH_79_F0
 10
116
 20
2
 30
109
 70
192
 0
VERTEX
 8
MESH_79_F0
 10
116
 20
2
 30
-109
 70
192
 0
VERTEX
 8
MESH_79_F0
 10
115
 20
3
 30
-108
 70
192
 0
VERTEX
 8
MESH_79_F0
 10
0
 20
0
 30
0
 70
128
 71
1
 72
3
 73
2
 74
2
 0
VERTEX
 8
MESH_79_F0
 10
0
 20
0
 30
0
 70
128
 71
4
 72
3
 73
1
 74
1
 0
SEQEND
 0
POLYLINE
 8
MESH_78_F0
 66
1
 10
0.0
 20
0.0
 30
0.0
 70
64
 71
4
 72
2
 0
VERTEX
 8
MESH_78_F0
 10
116
 20
-2
 30
-109
 70
192
 0
VERTEX
 8
MESH_78_F0
 10
116
 20
2
 30
-109
 70
192
 0
VERTEX
 8
MESH_78_F0
 10
116
 20
2
 30
109
 70
192
 0
VERTEX
 8
MESH_78_F0
 10
116
 20
-2
 30
109
 70
192
 0
VERTEX
 8
MESH_78_F0
 10
0
 20
0
 30
0
 70
128
 71
1
 72
3
 73
2
 74
2
 0
VERTEX
 8
MESH_78_F0
 10
0
 20
0
 30
0
 70
128
 71
4
 72
3
 73
1
 74
1
 0
SEQEND
 0
POLYLINE
 8
MESH_77_F0
 66
1
 10
0.0
 20
0.0
 30
0.0
 70
64
 71
4
 72
2
 0
VERTEX
 8
MESH_77_F0
 10
-116
 20
-2
 30
-109
 70
192
 0
VERTEX
 8
MESH_77_F0
 10
-116
 20
2
 30
-109
 70
192
 0
VERTEX
 8
MESH_77_F0
 10
116
 20
2
 30
-109
 70
192
 0
VERTEX
 8
MESH_77_F0
 10
116
 20
-2
 30
-109
 70
192
 0
VERTEX
 8
MESH_77_F0
 10
0
 20
0
 30
0
 70
128
 71
4
 72
2
 73
1
 74
1
 0
VERTEX
 8
MESH_77_F0
 10
0
 20
0
 30
0
 70
128
 71
3
 72
2
 73
4
 74
4
 0
SEQEND
 0
POLYLINE
 8
MESH_76_F0
 66
1
 10
0.0
 20
0.0
 30
0.0
 70
64
 71
4
 72
2
 0
VERTEX
 8
MESH_76_F0
 10
116
 20
-2
 30
-109
 70
192
 0
VERTEX
 8
MESH_76_F0
 10
115
 20
-3
 30
-108
 70
192
 0
VERTEX
 8
MESH_76_F0
 10
-115
 20
-3
 30
-108
 70
192
 0
VERTEX
 8
MESH_76_F0
 10
-116
 20
-2
 30
-109
 70
192
 0
VERTEX
 8
MESH_76_F0
 10
0
 20
0
 30
0
 70
128
 71
1
 72
3
 73
2
 74
2
 0
VERTEX
 8
MESH_76_F0
 10
0
 20
0
 30
0
 70
128
 71
4
 72
3
 73
1
 74
1
 0
SEQEND
 0
POLYLINE
 8
MESH_75_F0
 66
1
 10
0.0
 20
0.0
 30
0.0
 70
64
 71
4
 72
2
 0
VERTEX
 8
MESH_75_F0
 10
-116
 20
-2
 30
-109
 70
192
 0
VERTEX
 8
MESH_75_F0
 10
-115
 20
-3
 30
-108
 70
192
 0
VERTEX
 8
MESH_75_F0
 10
-115
 20
-3
 30
108
 70
192
 0
VERTEX
 8
MESH_75_F0
 10
-116
 20
-2
 30
109
 70
192
 0
VERTEX
 8
MESH_75_F0
 10
0
 20
0
 30
0
 70
128
 71
1
 72
3
 73
2
 74
2
 0
VERTEX
 8
MESH_75_F0
 10
0
 20
0
 30
0
 70
128
 71
4
 72
3
 73
1
 74
1
 0
SEQEND
 0
POLYLINE
 8
MESH_74_F0
 66
1
 10
0.0
 20
0.0
 30
0.0
 70
64
 71
4
 72
2
 0
VERTEX
 8
MESH_74_F0
 10
-116
 20
-2
 30
109
 70
192
 0
VERTEX
 8
MESH_74_F0
 10
-116
 20
2
 30
109
 70
192
 0
VERTEX
 8
MESH_74_F0
 10
-116
 20
2
 30
-109
 70
192
 0
VERTEX
 8
MESH_74_F0
 10
-116
 20
-2
 30
-109
 70
192
 0
VERTEX
 8
MESH_74_F0
 10
0
 20
0
 30
0
 70
128
 71
1
 72
3
 73
2
 74
2
 0
VERTEX
 8
MESH_74_F0
 10
0
 20
0
 30
0
 70
128
 71
4
 72
3
 73
1
 74
1
 0
SEQEND
 0
POLYLINE
 8
MESH_73_F0
 66
1
 10
0.0
 20
0.0
 30
0.0
 70
64
 71
4
 72
2
 0
VERTEX
 8
MESH_73_F0
 10
116
 20
-2
 30
109
 70
192
 0
VERTEX
 8
MESH_73_F0
 10
116
 20
2
 30
109
 70
192
 0
VERTEX
 8
MESH_73_F0
 10
-116
 20
2
 30
109
 70
192
 0
VERTEX
 8
MESH_73_F0
 10
-116
 20
-2
 30
109
 70
192
 0
VERTEX
 8
MESH_73_F0
 10
0
 20
0
 30
0
 70
128
 71
1
 72
3
 73
2
 74
2
 0
VERTEX
 8
MESH_73_F0
 10
0
 20
0
 30
0
 70
128
 71
4
 72
3
 73
1
 74
1
 0
SEQEND
 0
POLYLINE
 8
MESH_72_F0
 66
1
 10
0.0
 20
0.0
 30
0.0
 70
64
 71
4
 72
2
 0
VERTEX
 8
MESH_72_F0
 10
-116
 20
-2
 30
109
 70
192
 0
VERTEX
 8
MESH_72_F0
 10
-115
 20
-3
 30
108
 70
192
 0
VERTEX
 8
MESH_72_F0
 10
115
 20
-3
 30
108
 70
192
 0
VERTEX
 8
MESH_72_F0
 10
116
 20
-2
 30
109
 70
192
 0
VERTEX
 8
MESH_72_F0
 10
0
 20
0
 30
0
 70
128
 71
1
 72
3
 73
2
 74
2
 0
VERTEX
 8
MESH_72_F0
 10
0
 20
0
 30
0
 70
128
 71
4
 72
3
 73
1
 74
1
 0
SEQEND
 0
POLYLINE
 8
MESH_71_F0
 66
1
 10
0.0
 20
0.0
 30
0.0
 70
64
 71
4
 72
2
 0
VERTEX
 8
MESH_71_F0
 10
115
 20
-3
 30
-108
 70
192
 0
VERTEX
 8
MESH_71_F0
 10
116
 20
-2
 30
-109
 70
192
 0
VERTEX
 8
MESH_71_F0
 10
116
 20
-2
 30
109
 70
192
 0
VERTEX
 8
MESH_71_F0
 10
115
 20
-3
 30
108
 70
192
 0
VERTEX
 8
MESH_71_F0
 10
0
 20
0
 30
0
 70
128
 71
1
 72
3
 73
2
 74
2
 0
VERTEX
 8
MESH_71_F0
 10
0
 20
0
 30
0
 70
128
 71
4
 72
3
 73
1
 74
1
 0
SEQEND
 0
POLYLINE
 8
MESH_70_F0
 66
1
 10
0.0
 20
0.0
 30
0.0
 70
64
 71
4
 72
2
 0
VERTEX
 8
MESH_70_F0
 10
115
 20
-3
 30
108
 70
192
 0
VERTEX
 8
MESH_70_F0
 10
-115
 20
-3
 30
108
 70
192
 0
VERTEX
 8
MESH_70_F0
 10
-115
 20
-3
 30
-108
 70
192
 0
VERTEX
 8
MESH_70_F0
 10
115
 20
-3
 30
-108
 70
192
 0
VERTEX
 8
MESH_70_F0
 10
0
 20
0
 30
0
 70
128
 71
4
 72
2
 73
1
 74
1
 0
VERTEX
 8
MESH_70_F0
 10
0
 20
0
 30
0
 70
128
 71
3
 72
2
 73
4
 74
4
 0
SEQEND
 0
ENDSEC
 0
EOF
