 0
SECTION
 2
HEADER
 9
$ACADVER
 1
AC1009
 0
ENDSEC
 0
SECTION
 2
TABLES
 0
TABLE
 2
LTYPE
 70
1
 0
LTYPE
 2
CONTINUOUS
 70
64
 3
solid line
 72
65
 73
0
 40
0.0
 0
ENDTAB
 0
TABLE
 2
LAYER
 70
6
 0
LAYER
 2
0
 70
0
 62
7
 6
CONTINUOUS
 0
LAYER
 2
MESH_324_F0
 70
64
 62
7
 6
CONTINUOUS
 0
LAYER
 2
MESH_323_F0
 70
64
 62
7
 6
CONTINUOUS
 0
LAYER
 2
MESH_322_F0
 70
64
 62
7
 6
CONTINUOUS
 0
LAYER
 2
MESH_321_F0
 70
64
 62
7
 6
CONTINUOUS
 0
LAYER
 2
MESH_320_F0
 70
64
 62
7
 6
CONTINUOUS
 0
LAYER
 2
MESH_319_F0
 70
64
 62
7
 6
CONTINUOUS
 0
LAYER
 2
MESH_318_F0
 70
64
 62
7
 6
CONTINUOUS
 0
LAYER
 2
MESH_317_F0
 70
64
 62
7
 6
CONTINUOUS
 0
LAYER
 2
MESH_316_F0
 70
64
 62
7
 6
CONTINUOUS
 0
LAYER
 2
MESH_315_F0
 70
64
 62
7
 6
CONTINUOUS
 0
LAYER
 2
MESH_314_F0
 70
64
 62
7
 6
CONTINUOUS
 0
LAYER
 2
MESH_313_F0
 70
64
 62
7
 6
CONTINUOUS
 0
LAYER
 2
MESH_312_F0
 70
64
 62
7
 6
CONTINUOUS
 0
LAYER
 2
MESH_311_F0
 70
64
 62
7
 6
CONTINUOUS
 0
LAYER
 2
MESH_310_F0
 70
64
 62
7
 6
CONTINUOUS
 0
LAYER
 2
MESH_309_F0
 70
64
 62
7
 6
CONTINUOUS
 0
LAYER
 2
MESH_308_F0
 70
64
 62
7
 6
CONTINUOUS
 0
LAYER
 2
MESH_307_F0
 70
64
 62
7
 6
CONTINUOUS
 0
LAYER
 2
MESH_306_F0
 70
64
 62
7
 6
CONTINUOUS
 0
LAYER
 2
MESH_305_F0
 70
64
 62
7
 6
CONTINUOUS
 0
LAYER
 2
MESH_304_F0
 70
64
 62
7
 6
CONTINUOUS
 0
LAYER
 2
MESH_303_F0
 70
64
 62
7
 6
CONTINUOUS
 0
LAYER
 2
MESH_302_F0
 70
64
 62
7
 6
CONTINUOUS
 0
LAYER
 2
MESH_301_F0
 70
64
 62
7
 6
CONTINUOUS
 0
LAYER
 2
MESH_300_F0
 70
64
 62
7
 6
CONTINUOUS
 0
LAYER
 2
MESH_299_F0
 70
64
 62
7
 6
CONTINUOUS
 0
LAYER
 2
MESH_298_F0
 70
64
 62
7
 6
CONTINUOUS
 0
LAYER
 2
MESH_297_F0
 70
64
 62
7
 6
CONTINUOUS
 0
LAYER
 2
MESH_296_F0
 70
64
 62
7
 6
CONTINUOUS
 0
LAYER
 2
MESH_295_F0
 70
64
 62
7
 6
CONTINUOUS
 0
LAYER
 2
MESH_294_F0
 70
64
 62
7
 6
CONTINUOUS
 0
LAYER
 2
MESH_293_F0
 70
64
 62
7
 6
CONTINUOUS
 0
LAYER
 2
MESH_292_F0
 70
64
 62
7
 6
CONTINUOUS
 0
LAYER
 2
MESH_291_F0
 70
64
 62
7
 6
CONTINUOUS
 0
LAYER
 2
MESH_290_F0
 70
64
 62
7
 6
CONTINUOUS
 0
LAYER
 2
MESH_289_F0
 70
64
 62
7
 6
CONTINUOUS
 0
LAYER
 2
MESH_288_F0
 70
64
 62
7
 6
CONTINUOUS
 0
LAYER
 2
MESH_287_F0
 70
64
 62
7
 6
CONTINUOUS
 0
LAYER
 2
MESH_286_F0
 70
64
 62
7
 6
CONTINUOUS
 0
LAYER
 2
MESH_285_F0
 70
64
 62
7
 6
CONTINUOUS
 0
LAYER
 2
MESH_284_F0
 70
64
 62
7
 6
CONTINUOUS
 0
LAYER
 2
MESH_283_F0
 70
64
 62
7
 6
CONTINUOUS
 0
LAYER
 2
MESH_282_F0
 70
64
 62
7
 6
CONTINUOUS
 0
LAYER
 2
MESH_281_F0
 70
64
 62
7
 6
CONTINUOUS
 0
LAYER
 2
MESH_280_F0
 70
64
 62
7
 6
CONTINUOUS
 0
LAYER
 2
MESH_279_F0
 70
64
 62
7
 6
CONTINUOUS
 0
LAYER
 2
MESH_278_F0
 70
64
 62
7
 6
CONTINUOUS
 0
LAYER
 2
MESH_277_F0
 70
64
 62
7
 6
CONTINUOUS
 0
LAYER
 2
MESH_276_F0
 70
64
 62
7
 6
CONTINUOUS
 0
LAYER
 2
MESH_275_F0
 70
64
 62
7
 6
CONTINUOUS
 0
LAYER
 2
MESH_274_F0
 70
64
 62
7
 6
CONTINUOUS
 0
LAYER
 2
MESH_273_F0
 70
64
 62
7
 6
CONTINUOUS
 0
LAYER
 2
MESH_272_F0
 70
64
 62
7
 6
CONTINUOUS
 0
LAYER
 2
MESH_271_F0
 70
64
 62
7
 6
CONTINUOUS
 0
LAYER
 2
MESH_270_F0
 70
64
 62
7
 6
CONTINUOUS
 0
LAYER
 2
MESH_269_F0
 70
64
 62
7
 6
CONTINUOUS
 0
LAYER
 2
MESH_268_F0
 70
64
 62
7
 6
CONTINUOUS
 0
LAYER
 2
MESH_267_F0
 70
64
 62
7
 6
CONTINUOUS
 0
LAYER
 2
MESH_266_F0
 70
64
 62
7
 6
CONTINUOUS
 0
LAYER
 2
MESH_265_F0
 70
64
 62
7
 6
CONTINUOUS
 0
LAYER
 2
MESH_264_F0
 70
64
 62
7
 6
CONTINUOUS
 0
LAYER
 2
MESH_263_F0
 70
64
 62
7
 6
CONTINUOUS
 0
LAYER
 2
MESH_262_F0
 70
64
 62
7
 6
CONTINUOUS
 0
LAYER
 2
MESH_261_F0
 70
64
 62
7
 6
CONTINUOUS
 0
LAYER
 2
MESH_260_F0
 70
64
 62
7
 6
CONTINUOUS
 0
LAYER
 2
MESH_259_F0
 70
64
 62
7
 6
CONTINUOUS
 0
LAYER
 2
MESH_258_F0
 70
64
 62
7
 6
CONTINUOUS
 0
LAYER
 2
MESH_257_F0
 70
64
 62
7
 6
CONTINUOUS
 0
LAYER
 2
MESH_256_F0
 70
64
 62
7
 6
CONTINUOUS
 0
LAYER
 2
MESH_255_F0
 70
64
 62
7
 6
CONTINUOUS
 0
LAYER
 2
MESH_254_F0
 70
64
 62
7
 6
CONTINUOUS
 0
LAYER
 2
MESH_253_F0
 70
64
 62
7
 6
CONTINUOUS
 0
LAYER
 2
MESH_252_F0
 70
64
 62
7
 6
CONTINUOUS
 0
LAYER
 2
MESH_251_F0
 70
64
 62
7
 6
CONTINUOUS
 0
LAYER
 2
MESH_250_F0
 70
64
 62
7
 6
CONTINUOUS
 0
LAYER
 2
MESH_249_F0
 70
64
 62
7
 6
CONTINUOUS
 0
LAYER
 2
MESH_248_F0
 70
64
 62
7
 6
CONTINUOUS
 0
LAYER
 2
MESH_247_F0
 70
64
 62
7
 6
CONTINUOUS
 0
LAYER
 2
MESH_246_F0
 70
64
 62
7
 6
CONTINUOUS
 0
LAYER
 2
MESH_245_F0
 70
64
 62
7
 6
CONTINUOUS
 0
LAYER
 2
MESH_244_F0
 70
64
 62
7
 6
CONTINUOUS
 0
LAYER
 2
MESH_243_F0
 70
64
 62
7
 6
CONTINUOUS
 0
LAYER
 2
MESH_242_F0
 70
64
 62
7
 6
CONTINUOUS
 0
LAYER
 2
MESH_241_F0
 70
64
 62
7
 6
CONTINUOUS
 0
LAYER
 2
MESH_240_F0
 70
64
 62
7
 6
CONTINUOUS
 0
LAYER
 2
MESH_239_F0
 70
64
 62
7
 6
CONTINUOUS
 0
LAYER
 2
MESH_238_F0
 70
64
 62
7
 6
CONTINUOUS
 0
LAYER
 2
MESH_237_F0
 70
64
 62
7
 6
CONTINUOUS
 0
LAYER
 2
MESH_236_F0
 70
64
 62
7
 6
CONTINUOUS
 0
LAYER
 2
MESH_235_F0
 70
64
 62
7
 6
CONTINUOUS
 0
LAYER
 2
MESH_234_F0
 70
64
 62
7
 6
CONTINUOUS
 0
ENDTAB
 0
ENDSEC
 0
SECTION
 2
BLOCKS
 0
ENDSEC
 0
SECTION
 2
ENTITIES
 0
POLYLINE
 8
MESH_324_F0
 66
1
 10
0.0
 20
0.0
 30
0.0
 70
64
 71
8
 72
6
 0
VERTEX
 8
MESH_324_F0
 10
-98.491
 20
45.9923
 30
0
 70
192
 0
VERTEX
 8
MESH_324_F0
 10
-98.491
 20
-45.9923
 30
0
 70
192
 0
VERTEX
 8
MESH_324_F0
 10
-98.2436
 20
-45.9923
 30
-0.0655
 70
192
 0
VERTEX
 8
MESH_324_F0
 10
-98.061
 20
-45.9923
 30
-0.245
 70
192
 0
VERTEX
 8
MESH_324_F0
 10
-97.9911
 20
-45.9923
 30
-0.4913
 70
192
 0
VERTEX
 8
MESH_324_F0
 10
-97.9911
 20
45.9923
 30
-0.4913
 70
192
 0
VERTEX
 8
MESH_324_F0
 10
-98.061
 20
45.9923
 30
-0.245
 70
192
 0
VERTEX
 8
MESH_324_F0
 10
-98.2436
 20
45.9923
 30
-0.0655
 70
192
 0
VERTEX
 8
MESH_324_F0
 10
0
 20
0
 30
0
 70
128
 71
8
 72
2
 73
1
 74
1
 0
VERTEX
 8
MESH_324_F0
 10
0
 20
0
 30
0
 70
128
 71
3
 72
2
 73
8
 74
8
 0
VERTEX
 8
MESH_324_F0
 10
0
 20
0
 30
0
 70
128
 71
3
 72
8
 73
4
 74
4
 0
VERTEX
 8
MESH_324_F0
 10
0
 20
0
 30
0
 70
128
 71
8
 72
7
 73
4
 74
4
 0
VERTEX
 8
MESH_324_F0
 10
0
 20
0
 30
0
 70
128
 71
7
 72
6
 73
4
 74
4
 0
VERTEX
 8
MESH_324_F0
 10
0
 20
0
 30
0
 70
128
 71
6
 72
5
 73
4
 74
4
 0
SEQEND
 0
POLYLINE
 8
MESH_323_F0
 66
1
 10
0.0
 20
0.0
 30
0.0
 70
64
 71
18
 72
19
 0
VERTEX
 8
MESH_323_F0
 10
-89.9923
 20
-53.9911
 30
-0.4913
 70
192
 0
VERTEX
 8
MESH_323_F0
 10
-93.0536
 20
-53.3823
 30
-0.4886
 70
192
 0
VERTEX
 8
MESH_323_F0
 10
-95.6485
 20
-51.6485
 30
-0.4877
 70
192
 0
VERTEX
 8
MESH_323_F0
 10
-97.3823
 20
-49.0536
 30
-0.4886
 70
192
 0
VERTEX
 8
MESH_323_F0
 10
-97.9911
 20
-45.9923
 30
-0.4913
 70
192
 0
VERTEX
 8
MESH_323_F0
 10
-98.061
 20
-45.9923
 30
-0.245
 70
192
 0
VERTEX
 8
MESH_323_F0
 10
-98.2436
 20
-45.9923
 30
-0.0655
 70
192
 0
VERTEX
 8
MESH_323_F0
 10
-98.491
 20
-45.9923
 30
0
 70
192
 0
VERTEX
 8
MESH_323_F0
 10
-97.8445
 20
-49.245
 30
0
 70
192
 0
VERTEX
 8
MESH_323_F0
 10
-96.0022
 20
-52.0022
 30
0
 70
192
 0
VERTEX
 8
MESH_323_F0
 10
-93.245
 20
-53.8445
 30
0
 70
192
 0
VERTEX
 8
MESH_323_F0
 10
-89.9923
 20
-54.491
 30
0
 70
192
 0
VERTEX
 8
MESH_323_F0
 10
-89.9923
 20
-54.2436
 30
-0.0655
 70
192
 0
VERTEX
 8
MESH_323_F0
 10
-89.9923
 20
-54.061
 30
-0.245
 70
192
 0
VERTEX
 8
MESH_323_F0
 10
-96.9746
 20
-50.0347
 30
-0.2459
 70
192
 0
VERTEX
 8
MESH_323_F0
 10
-94.0253
 20
-52.98
 30
-0.2459
 70
192
 0
VERTEX
 8
MESH_323_F0
 10
-97.1384
 20
-50.1295
 30
-0.0622
 70
192
 0
VERTEX
 8
MESH_323_F0
 10
-94.1199
 20
-53.1439
 30
-0.0622
 70
192
 0
VERTEX
 8
MESH_323_F0
 10
0
 20
0
 30
0
 70
128
 71
14
 72
2
 73
1
 74
1
 0
VERTEX
 8
MESH_323_F0
 10
0
 20
0
 30
0
 70
128
 71
16
 72
2
 73
14
 74
14
 0
VERTEX
 8
MESH_323_F0
 10
0
 20
0
 30
0
 70
128
 71
18
 72
16
 73
13
 74
13
 0
VERTEX
 8
MESH_323_F0
 10
0
 20
0
 30
0
 70
128
 71
11
 72
18
 73
12
 74
12
 0
VERTEX
 8
MESH_323_F0
 10
0
 20
0
 30
0
 70
128
 71
18
 72
13
 73
12
 74
12
 0
VERTEX
 8
MESH_323_F0
 10
0
 20
0
 30
0
 70
128
 71
16
 72
3
 73
2
 74
2
 0
VERTEX
 8
MESH_323_F0
 10
0
 20
0
 30
0
 70
128
 71
15
 72
3
 73
16
 74
16
 0
VERTEX
 8
MESH_323_F0
 10
0
 20
0
 30
0
 70
128
 71
7
 72
15
 73
17
 74
17
 0
VERTEX
 8
MESH_323_F0
 10
0
 20
0
 30
0
 70
128
 71
8
 72
7
 73
9
 74
9
 0
VERTEX
 8
MESH_323_F0
 10
0
 20
0
 30
0
 70
128
 71
7
 72
17
 73
9
 74
9
 0
VERTEX
 8
MESH_323_F0
 10
0
 20
0
 30
0
 70
128
 71
17
 72
10
 73
9
 74
9
 0
VERTEX
 8
MESH_323_F0
 10
0
 20
0
 30
0
 70
128
 71
18
 72
10
 73
17
 74
17
 0
VERTEX
 8
MESH_323_F0
 10
0
 20
0
 30
0
 70
128
 71
18
 72
17
 73
15
 74
16
 0
VERTEX
 8
MESH_323_F0
 10
0
 20
0
 30
0
 70
128
 71
15
 72
4
 73
3
 74
3
 0
VERTEX
 8
MESH_323_F0
 10
0
 20
0
 30
0
 70
128
 71
6
 72
4
 73
15
 74
15
 0
VERTEX
 8
MESH_323_F0
 10
0
 20
0
 30
0
 70
128
 71
6
 72
15
 73
7
 74
7
 0
VERTEX
 8
MESH_323_F0
 10
0
 20
0
 30
0
 70
128
 71
6
 72
5
 73
4
 74
4
 0
VERTEX
 8
MESH_323_F0
 10
0
 20
0
 30
0
 70
128
 71
18
 72
11
 73
10
 74
10
 0
VERTEX
 8
MESH_323_F0
 10
0
 20
0
 30
0
 70
128
 71
16
 72
14
 73
13
 74
13
 0
SEQEND
 0
POLYLINE
 8
MESH_322_F0
 66
1
 10
0.0
 20
0.0
 30
0.0
 70
64
 71
8
 72
6
 0
VERTEX
 8
MESH_322_F0
 10
97.9911
 20
45.9923
 30
-0.4913
 70
192
 0
VERTEX
 8
MESH_322_F0
 10
97.9911
 20
-45.9923
 30
-0.4913
 70
192
 0
VERTEX
 8
MESH_322_F0
 10
98.061
 20
-45.9923
 30
-0.245
 70
192
 0
VERTEX
 8
MESH_322_F0
 10
98.2436
 20
-45.9923
 30
-0.0655
 70
192
 0
VERTEX
 8
MESH_322_F0
 10
98.491
 20
-45.9923
 30
0
 70
192
 0
VERTEX
 8
MESH_322_F0
 10
98.491
 20
45.9923
 30
0
 70
192
 0
VERTEX
 8
MESH_322_F0
 10
98.2436
 20
45.9923
 30
-0.0655
 70
192
 0
VERTEX
 8
MESH_322_F0
 10
98.061
 20
45.9923
 30
-0.245
 70
192
 0
VERTEX
 8
MESH_322_F0
 10
0
 20
0
 30
0
 70
128
 71
8
 72
2
 73
1
 74
1
 0
VERTEX
 8
MESH_322_F0
 10
0
 20
0
 30
0
 70
128
 71
3
 72
2
 73
8
 74
8
 0
VERTEX
 8
MESH_322_F0
 10
0
 20
0
 30
0
 70
128
 71
3
 72
8
 73
4
 74
4
 0
VERTEX
 8
MESH_322_F0
 10
0
 20
0
 30
0
 70
128
 71
8
 72
7
 73
4
 74
4
 0
VERTEX
 8
MESH_322_F0
 10
0
 20
0
 30
0
 70
128
 71
7
 72
6
 73
4
 74
4
 0
VERTEX
 8
MESH_322_F0
 10
0
 20
0
 30
0
 70
128
 71
6
 72
5
 73
4
 74
4
 0
SEQEND
 0
POLYLINE
 8
MESH_321_F0
 66
1
 10
0.0
 20
0.0
 30
0.0
 70
64
 71
18
 72
19
 0
VERTEX
 8
MESH_321_F0
 10
97.9911
 20
-45.9923
 30
-0.4913
 70
192
 0
VERTEX
 8
MESH_321_F0
 10
97.3823
 20
-49.0536
 30
-0.4886
 70
192
 0
VERTEX
 8
MESH_321_F0
 10
95.6485
 20
-51.6485
 30
-0.4877
 70
192
 0
VERTEX
 8
MESH_321_F0
 10
93.0536
 20
-53.3823
 30
-0.4886
 70
192
 0
VERTEX
 8
MESH_321_F0
 10
89.9923
 20
-53.9911
 30
-0.4913
 70
192
 0
VERTEX
 8
MESH_321_F0
 10
89.9923
 20
-54.061
 30
-0.245
 70
192
 0
VERTEX
 8
MESH_321_F0
 10
89.9923
 20
-54.2436
 30
-0.0655
 70
192
 0
VERTEX
 8
MESH_321_F0
 10
89.9923
 20
-54.491
 30
0
 70
192
 0
VERTEX
 8
MESH_321_F0
 10
93.245
 20
-53.8445
 30
0
 70
192
 0
VERTEX
 8
MESH_321_F0
 10
96.0022
 20
-52.0022
 30
0
 70
192
 0
VERTEX
 8
MESH_321_F0
 10
97.8445
 20
-49.245
 30
0
 70
192
 0
VERTEX
 8
MESH_321_F0
 10
98.491
 20
-45.9923
 30
0
 70
192
 0
VERTEX
 8
MESH_321_F0
 10
98.2436
 20
-45.9923
 30
-0.0655
 70
192
 0
VERTEX
 8
MESH_321_F0
 10
98.061
 20
-45.9923
 30
-0.245
 70
192
 0
VERTEX
 8
MESH_321_F0
 10
94.0347
 20
-52.9746
 30
-0.2459
 70
192
 0
VERTEX
 8
MESH_321_F0
 10
96.98
 20
-50.0253
 30
-0.2459
 70
192
 0
VERTEX
 8
MESH_321_F0
 10
94.1295
 20
-53.1384
 30
-0.0622
 70
192
 0
VERTEX
 8
MESH_321_F0
 10
97.1439
 20
-50.1199
 30
-0.0622
 70
192
 0
VERTEX
 8
MESH_321_F0
 10
0
 20
0
 30
0
 70
128
 71
14
 72
2
 73
1
 74
1
 0
VERTEX
 8
MESH_321_F0
 10
0
 20
0
 30
0
 70
128
 71
16
 72
2
 73
14
 74
14
 0
VERTEX
 8
MESH_321_F0
 10
0
 20
0
 30
0
 70
128
 71
18
 72
16
 73
13
 74
13
 0
VERTEX
 8
MESH_321_F0
 10
0
 20
0
 30
0
 70
128
 71
11
 72
18
 73
12
 74
12
 0
VERTEX
 8
MESH_321_F0
 10
0
 20
0
 30
0
 70
128
 71
18
 72
13
 73
12
 74
12
 0
VERTEX
 8
MESH_321_F0
 10
0
 20
0
 30
0
 70
128
 71
16
 72
3
 73
2
 74
2
 0
VERTEX
 8
MESH_321_F0
 10
0
 20
0
 30
0
 70
128
 71
15
 72
3
 73
16
 74
16
 0
VERTEX
 8
MESH_321_F0
 10
0
 20
0
 30
0
 70
128
 71
7
 72
15
 73
17
 74
17
 0
VERTEX
 8
MESH_321_F0
 10
0
 20
0
 30
0
 70
128
 71
8
 72
7
 73
9
 74
9
 0
VERTEX
 8
MESH_321_F0
 10
0
 20
0
 30
0
 70
128
 71
7
 72
17
 73
9
 74
9
 0
VERTEX
 8
MESH_321_F0
 10
0
 20
0
 30
0
 70
128
 71
17
 72
10
 73
9
 74
9
 0
VERTEX
 8
MESH_321_F0
 10
0
 20
0
 30
0
 70
128
 71
18
 72
10
 73
17
 74
17
 0
VERTEX
 8
MESH_321_F0
 10
0
 20
0
 30
0
 70
128
 71
18
 72
17
 73
15
 74
16
 0
VERTEX
 8
MESH_321_F0
 10
0
 20
0
 30
0
 70
128
 71
15
 72
4
 73
3
 74
3
 0
VERTEX
 8
MESH_321_F0
 10
0
 20
0
 30
0
 70
128
 71
6
 72
4
 73
15
 74
15
 0
VERTEX
 8
MESH_321_F0
 10
0
 20
0
 30
0
 70
128
 71
6
 72
15
 73
7
 74
7
 0
VERTEX
 8
MESH_321_F0
 10
0
 20
0
 30
0
 70
128
 71
6
 72
5
 73
4
 74
4
 0
VERTEX
 8
MESH_321_F0
 10
0
 20
0
 30
0
 70
128
 71
18
 72
11
 73
10
 74
10
 0
VERTEX
 8
MESH_321_F0
 10
0
 20
0
 30
0
 70
128
 71
16
 72
14
 73
13
 74
13
 0
SEQEND
 0
POLYLINE
 8
MESH_320_F0
 66
1
 10
0.0
 20
0.0
 30
0.0
 70
64
 71
8
 72
6
 0
VERTEX
 8
MESH_320_F0
 10
89.9923
 20
-53.9911
 30
-0.4913
 70
192
 0
VERTEX
 8
MESH_320_F0
 10
-89.9923
 20
-53.9911
 30
-0.4913
 70
192
 0
VERTEX
 8
MESH_320_F0
 10
-89.9923
 20
-54.061
 30
-0.245
 70
192
 0
VERTEX
 8
MESH_320_F0
 10
-89.9923
 20
-54.2436
 30
-0.0655
 70
192
 0
VERTEX
 8
MESH_320_F0
 10
-89.9923
 20
-54.491
 30
0
 70
192
 0
VERTEX
 8
MESH_320_F0
 10
89.9923
 20
-54.491
 30
0
 70
192
 0
VERTEX
 8
MESH_320_F0
 10
89.9923
 20
-54.2436
 30
-0.0655
 70
192
 0
VERTEX
 8
MESH_320_F0
 10
89.9923
 20
-54.061
 30
-0.245
 70
192
 0
VERTEX
 8
MESH_320_F0
 10
0
 20
0
 30
0
 70
128
 71
8
 72
2
 73
1
 74
1
 0
VERTEX
 8
MESH_320_F0
 10
0
 20
0
 30
0
 70
128
 71
3
 72
2
 73
8
 74
8
 0
VERTEX
 8
MESH_320_F0
 10
0
 20
0
 30
0
 70
128
 71
3
 72
8
 73
4
 74
4
 0
VERTEX
 8
MESH_320_F0
 10
0
 20
0
 30
0
 70
128
 71
8
 72
7
 73
4
 74
4
 0
VERTEX
 8
MESH_320_F0
 10
0
 20
0
 30
0
 70
128
 71
7
 72
6
 73
4
 74
4
 0
VERTEX
 8
MESH_320_F0
 10
0
 20
0
 30
0
 70
128
 71
6
 72
5
 73
4
 74
4
 0
SEQEND
 0
POLYLINE
 8
MESH_319_F0
 66
1
 10
0.0
 20
0.0
 30
0.0
 70
64
 71
10
 72
8
 0
VERTEX
 8
MESH_319_F0
 10
-82
 20
-39.7151
 30
-70
 70
192
 0
VERTEX
 8
MESH_319_F0
 10
-82
 20
-39.75
 30
-72
 70
192
 0
VERTEX
 8
MESH_319_F0
 10
-82.5303
 20
-39.5303
 30
-72
 70
192
 0
VERTEX
 8
MESH_319_F0
 10
-82.75
 20
-39
 30
-72
 70
192
 0
VERTEX
 8
MESH_319_F0
 10
-82.5303
 20
-38.4697
 30
-72
 70
192
 0
VERTEX
 8
MESH_319_F0
 10
-82
 20
-38.25
 30
-72
 70
192
 0
VERTEX
 8
MESH_319_F0
 10
-82
 20
-38.2849
 30
-70
 70
192
 0
VERTEX
 8
MESH_319_F0
 10
-82.5056
 20
-38.4944
 30
-70
 70
192
 0
VERTEX
 8
MESH_319_F0
 10
-82.7151
 20
-39
 30
-70
 70
192
 0
VERTEX
 8
MESH_319_F0
 10
-82.5056
 20
-39.5056
 30
-70
 70
192
 0
VERTEX
 8
MESH_319_F0
 10
0
 20
0
 30
0
 70
128
 71
10
 72
2
 73
1
 74
1
 0
VERTEX
 8
MESH_319_F0
 10
0
 20
0
 30
0
 70
128
 71
3
 72
2
 73
10
 74
10
 0
VERTEX
 8
MESH_319_F0
 10
0
 20
0
 30
0
 70
128
 71
4
 72
3
 73
9
 74
9
 0
VERTEX
 8
MESH_319_F0
 10
0
 20
0
 30
0
 70
128
 71
5
 72
4
 73
8
 74
8
 0
VERTEX
 8
MESH_319_F0
 10
0
 20
0
 30
0
 70
128
 71
6
 72
5
 73
7
 74
7
 0
VERTEX
 8
MESH_319_F0
 10
0
 20
0
 30
0
 70
128
 71
5
 72
8
 73
7
 74
7
 0
VERTEX
 8
MESH_319_F0
 10
0
 20
0
 30
0
 70
128
 71
4
 72
9
 73
8
 74
8
 0
VERTEX
 8
MESH_319_F0
 10
0
 20
0
 30
0
 70
128
 71
3
 72
10
 73
9
 74
9
 0
SEQEND
 0
POLYLINE
 8
MESH_318_F0
 66
1
 10
0.0
 20
0.0
 30
0.0
 70
64
 71
10
 72
8
 0
VERTEX
 8
MESH_318_F0
 10
-82
 20
-39.7151
 30
-70
 70
192
 0
VERTEX
 8
MESH_318_F0
 10
-81.4944
 20
-39.5056
 30
-70
 70
192
 0
VERTEX
 8
MESH_318_F0
 10
-81.2849
 20
-39
 30
-70
 70
192
 0
VERTEX
 8
MESH_318_F0
 10
-81.4944
 20
-38.4944
 30
-70
 70
192
 0
VERTEX
 8
MESH_318_F0
 10
-82
 20
-38.2849
 30
-70
 70
192
 0
VERTEX
 8
MESH_318_F0
 10
-82
 20
-38.25
 30
-72
 70
192
 0
VERTEX
 8
MESH_318_F0
 10
-81.4697
 20
-38.4697
 30
-72
 70
192
 0
VERTEX
 8
MESH_318_F0
 10
-81.25
 20
-39
 30
-72
 70
192
 0
VERTEX
 8
MESH_318_F0
 10
-81.4697
 20
-39.5303
 30
-72
 70
192
 0
VERTEX
 8
MESH_318_F0
 10
-82
 20
-39.75
 30
-72
 70
192
 0
VERTEX
 8
MESH_318_F0
 10
0
 20
0
 30
0
 70
128
 71
9
 72
1
 73
10
 74
10
 0
VERTEX
 8
MESH_318_F0
 10
0
 20
0
 30
0
 70
128
 71
2
 72
1
 73
9
 74
9
 0
VERTEX
 8
MESH_318_F0
 10
0
 20
0
 30
0
 70
128
 71
3
 72
2
 73
8
 74
8
 0
VERTEX
 8
MESH_318_F0
 10
0
 20
0
 30
0
 70
128
 71
4
 72
3
 73
7
 74
7
 0
VERTEX
 8
MESH_318_F0
 10
0
 20
0
 30
0
 70
128
 71
5
 72
4
 73
6
 74
6
 0
VERTEX
 8
MESH_318_F0
 10
0
 20
0
 30
0
 70
128
 71
4
 72
7
 73
6
 74
6
 0
VERTEX
 8
MESH_318_F0
 10
0
 20
0
 30
0
 70
128
 71
3
 72
8
 73
7
 74
7
 0
VERTEX
 8
MESH_318_F0
 10
0
 20
0
 30
0
 70
128
 71
2
 72
9
 73
8
 74
8
 0
SEQEND
 0
POLYLINE
 8
MESH_317_F0
 66
1
 10
0.0
 20
0.0
 30
0.0
 70
64
 71
16
 72
16
 0
VERTEX
 8
MESH_317_F0
 10
-82
 20
-42.55
 30
-72
 70
192
 0
VERTEX
 8
MESH_317_F0
 10
-84.5102
 20
-41.5102
 30
-72
 70
192
 0
VERTEX
 8
MESH_317_F0
 10
-85.55
 20
-39
 30
-72
 70
192
 0
VERTEX
 8
MESH_317_F0
 10
-84.5102
 20
-36.4898
 30
-72
 70
192
 0
VERTEX
 8
MESH_317_F0
 10
-82
 20
-35.45
 30
-72
 70
192
 0
VERTEX
 8
MESH_317_F0
 10
-79.4898
 20
-36.4898
 30
-72
 70
192
 0
VERTEX
 8
MESH_317_F0
 10
-78.45
 20
-39
 30
-72
 70
192
 0
VERTEX
 8
MESH_317_F0
 10
-79.4898
 20
-41.5102
 30
-72
 70
192
 0
VERTEX
 8
MESH_317_F0
 10
-82
 20
-38.25
 30
-72
 70
192
 0
VERTEX
 8
MESH_317_F0
 10
-82.5303
 20
-38.4697
 30
-72
 70
192
 0
VERTEX
 8
MESH_317_F0
 10
-82.75
 20
-39
 30
-72
 70
192
 0
VERTEX
 8
MESH_317_F0
 10
-82.5303
 20
-39.5303
 30
-72
 70
192
 0
VERTEX
 8
MESH_317_F0
 10
-82
 20
-39.75
 30
-72
 70
192
 0
VERTEX
 8
MESH_317_F0
 10
-81.4697
 20
-39.5303
 30
-72
 70
192
 0
VERTEX
 8
MESH_317_F0
 10
-81.25
 20
-39
 30
-72
 70
192
 0
VERTEX
 8
MESH_317_F0
 10
-81.4697
 20
-38.4697
 30
-72
 70
192
 0
VERTEX
 8
MESH_317_F0
 10
0
 20
0
 30
0
 70
128
 71
13
 72
1
 73
8
 74
8
 0
VERTEX
 8
MESH_317_F0
 10
0
 20
0
 30
0
 70
128
 71
13
 72
8
 73
14
 74
14
 0
VERTEX
 8
MESH_317_F0
 10
0
 20
0
 30
0
 70
128
 71
8
 72
7
 73
14
 74
14
 0
VERTEX
 8
MESH_317_F0
 10
0
 20
0
 30
0
 70
128
 71
7
 72
15
 73
14
 74
14
 0
VERTEX
 8
MESH_317_F0
 10
0
 20
0
 30
0
 70
128
 71
16
 72
15
 73
7
 74
7
 0
VERTEX
 8
MESH_317_F0
 10
0
 20
0
 30
0
 70
128
 71
9
 72
16
 73
6
 74
6
 0
VERTEX
 8
MESH_317_F0
 10
0
 20
0
 30
0
 70
128
 71
4
 72
9
 73
5
 74
5
 0
VERTEX
 8
MESH_317_F0
 10
0
 20
0
 30
0
 70
128
 71
9
 72
6
 73
5
 74
5
 0
VERTEX
 8
MESH_317_F0
 10
0
 20
0
 30
0
 70
128
 71
3
 72
10
 73
4
 74
4
 0
VERTEX
 8
MESH_317_F0
 10
0
 20
0
 30
0
 70
128
 71
10
 72
9
 73
4
 74
4
 0
VERTEX
 8
MESH_317_F0
 10
0
 20
0
 30
0
 70
128
 71
16
 72
7
 73
6
 74
6
 0
VERTEX
 8
MESH_317_F0
 10
0
 20
0
 30
0
 70
128
 71
3
 72
11
 73
10
 74
10
 0
VERTEX
 8
MESH_317_F0
 10
0
 20
0
 30
0
 70
128
 71
2
 72
11
 73
3
 74
3
 0
VERTEX
 8
MESH_317_F0
 10
0
 20
0
 30
0
 70
128
 71
12
 72
11
 73
2
 74
2
 0
VERTEX
 8
MESH_317_F0
 10
0
 20
0
 30
0
 70
128
 71
12
 72
2
 73
13
 74
13
 0
VERTEX
 8
MESH_317_F0
 10
0
 20
0
 30
0
 70
128
 71
2
 72
1
 73
13
 74
13
 0
SEQEND
 0
POLYLINE
 8
MESH_316_F0
 66
1
 10
0.0
 20
0.0
 30
0.0
 70
64
 71
10
 72
8
 0
VERTEX
 8
MESH_316_F0
 10
-82
 20
-42.55
 30
-72
 70
192
 0
VERTEX
 8
MESH_316_F0
 10
-82
 20
-42.5849
 30
-76
 70
192
 0
VERTEX
 8
MESH_316_F0
 10
-84.5349
 20
-41.5349
 30
-76
 70
192
 0
VERTEX
 8
MESH_316_F0
 10
-85.5849
 20
-39
 30
-76
 70
192
 0
VERTEX
 8
MESH_316_F0
 10
-84.5349
 20
-36.4651
 30
-76
 70
192
 0
VERTEX
 8
MESH_316_F0
 10
-82
 20
-35.4151
 30
-76
 70
192
 0
VERTEX
 8
MESH_316_F0
 10
-82
 20
-35.45
 30
-72
 70
192
 0
VERTEX
 8
MESH_316_F0
 10
-84.5102
 20
-36.4898
 30
-72
 70
192
 0
VERTEX
 8
MESH_316_F0
 10
-85.55
 20
-39
 30
-72
 70
192
 0
VERTEX
 8
MESH_316_F0
 10
-84.5102
 20
-41.5102
 30
-72
 70
192
 0
VERTEX
 8
MESH_316_F0
 10
0
 20
0
 30
0
 70
128
 71
10
 72
2
 73
1
 74
1
 0
VERTEX
 8
MESH_316_F0
 10
0
 20
0
 30
0
 70
128
 71
3
 72
2
 73
10
 74
10
 0
VERTEX
 8
MESH_316_F0
 10
0
 20
0
 30
0
 70
128
 71
4
 72
3
 73
9
 74
9
 0
VERTEX
 8
MESH_316_F0
 10
0
 20
0
 30
0
 70
128
 71
5
 72
4
 73
8
 74
8
 0
VERTEX
 8
MESH_316_F0
 10
0
 20
0
 30
0
 70
128
 71
6
 72
5
 73
7
 74
7
 0
VERTEX
 8
MESH_316_F0
 10
0
 20
0
 30
0
 70
128
 71
5
 72
8
 73
7
 74
7
 0
VERTEX
 8
MESH_316_F0
 10
0
 20
0
 30
0
 70
128
 71
4
 72
9
 73
8
 74
8
 0
VERTEX
 8
MESH_316_F0
 10
0
 20
0
 30
0
 70
128
 71
3
 72
10
 73
9
 74
9
 0
SEQEND
 0
POLYLINE
 8
MESH_315_F0
 66
1
 10
0.0
 20
0.0
 30
0.0
 70
64
 71
10
 72
8
 0
VERTEX
 8
MESH_315_F0
 10
-82
 20
-42.55
 30
-72
 70
192
 0
VERTEX
 8
MESH_315_F0
 10
-79.4898
 20
-41.5102
 30
-72
 70
192
 0
VERTEX
 8
MESH_315_F0
 10
-78.45
 20
-39
 30
-72
 70
192
 0
VERTEX
 8
MESH_315_F0
 10
-79.4898
 20
-36.4898
 30
-72
 70
192
 0
VERTEX
 8
MESH_315_F0
 10
-82
 20
-35.45
 30
-72
 70
192
 0
VERTEX
 8
MESH_315_F0
 10
-82
 20
-35.4151
 30
-76
 70
192
 0
VERTEX
 8
MESH_315_F0
 10
-79.4651
 20
-36.4651
 30
-76
 70
192
 0
VERTEX
 8
MESH_315_F0
 10
-78.4151
 20
-39
 30
-76
 70
192
 0
VERTEX
 8
MESH_315_F0
 10
-79.4651
 20
-41.5349
 30
-76
 70
192
 0
VERTEX
 8
MESH_315_F0
 10
-82
 20
-42.5849
 30
-76
 70
192
 0
VERTEX
 8
MESH_315_F0
 10
0
 20
0
 30
0
 70
128
 71
9
 72
1
 73
10
 74
10
 0
VERTEX
 8
MESH_315_F0
 10
0
 20
0
 30
0
 70
128
 71
2
 72
1
 73
9
 74
9
 0
VERTEX
 8
MESH_315_F0
 10
0
 20
0
 30
0
 70
128
 71
3
 72
2
 73
8
 74
8
 0
VERTEX
 8
MESH_315_F0
 10
0
 20
0
 30
0
 70
128
 71
4
 72
3
 73
7
 74
7
 0
VERTEX
 8
MESH_315_F0
 10
0
 20
0
 30
0
 70
128
 71
5
 72
4
 73
6
 74
6
 0
VERTEX
 8
MESH_315_F0
 10
0
 20
0
 30
0
 70
128
 71
4
 72
7
 73
6
 74
6
 0
VERTEX
 8
MESH_315_F0
 10
0
 20
0
 30
0
 70
128
 71
3
 72
8
 73
7
 74
7
 0
VERTEX
 8
MESH_315_F0
 10
0
 20
0
 30
0
 70
128
 71
2
 72
9
 73
8
 74
8
 0
SEQEND
 0
POLYLINE
 8
MESH_314_F0
 66
1
 10
0.0
 20
0.0
 30
0.0
 70
64
 71
10
 72
8
 0
VERTEX
 8
MESH_314_F0
 10
-82
 20
-43.4802
 30
-76
 70
192
 0
VERTEX
 8
MESH_314_F0
 10
-78.832
 20
-42.168
 30
-76
 70
192
 0
VERTEX
 8
MESH_314_F0
 10
-77.5198
 20
-39
 30
-76
 70
192
 0
VERTEX
 8
MESH_314_F0
 10
-78.832
 20
-35.832
 30
-76
 70
192
 0
VERTEX
 8
MESH_314_F0
 10
-82
 20
-34.5198
 30
-76
 70
192
 0
VERTEX
 8
MESH_314_F0
 10
-82
 20
-34.4586
 30
-72.4913
 70
192
 0
VERTEX
 8
MESH_314_F0
 10
-78.7887
 20
-35.7887
 30
-72.4913
 70
192
 0
VERTEX
 8
MESH_314_F0
 10
-77.4586
 20
-39
 30
-72.4913
 70
192
 0
VERTEX
 8
MESH_314_F0
 10
-78.7887
 20
-42.2113
 30
-72.4913
 70
192
 0
VERTEX
 8
MESH_314_F0
 10
-82
 20
-43.5414
 30
-72.4913
 70
192
 0
VERTEX
 8
MESH_314_F0
 10
0
 20
0
 30
0
 70
128
 71
9
 72
1
 73
10
 74
10
 0
VERTEX
 8
MESH_314_F0
 10
0
 20
0
 30
0
 70
128
 71
2
 72
1
 73
9
 74
9
 0
VERTEX
 8
MESH_314_F0
 10
0
 20
0
 30
0
 70
128
 71
3
 72
2
 73
8
 74
8
 0
VERTEX
 8
MESH_314_F0
 10
0
 20
0
 30
0
 70
128
 71
4
 72
3
 73
7
 74
7
 0
VERTEX
 8
MESH_314_F0
 10
0
 20
0
 30
0
 70
128
 71
5
 72
4
 73
6
 74
6
 0
VERTEX
 8
MESH_314_F0
 10
0
 20
0
 30
0
 70
128
 71
4
 72
7
 73
6
 74
6
 0
VERTEX
 8
MESH_314_F0
 10
0
 20
0
 30
0
 70
128
 71
3
 72
8
 73
7
 74
7
 0
VERTEX
 8
MESH_314_F0
 10
0
 20
0
 30
0
 70
128
 71
2
 72
9
 73
8
 74
8
 0
SEQEND
 0
POLYLINE
 8
MESH_313_F0
 66
1
 10
0.0
 20
0.0
 30
0.0
 70
64
 71
16
 72
16
 0
VERTEX
 8
MESH_313_F0
 10
-82
 20
-43.4802
 30
-76
 70
192
 0
VERTEX
 8
MESH_313_F0
 10
-85.168
 20
-42.168
 30
-76
 70
192
 0
VERTEX
 8
MESH_313_F0
 10
-86.4802
 20
-39
 30
-76
 70
192
 0
VERTEX
 8
MESH_313_F0
 10
-85.168
 20
-35.832
 30
-76
 70
192
 0
VERTEX
 8
MESH_313_F0
 10
-82
 20
-34.5198
 30
-76
 70
192
 0
VERTEX
 8
MESH_313_F0
 10
-78.832
 20
-35.832
 30
-76
 70
192
 0
VERTEX
 8
MESH_313_F0
 10
-77.5198
 20
-39
 30
-76
 70
192
 0
VERTEX
 8
MESH_313_F0
 10
-78.832
 20
-42.168
 30
-76
 70
192
 0
VERTEX
 8
MESH_313_F0
 10
-82
 20
-35.4151
 30
-76
 70
192
 0
VERTEX
 8
MESH_313_F0
 10
-84.5349
 20
-36.4651
 30
-76
 70
192
 0
VERTEX
 8
MESH_313_F0
 10
-85.5849
 20
-39
 30
-76
 70
192
 0
VERTEX
 8
MESH_313_F0
 10
-84.5349
 20
-41.5349
 30
-76
 70
192
 0
VERTEX
 8
MESH_313_F0
 10
-82
 20
-42.5849
 30
-76
 70
192
 0
VERTEX
 8
MESH_313_F0
 10
-79.4651
 20
-41.5349
 30
-76
 70
192
 0
VERTEX
 8
MESH_313_F0
 10
-78.4151
 20
-39
 30
-76
 70
192
 0
VERTEX
 8
MESH_313_F0
 10
-79.4651
 20
-36.4651
 30
-76
 70
192
 0
VERTEX
 8
MESH_313_F0
 10
0
 20
0
 30
0
 70
128
 71
2
 72
11
 73
3
 74
3
 0
VERTEX
 8
MESH_313_F0
 10
0
 20
0
 30
0
 70
128
 71
11
 72
4
 73
3
 74
3
 0
VERTEX
 8
MESH_313_F0
 10
0
 20
0
 30
0
 70
128
 71
10
 72
4
 73
11
 74
11
 0
VERTEX
 8
MESH_313_F0
 10
0
 20
0
 30
0
 70
128
 71
9
 72
4
 73
10
 74
10
 0
VERTEX
 8
MESH_313_F0
 10
0
 20
0
 30
0
 70
128
 71
5
 72
4
 73
9
 74
9
 0
VERTEX
 8
MESH_313_F0
 10
0
 20
0
 30
0
 70
128
 71
6
 72
5
 73
16
 74
16
 0
VERTEX
 8
MESH_313_F0
 10
0
 20
0
 30
0
 70
128
 71
7
 72
6
 73
15
 74
15
 0
VERTEX
 8
MESH_313_F0
 10
0
 20
0
 30
0
 70
128
 71
7
 72
15
 73
8
 74
8
 0
VERTEX
 8
MESH_313_F0
 10
0
 20
0
 30
0
 70
128
 71
15
 72
14
 73
8
 74
8
 0
VERTEX
 8
MESH_313_F0
 10
0
 20
0
 30
0
 70
128
 71
14
 72
1
 73
8
 74
8
 0
VERTEX
 8
MESH_313_F0
 10
0
 20
0
 30
0
 70
128
 71
13
 72
1
 73
14
 74
14
 0
VERTEX
 8
MESH_313_F0
 10
0
 20
0
 30
0
 70
128
 71
12
 72
1
 73
13
 74
13
 0
VERTEX
 8
MESH_313_F0
 10
0
 20
0
 30
0
 70
128
 71
2
 72
1
 73
12
 74
12
 0
VERTEX
 8
MESH_313_F0
 10
0
 20
0
 30
0
 70
128
 71
2
 72
12
 73
11
 74
11
 0
VERTEX
 8
MESH_313_F0
 10
0
 20
0
 30
0
 70
128
 71
6
 72
16
 73
15
 74
15
 0
VERTEX
 8
MESH_313_F0
 10
0
 20
0
 30
0
 70
128
 71
5
 72
9
 73
16
 74
16
 0
SEQEND
 0
POLYLINE
 8
MESH_312_F0
 66
1
 10
0.0
 20
0.0
 30
0.0
 70
64
 71
10
 72
8
 0
VERTEX
 8
MESH_312_F0
 10
-82
 20
-43.4802
 30
-76
 70
192
 0
VERTEX
 8
MESH_312_F0
 10
-82
 20
-43.5414
 30
-72.4913
 70
192
 0
VERTEX
 8
MESH_312_F0
 10
-85.2113
 20
-42.2113
 30
-72.4913
 70
192
 0
VERTEX
 8
MESH_312_F0
 10
-86.5414
 20
-39
 30
-72.4913
 70
192
 0
VERTEX
 8
MESH_312_F0
 10
-85.2113
 20
-35.7887
 30
-72.4913
 70
192
 0
VERTEX
 8
MESH_312_F0
 10
-82
 20
-34.4586
 30
-72.4913
 70
192
 0
VERTEX
 8
MESH_312_F0
 10
-82
 20
-34.5198
 30
-76
 70
192
 0
VERTEX
 8
MESH_312_F0
 10
-85.168
 20
-35.832
 30
-76
 70
192
 0
VERTEX
 8
MESH_312_F0
 10
-86.4802
 20
-39
 30
-76
 70
192
 0
VERTEX
 8
MESH_312_F0
 10
-85.168
 20
-42.168
 30
-76
 70
192
 0
VERTEX
 8
MESH_312_F0
 10
0
 20
0
 30
0
 70
128
 71
10
 72
2
 73
1
 74
1
 0
VERTEX
 8
MESH_312_F0
 10
0
 20
0
 30
0
 70
128
 71
3
 72
2
 73
10
 74
10
 0
VERTEX
 8
MESH_312_F0
 10
0
 20
0
 30
0
 70
128
 71
4
 72
3
 73
9
 74
9
 0
VERTEX
 8
MESH_312_F0
 10
0
 20
0
 30
0
 70
128
 71
5
 72
4
 73
8
 74
8
 0
VERTEX
 8
MESH_312_F0
 10
0
 20
0
 30
0
 70
128
 71
6
 72
5
 73
7
 74
7
 0
VERTEX
 8
MESH_312_F0
 10
0
 20
0
 30
0
 70
128
 71
5
 72
8
 73
7
 74
7
 0
VERTEX
 8
MESH_312_F0
 10
0
 20
0
 30
0
 70
128
 71
4
 72
9
 73
8
 74
8
 0
VERTEX
 8
MESH_312_F0
 10
0
 20
0
 30
0
 70
128
 71
3
 72
10
 73
9
 74
9
 0
SEQEND
 0
POLYLINE
 8
MESH_311_F0
 66
1
 10
0.0
 20
0.0
 30
0.0
 70
64
 71
24
 72
28
 0
VERTEX
 8
MESH_311_F0
 10
-82
 20
-33.9587
 30
-72
 70
192
 0
VERTEX
 8
MESH_311_F0
 10
-82
 20
-34.2061
 30
-72.0655
 70
192
 0
VERTEX
 8
MESH_311_F0
 10
-82
 20
-34.3887
 30
-72.245
 70
192
 0
VERTEX
 8
MESH_311_F0
 10
-82
 20
-34.4586
 30
-72.4913
 70
192
 0
VERTEX
 8
MESH_311_F0
 10
-85.2113
 20
-35.7887
 30
-72.4913
 70
192
 0
VERTEX
 8
MESH_311_F0
 10
-86.5414
 20
-39
 30
-72.4913
 70
192
 0
VERTEX
 8
MESH_311_F0
 10
-85.2113
 20
-42.2113
 30
-72.4913
 70
192
 0
VERTEX
 8
MESH_311_F0
 10
-82
 20
-43.5414
 30
-72.4913
 70
192
 0
VERTEX
 8
MESH_311_F0
 10
-82
 20
-43.6113
 30
-72.245
 70
192
 0
VERTEX
 8
MESH_311_F0
 10
-82
 20
-43.7939
 30
-72.0655
 70
192
 0
VERTEX
 8
MESH_311_F0
 10
-82
 20
-44.0413
 30
-72
 70
192
 0
VERTEX
 8
MESH_311_F0
 10
-85.5648
 20
-42.5648
 30
-72
 70
192
 0
VERTEX
 8
MESH_311_F0
 10
-87.0414
 20
-39
 30
-72
 70
192
 0
VERTEX
 8
MESH_311_F0
 10
-85.5648
 20
-35.4352
 30
-72
 70
192
 0
VERTEX
 8
MESH_311_F0
 10
-84.3042
 20
-35.0091
 30
-72.25
 70
192
 0
VERTEX
 8
MESH_311_F0
 10
-84.5407
 20
-34.9931
 30
-72.0977
 70
192
 0
VERTEX
 8
MESH_311_F0
 10
-85.9909
 20
-36.6958
 30
-72.25
 70
192
 0
VERTEX
 8
MESH_311_F0
 10
-86.2469
 20
-36.8053
 30
-72.0735
 70
192
 0
VERTEX
 8
MESH_311_F0
 10
-85.9909
 20
-41.3042
 30
-72.25
 70
192
 0
VERTEX
 8
MESH_311_F0
 10
-86.2219
 20
-41.2444
 30
-72.0729
 70
192
 0
VERTEX
 8
MESH_311_F0
 10
-86.7913
 20
-39
 30
-72.067
 70
192
 0
VERTEX
 8
MESH_311_F0
 10
-86.6083
 20
-39
 30
-72.25
 70
192
 0
VERTEX
 8
MESH_311_F0
 10
-84.3042
 20
-42.9909
 30
-72.25
 70
192
 0
VERTEX
 8
MESH_311_F0
 10
-84.5205
 20
-43.0882
 30
-72.0606
 70
192
 0
VERTEX
 8
MESH_311_F0
 10
0
 20
0
 30
0
 70
128
 71
14
 72
2
 73
1
 74
1
 0
VERTEX
 8
MESH_311_F0
 10
0
 20
0
 30
0
 70
128
 71
16
 72
2
 73
14
 74
14
 0
VERTEX
 8
MESH_311_F0
 10
0
 20
0
 30
0
 70
128
 71
17
 72
15
 73
16
 74
18
 0
VERTEX
 8
MESH_311_F0
 10
0
 20
0
 30
0
 70
128
 71
18
 72
21
 73
22
 74
17
 0
VERTEX
 8
MESH_311_F0
 10
0
 20
0
 30
0
 70
128
 71
5
 72
17
 73
6
 74
6
 0
VERTEX
 8
MESH_311_F0
 10
0
 20
0
 30
0
 70
128
 71
17
 72
22
 73
6
 74
6
 0
VERTEX
 8
MESH_311_F0
 10
0
 20
0
 30
0
 70
128
 71
22
 72
19
 73
6
 74
6
 0
VERTEX
 8
MESH_311_F0
 10
0
 20
0
 30
0
 70
128
 71
19
 72
7
 73
6
 74
6
 0
VERTEX
 8
MESH_311_F0
 10
0
 20
0
 30
0
 70
128
 71
23
 72
7
 73
19
 74
19
 0
VERTEX
 8
MESH_311_F0
 10
0
 20
0
 30
0
 70
128
 71
10
 72
23
 73
24
 74
24
 0
VERTEX
 8
MESH_311_F0
 10
0
 20
0
 30
0
 70
128
 71
10
 72
24
 73
11
 74
11
 0
VERTEX
 8
MESH_311_F0
 10
0
 20
0
 30
0
 70
128
 71
24
 72
12
 73
11
 74
11
 0
VERTEX
 8
MESH_311_F0
 10
0
 20
0
 30
0
 70
128
 71
20
 72
12
 73
24
 74
24
 0
VERTEX
 8
MESH_311_F0
 10
0
 20
0
 30
0
 70
128
 71
22
 72
21
 73
20
 74
19
 0
VERTEX
 8
MESH_311_F0
 10
0
 20
0
 30
0
 70
128
 71
19
 72
20
 73
24
 74
23
 0
VERTEX
 8
MESH_311_F0
 10
0
 20
0
 30
0
 70
128
 71
16
 72
3
 73
2
 74
2
 0
VERTEX
 8
MESH_311_F0
 10
0
 20
0
 30
0
 70
128
 71
15
 72
3
 73
16
 74
16
 0
VERTEX
 8
MESH_311_F0
 10
0
 20
0
 30
0
 70
128
 71
4
 72
3
 73
15
 74
15
 0
VERTEX
 8
MESH_311_F0
 10
0
 20
0
 30
0
 70
128
 71
4
 72
15
 73
5
 74
5
 0
VERTEX
 8
MESH_311_F0
 10
0
 20
0
 30
0
 70
128
 71
15
 72
17
 73
5
 74
5
 0
VERTEX
 8
MESH_311_F0
 10
0
 20
0
 30
0
 70
128
 71
23
 72
8
 73
7
 74
7
 0
VERTEX
 8
MESH_311_F0
 10
0
 20
0
 30
0
 70
128
 71
9
 72
8
 73
23
 74
23
 0
VERTEX
 8
MESH_311_F0
 10
0
 20
0
 30
0
 70
128
 71
9
 72
23
 73
10
 74
10
 0
VERTEX
 8
MESH_311_F0
 10
0
 20
0
 30
0
 70
128
 71
20
 72
13
 73
12
 74
12
 0
VERTEX
 8
MESH_311_F0
 10
0
 20
0
 30
0
 70
128
 71
21
 72
13
 73
20
 74
20
 0
VERTEX
 8
MESH_311_F0
 10
0
 20
0
 30
0
 70
128
 71
18
 72
13
 73
21
 74
21
 0
VERTEX
 8
MESH_311_F0
 10
0
 20
0
 30
0
 70
128
 71
14
 72
13
 73
18
 74
18
 0
VERTEX
 8
MESH_311_F0
 10
0
 20
0
 30
0
 70
128
 71
14
 72
18
 73
16
 74
16
 0
SEQEND
 0
POLYLINE
 8
MESH_310_F0
 66
1
 10
0.0
 20
0.0
 30
0.0
 70
64
 71
24
 72
28
 0
VERTEX
 8
MESH_310_F0
 10
-82
 20
-33.9587
 30
-72
 70
192
 0
VERTEX
 8
MESH_310_F0
 10
-78.4352
 20
-35.4352
 30
-72
 70
192
 0
VERTEX
 8
MESH_310_F0
 10
-76.9586
 20
-39
 30
-72
 70
192
 0
VERTEX
 8
MESH_310_F0
 10
-78.4352
 20
-42.5648
 30
-72
 70
192
 0
VERTEX
 8
MESH_310_F0
 10
-82
 20
-44.0413
 30
-72
 70
192
 0
VERTEX
 8
MESH_310_F0
 10
-82
 20
-43.7939
 30
-72.0655
 70
192
 0
VERTEX
 8
MESH_310_F0
 10
-82
 20
-43.6113
 30
-72.245
 70
192
 0
VERTEX
 8
MESH_310_F0
 10
-82
 20
-43.5414
 30
-72.4913
 70
192
 0
VERTEX
 8
MESH_310_F0
 10
-78.7887
 20
-42.2113
 30
-72.4913
 70
192
 0
VERTEX
 8
MESH_310_F0
 10
-77.4586
 20
-39
 30
-72.4913
 70
192
 0
VERTEX
 8
MESH_310_F0
 10
-78.7887
 20
-35.7887
 30
-72.4913
 70
192
 0
VERTEX
 8
MESH_310_F0
 10
-82
 20
-34.4586
 30
-72.4913
 70
192
 0
VERTEX
 8
MESH_310_F0
 10
-82
 20
-34.3887
 30
-72.245
 70
192
 0
VERTEX
 8
MESH_310_F0
 10
-82
 20
-34.2061
 30
-72.0655
 70
192
 0
VERTEX
 8
MESH_310_F0
 10
-79.4795
 20
-34.9118
 30
-72.0606
 70
192
 0
VERTEX
 8
MESH_310_F0
 10
-79.6958
 20
-35.0091
 30
-72.25
 70
192
 0
VERTEX
 8
MESH_310_F0
 10
-77.7781
 20
-36.7556
 30
-72.0729
 70
192
 0
VERTEX
 8
MESH_310_F0
 10
-78.0091
 20
-36.6958
 30
-72.25
 70
192
 0
VERTEX
 8
MESH_310_F0
 10
-77.7531
 20
-41.1947
 30
-72.0735
 70
192
 0
VERTEX
 8
MESH_310_F0
 10
-78.0091
 20
-41.3042
 30
-72.25
 70
192
 0
VERTEX
 8
MESH_310_F0
 10
-77.3917
 20
-39
 30
-72.25
 70
192
 0
VERTEX
 8
MESH_310_F0
 10
-77.2086
 20
-39
 30
-72.067
 70
192
 0
VERTEX
 8
MESH_310_F0
 10
-79.4593
 20
-43.0068
 30
-72.0977
 70
192
 0
VERTEX
 8
MESH_310_F0
 10
-79.6958
 20
-42.9909
 30
-72.25
 70
192
 0
VERTEX
 8
MESH_310_F0
 10
0
 20
0
 30
0
 70
128
 71
15
 72
1
 73
14
 74
14
 0
VERTEX
 8
MESH_310_F0
 10
0
 20
0
 30
0
 70
128
 71
18
 72
17
 73
15
 74
16
 0
VERTEX
 8
MESH_310_F0
 10
0
 20
0
 30
0
 70
128
 71
16
 72
11
 73
18
 74
18
 0
VERTEX
 8
MESH_310_F0
 10
0
 20
0
 30
0
 70
128
 71
11
 72
10
 73
18
 74
18
 0
VERTEX
 8
MESH_310_F0
 10
0
 20
0
 30
0
 70
128
 71
10
 72
21
 73
18
 74
18
 0
VERTEX
 8
MESH_310_F0
 10
0
 20
0
 30
0
 70
128
 71
21
 72
22
 73
17
 74
18
 0
VERTEX
 8
MESH_310_F0
 10
0
 20
0
 30
0
 70
128
 71
22
 72
3
 73
17
 74
17
 0
VERTEX
 8
MESH_310_F0
 10
0
 20
0
 30
0
 70
128
 71
3
 72
2
 73
17
 74
17
 0
VERTEX
 8
MESH_310_F0
 10
0
 20
0
 30
0
 70
128
 71
2
 72
15
 73
17
 74
17
 0
VERTEX
 8
MESH_310_F0
 10
0
 20
0
 30
0
 70
128
 71
1
 72
15
 73
2
 74
2
 0
VERTEX
 8
MESH_310_F0
 10
0
 20
0
 30
0
 70
128
 71
19
 72
3
 73
22
 74
22
 0
VERTEX
 8
MESH_310_F0
 10
0
 20
0
 30
0
 70
128
 71
24
 72
23
 73
19
 74
20
 0
VERTEX
 8
MESH_310_F0
 10
0
 20
0
 30
0
 70
128
 71
20
 72
9
 73
24
 74
24
 0
VERTEX
 8
MESH_310_F0
 10
0
 20
0
 30
0
 70
128
 71
9
 72
8
 73
24
 74
24
 0
VERTEX
 8
MESH_310_F0
 10
0
 20
0
 30
0
 70
128
 71
8
 72
7
 73
24
 74
24
 0
VERTEX
 8
MESH_310_F0
 10
0
 20
0
 30
0
 70
128
 71
7
 72
23
 73
24
 74
24
 0
VERTEX
 8
MESH_310_F0
 10
0
 20
0
 30
0
 70
128
 71
6
 72
23
 73
7
 74
7
 0
VERTEX
 8
MESH_310_F0
 10
0
 20
0
 30
0
 70
128
 71
4
 72
23
 73
6
 74
6
 0
VERTEX
 8
MESH_310_F0
 10
0
 20
0
 30
0
 70
128
 71
4
 72
6
 73
5
 74
5
 0
VERTEX
 8
MESH_310_F0
 10
0
 20
0
 30
0
 70
128
 71
20
 72
10
 73
9
 74
9
 0
VERTEX
 8
MESH_310_F0
 10
0
 20
0
 30
0
 70
128
 71
21
 72
10
 73
20
 74
20
 0
VERTEX
 8
MESH_310_F0
 10
0
 20
0
 30
0
 70
128
 71
21
 72
20
 73
19
 74
22
 0
VERTEX
 8
MESH_310_F0
 10
0
 20
0
 30
0
 70
128
 71
16
 72
12
 73
11
 74
11
 0
VERTEX
 8
MESH_310_F0
 10
0
 20
0
 30
0
 70
128
 71
13
 72
12
 73
16
 74
16
 0
VERTEX
 8
MESH_310_F0
 10
0
 20
0
 30
0
 70
128
 71
13
 72
16
 73
14
 74
14
 0
VERTEX
 8
MESH_310_F0
 10
0
 20
0
 30
0
 70
128
 71
16
 72
15
 73
14
 74
14
 0
VERTEX
 8
MESH_310_F0
 10
0
 20
0
 30
0
 70
128
 71
19
 72
4
 73
3
 74
3
 0
VERTEX
 8
MESH_310_F0
 10
0
 20
0
 30
0
 70
128
 71
23
 72
4
 73
19
 74
19
 0
SEQEND
 0
POLYLINE
 8
MESH_309_F0
 66
1
 10
0.0
 20
0.0
 30
0.0
 70
64
 71
10
 72
8
 0
VERTEX
 8
MESH_309_F0
 10
-82
 20
38.2849
 30
-70
 70
192
 0
VERTEX
 8
MESH_309_F0
 10
-82
 20
38.25
 30
-72
 70
192
 0
VERTEX
 8
MESH_309_F0
 10
-82.5303
 20
38.4697
 30
-72
 70
192
 0
VERTEX
 8
MESH_309_F0
 10
-82.75
 20
39
 30
-72
 70
192
 0
VERTEX
 8
MESH_309_F0
 10
-82.5303
 20
39.5303
 30
-72
 70
192
 0
VERTEX
 8
MESH_309_F0
 10
-82
 20
39.75
 30
-72
 70
192
 0
VERTEX
 8
MESH_309_F0
 10
-82
 20
39.7151
 30
-70
 70
192
 0
VERTEX
 8
MESH_309_F0
 10
-82.5056
 20
39.5056
 30
-70
 70
192
 0
VERTEX
 8
MESH_309_F0
 10
-82.7151
 20
39
 30
-70
 70
192
 0
VERTEX
 8
MESH_309_F0
 10
-82.5056
 20
38.4944
 30
-70
 70
192
 0
VERTEX
 8
MESH_309_F0
 10
0
 20
0
 30
0
 70
128
 71
10
 72
2
 73
1
 74
1
 0
VERTEX
 8
MESH_309_F0
 10
0
 20
0
 30
0
 70
128
 71
3
 72
2
 73
10
 74
10
 0
VERTEX
 8
MESH_309_F0
 10
0
 20
0
 30
0
 70
128
 71
4
 72
3
 73
9
 74
9
 0
VERTEX
 8
MESH_309_F0
 10
0
 20
0
 30
0
 70
128
 71
5
 72
4
 73
8
 74
8
 0
VERTEX
 8
MESH_309_F0
 10
0
 20
0
 30
0
 70
128
 71
6
 72
5
 73
7
 74
7
 0
VERTEX
 8
MESH_309_F0
 10
0
 20
0
 30
0
 70
128
 71
5
 72
8
 73
7
 74
7
 0
VERTEX
 8
MESH_309_F0
 10
0
 20
0
 30
0
 70
128
 71
4
 72
9
 73
8
 74
8
 0
VERTEX
 8
MESH_309_F0
 10
0
 20
0
 30
0
 70
128
 71
3
 72
10
 73
9
 74
9
 0
SEQEND
 0
POLYLINE
 8
MESH_308_F0
 66
1
 10
0.0
 20
0.0
 30
0.0
 70
64
 71
10
 72
8
 0
VERTEX
 8
MESH_308_F0
 10
-82
 20
38.2849
 30
-70
 70
192
 0
VERTEX
 8
MESH_308_F0
 10
-81.4944
 20
38.4944
 30
-70
 70
192
 0
VERTEX
 8
MESH_308_F0
 10
-81.2849
 20
39
 30
-70
 70
192
 0
VERTEX
 8
MESH_308_F0
 10
-81.4944
 20
39.5056
 30
-70
 70
192
 0
VERTEX
 8
MESH_308_F0
 10
-82
 20
39.7151
 30
-70
 70
192
 0
VERTEX
 8
MESH_308_F0
 10
-82
 20
39.75
 30
-72
 70
192
 0
VERTEX
 8
MESH_308_F0
 10
-81.4697
 20
39.5303
 30
-72
 70
192
 0
VERTEX
 8
MESH_308_F0
 10
-81.25
 20
39
 30
-72
 70
192
 0
VERTEX
 8
MESH_308_F0
 10
-81.4697
 20
38.4697
 30
-72
 70
192
 0
VERTEX
 8
MESH_308_F0
 10
-82
 20
38.25
 30
-72
 70
192
 0
VERTEX
 8
MESH_308_F0
 10
0
 20
0
 30
0
 70
128
 71
9
 72
1
 73
10
 74
10
 0
VERTEX
 8
MESH_308_F0
 10
0
 20
0
 30
0
 70
128
 71
2
 72
1
 73
9
 74
9
 0
VERTEX
 8
MESH_308_F0
 10
0
 20
0
 30
0
 70
128
 71
3
 72
2
 73
8
 74
8
 0
VERTEX
 8
MESH_308_F0
 10
0
 20
0
 30
0
 70
128
 71
4
 72
3
 73
7
 74
7
 0
VERTEX
 8
MESH_308_F0
 10
0
 20
0
 30
0
 70
128
 71
5
 72
4
 73
6
 74
6
 0
VERTEX
 8
MESH_308_F0
 10
0
 20
0
 30
0
 70
128
 71
4
 72
7
 73
6
 74
6
 0
VERTEX
 8
MESH_308_F0
 10
0
 20
0
 30
0
 70
128
 71
3
 72
8
 73
7
 74
7
 0
VERTEX
 8
MESH_308_F0
 10
0
 20
0
 30
0
 70
128
 71
2
 72
9
 73
8
 74
8
 0
SEQEND
 0
POLYLINE
 8
MESH_307_F0
 66
1
 10
0.0
 20
0.0
 30
0.0
 70
64
 71
16
 72
16
 0
VERTEX
 8
MESH_307_F0
 10
-82
 20
35.45
 30
-72
 70
192
 0
VERTEX
 8
MESH_307_F0
 10
-84.5102
 20
36.4898
 30
-72
 70
192
 0
VERTEX
 8
MESH_307_F0
 10
-85.55
 20
39
 30
-72
 70
192
 0
VERTEX
 8
MESH_307_F0
 10
-84.5102
 20
41.5102
 30
-72
 70
192
 0
VERTEX
 8
MESH_307_F0
 10
-82
 20
42.55
 30
-72
 70
192
 0
VERTEX
 8
MESH_307_F0
 10
-79.4898
 20
41.5102
 30
-72
 70
192
 0
VERTEX
 8
MESH_307_F0
 10
-78.45
 20
39
 30
-72
 70
192
 0
VERTEX
 8
MESH_307_F0
 10
-79.4898
 20
36.4898
 30
-72
 70
192
 0
VERTEX
 8
MESH_307_F0
 10
-82
 20
39.75
 30
-72
 70
192
 0
VERTEX
 8
MESH_307_F0
 10
-82.5303
 20
39.5303
 30
-72
 70
192
 0
VERTEX
 8
MESH_307_F0
 10
-82.75
 20
39
 30
-72
 70
192
 0
VERTEX
 8
MESH_307_F0
 10
-82.5303
 20
38.4697
 30
-72
 70
192
 0
VERTEX
 8
MESH_307_F0
 10
-82
 20
38.25
 30
-72
 70
192
 0
VERTEX
 8
MESH_307_F0
 10
-81.4697
 20
38.4697
 30
-72
 70
192
 0
VERTEX
 8
MESH_307_F0
 10
-81.25
 20
39
 30
-72
 70
192
 0
VERTEX
 8
MESH_307_F0
 10
-81.4697
 20
39.5303
 30
-72
 70
192
 0
VERTEX
 8
MESH_307_F0
 10
0
 20
0
 30
0
 70
128
 71
13
 72
1
 73
8
 74
8
 0
VERTEX
 8
MESH_307_F0
 10
0
 20
0
 30
0
 70
128
 71
13
 72
8
 73
14
 74
14
 0
VERTEX
 8
MESH_307_F0
 10
0
 20
0
 30
0
 70
128
 71
8
 72
7
 73
14
 74
14
 0
VERTEX
 8
MESH_307_F0
 10
0
 20
0
 30
0
 70
128
 71
7
 72
15
 73
14
 74
14
 0
VERTEX
 8
MESH_307_F0
 10
0
 20
0
 30
0
 70
128
 71
16
 72
15
 73
7
 74
7
 0
VERTEX
 8
MESH_307_F0
 10
0
 20
0
 30
0
 70
128
 71
9
 72
16
 73
6
 74
6
 0
VERTEX
 8
MESH_307_F0
 10
0
 20
0
 30
0
 70
128
 71
4
 72
9
 73
5
 74
5
 0
VERTEX
 8
MESH_307_F0
 10
0
 20
0
 30
0
 70
128
 71
9
 72
6
 73
5
 74
5
 0
VERTEX
 8
MESH_307_F0
 10
0
 20
0
 30
0
 70
128
 71
3
 72
10
 73
4
 74
4
 0
VERTEX
 8
MESH_307_F0
 10
0
 20
0
 30
0
 70
128
 71
10
 72
9
 73
4
 74
4
 0
VERTEX
 8
MESH_307_F0
 10
0
 20
0
 30
0
 70
128
 71
16
 72
7
 73
6
 74
6
 0
VERTEX
 8
MESH_307_F0
 10
0
 20
0
 30
0
 70
128
 71
3
 72
11
 73
10
 74
10
 0
VERTEX
 8
MESH_307_F0
 10
0
 20
0
 30
0
 70
128
 71
2
 72
11
 73
3
 74
3
 0
VERTEX
 8
MESH_307_F0
 10
0
 20
0
 30
0
 70
128
 71
12
 72
11
 73
2
 74
2
 0
VERTEX
 8
MESH_307_F0
 10
0
 20
0
 30
0
 70
128
 71
12
 72
2
 73
13
 74
13
 0
VERTEX
 8
MESH_307_F0
 10
0
 20
0
 30
0
 70
128
 71
2
 72
1
 73
13
 74
13
 0
SEQEND
 0
POLYLINE
 8
MESH_306_F0
 66
1
 10
0.0
 20
0.0
 30
0.0
 70
64
 71
10
 72
8
 0
VERTEX
 8
MESH_306_F0
 10
-82
 20
35.45
 30
-72
 70
192
 0
VERTEX
 8
MESH_306_F0
 10
-82
 20
35.4151
 30
-76
 70
192
 0
VERTEX
 8
MESH_306_F0
 10
-84.5349
 20
36.4651
 30
-76
 70
192
 0
VERTEX
 8
MESH_306_F0
 10
-85.5849
 20
39
 30
-76
 70
192
 0
VERTEX
 8
MESH_306_F0
 10
-84.5349
 20
41.5349
 30
-76
 70
192
 0
VERTEX
 8
MESH_306_F0
 10
-82
 20
42.5849
 30
-76
 70
192
 0
VERTEX
 8
MESH_306_F0
 10
-82
 20
42.55
 30
-72
 70
192
 0
VERTEX
 8
MESH_306_F0
 10
-84.5102
 20
41.5102
 30
-72
 70
192
 0
VERTEX
 8
MESH_306_F0
 10
-85.55
 20
39
 30
-72
 70
192
 0
VERTEX
 8
MESH_306_F0
 10
-84.5102
 20
36.4898
 30
-72
 70
192
 0
VERTEX
 8
MESH_306_F0
 10
0
 20
0
 30
0
 70
128
 71
10
 72
2
 73
1
 74
1
 0
VERTEX
 8
MESH_306_F0
 10
0
 20
0
 30
0
 70
128
 71
3
 72
2
 73
10
 74
10
 0
VERTEX
 8
MESH_306_F0
 10
0
 20
0
 30
0
 70
128
 71
4
 72
3
 73
9
 74
9
 0
VERTEX
 8
MESH_306_F0
 10
0
 20
0
 30
0
 70
128
 71
5
 72
4
 73
8
 74
8
 0
VERTEX
 8
MESH_306_F0
 10
0
 20
0
 30
0
 70
128
 71
6
 72
5
 73
7
 74
7
 0
VERTEX
 8
MESH_306_F0
 10
0
 20
0
 30
0
 70
128
 71
5
 72
8
 73
7
 74
7
 0
VERTEX
 8
MESH_306_F0
 10
0
 20
0
 30
0
 70
128
 71
4
 72
9
 73
8
 74
8
 0
VERTEX
 8
MESH_306_F0
 10
0
 20
0
 30
0
 70
128
 71
3
 72
10
 73
9
 74
9
 0
SEQEND
 0
POLYLINE
 8
MESH_305_F0
 66
1
 10
0.0
 20
0.0
 30
0.0
 70
64
 71
10
 72
8
 0
VERTEX
 8
MESH_305_F0
 10
-82
 20
35.45
 30
-72
 70
192
 0
VERTEX
 8
MESH_305_F0
 10
-79.4898
 20
36.4898
 30
-72
 70
192
 0
VERTEX
 8
MESH_305_F0
 10
-78.45
 20
39
 30
-72
 70
192
 0
VERTEX
 8
MESH_305_F0
 10
-79.4898
 20
41.5102
 30
-72
 70
192
 0
VERTEX
 8
MESH_305_F0
 10
-82
 20
42.55
 30
-72
 70
192
 0
VERTEX
 8
MESH_305_F0
 10
-82
 20
42.5849
 30
-76
 70
192
 0
VERTEX
 8
MESH_305_F0
 10
-79.4651
 20
41.5349
 30
-76
 70
192
 0
VERTEX
 8
MESH_305_F0
 10
-78.4151
 20
39
 30
-76
 70
192
 0
VERTEX
 8
MESH_305_F0
 10
-79.4651
 20
36.4651
 30
-76
 70
192
 0
VERTEX
 8
MESH_305_F0
 10
-82
 20
35.4151
 30
-76
 70
192
 0
VERTEX
 8
MESH_305_F0
 10
0
 20
0
 30
0
 70
128
 71
9
 72
1
 73
10
 74
10
 0
VERTEX
 8
MESH_305_F0
 10
0
 20
0
 30
0
 70
128
 71
2
 72
1
 73
9
 74
9
 0
VERTEX
 8
MESH_305_F0
 10
0
 20
0
 30
0
 70
128
 71
3
 72
2
 73
8
 74
8
 0
VERTEX
 8
MESH_305_F0
 10
0
 20
0
 30
0
 70
128
 71
4
 72
3
 73
7
 74
7
 0
VERTEX
 8
MESH_305_F0
 10
0
 20
0
 30
0
 70
128
 71
5
 72
4
 73
6
 74
6
 0
VERTEX
 8
MESH_305_F0
 10
0
 20
0
 30
0
 70
128
 71
4
 72
7
 73
6
 74
6
 0
VERTEX
 8
MESH_305_F0
 10
0
 20
0
 30
0
 70
128
 71
3
 72
8
 73
7
 74
7
 0
VERTEX
 8
MESH_305_F0
 10
0
 20
0
 30
0
 70
128
 71
2
 72
9
 73
8
 74
8
 0
SEQEND
 0
POLYLINE
 8
MESH_304_F0
 66
1
 10
0.0
 20
0.0
 30
0.0
 70
64
 71
10
 72
8
 0
VERTEX
 8
MESH_304_F0
 10
-82
 20
34.5198
 30
-76
 70
192
 0
VERTEX
 8
MESH_304_F0
 10
-78.832
 20
35.832
 30
-76
 70
192
 0
VERTEX
 8
MESH_304_F0
 10
-77.5198
 20
39
 30
-76
 70
192
 0
VERTEX
 8
MESH_304_F0
 10
-78.832
 20
42.168
 30
-76
 70
192
 0
VERTEX
 8
MESH_304_F0
 10
-82
 20
43.4802
 30
-76
 70
192
 0
VERTEX
 8
MESH_304_F0
 10
-82
 20
43.5414
 30
-72.4913
 70
192
 0
VERTEX
 8
MESH_304_F0
 10
-78.7887
 20
42.2113
 30
-72.4913
 70
192
 0
VERTEX
 8
MESH_304_F0
 10
-77.4586
 20
39
 30
-72.4913
 70
192
 0
VERTEX
 8
MESH_304_F0
 10
-78.7887
 20
35.7887
 30
-72.4913
 70
192
 0
VERTEX
 8
MESH_304_F0
 10
-82
 20
34.4586
 30
-72.4913
 70
192
 0
VERTEX
 8
MESH_304_F0
 10
0
 20
0
 30
0
 70
128
 71
9
 72
1
 73
10
 74
10
 0
VERTEX
 8
MESH_304_F0
 10
0
 20
0
 30
0
 70
128
 71
2
 72
1
 73
9
 74
9
 0
VERTEX
 8
MESH_304_F0
 10
0
 20
0
 30
0
 70
128
 71
3
 72
2
 73
8
 74
8
 0
VERTEX
 8
MESH_304_F0
 10
0
 20
0
 30
0
 70
128
 71
4
 72
3
 73
7
 74
7
 0
VERTEX
 8
MESH_304_F0
 10
0
 20
0
 30
0
 70
128
 71
5
 72
4
 73
6
 74
6
 0
VERTEX
 8
MESH_304_F0
 10
0
 20
0
 30
0
 70
128
 71
4
 72
7
 73
6
 74
6
 0
VERTEX
 8
MESH_304_F0
 10
0
 20
0
 30
0
 70
128
 71
3
 72
8
 73
7
 74
7
 0
VERTEX
 8
MESH_304_F0
 10
0
 20
0
 30
0
 70
128
 71
2
 72
9
 73
8
 74
8
 0
SEQEND
 0
POLYLINE
 8
MESH_303_F0
 66
1
 10
0.0
 20
0.0
 30
0.0
 70
64
 71
16
 72
16
 0
VERTEX
 8
MESH_303_F0
 10
-82
 20
34.5198
 30
-76
 70
192
 0
VERTEX
 8
MESH_303_F0
 10
-85.168
 20
35.832
 30
-76
 70
192
 0
VERTEX
 8
MESH_303_F0
 10
-86.4802
 20
39
 30
-76
 70
192
 0
VERTEX
 8
MESH_303_F0
 10
-85.168
 20
42.168
 30
-76
 70
192
 0
VERTEX
 8
MESH_303_F0
 10
-82
 20
43.4802
 30
-76
 70
192
 0
VERTEX
 8
MESH_303_F0
 10
-78.832
 20
42.168
 30
-76
 70
192
 0
VERTEX
 8
MESH_303_F0
 10
-77.5198
 20
39
 30
-76
 70
192
 0
VERTEX
 8
MESH_303_F0
 10
-78.832
 20
35.832
 30
-76
 70
192
 0
VERTEX
 8
MESH_303_F0
 10
-82
 20
42.5849
 30
-76
 70
192
 0
VERTEX
 8
MESH_303_F0
 10
-84.5349
 20
41.5349
 30
-76
 70
192
 0
VERTEX
 8
MESH_303_F0
 10
-85.5849
 20
39
 30
-76
 70
192
 0
VERTEX
 8
MESH_303_F0
 10
-84.5349
 20
36.4651
 30
-76
 70
192
 0
VERTEX
 8
MESH_303_F0
 10
-82
 20
35.4151
 30
-76
 70
192
 0
VERTEX
 8
MESH_303_F0
 10
-79.4651
 20
36.4651
 30
-76
 70
192
 0
VERTEX
 8
MESH_303_F0
 10
-78.4151
 20
39
 30
-76
 70
192
 0
VERTEX
 8
MESH_303_F0
 10
-79.4651
 20
41.5349
 30
-76
 70
192
 0
VERTEX
 8
MESH_303_F0
 10
0
 20
0
 30
0
 70
128
 71
13
 72
1
 73
8
 74
8
 0
VERTEX
 8
MESH_303_F0
 10
0
 20
0
 30
0
 70
128
 71
13
 72
8
 73
14
 74
14
 0
VERTEX
 8
MESH_303_F0
 10
0
 20
0
 30
0
 70
128
 71
8
 72
7
 73
14
 74
14
 0
VERTEX
 8
MESH_303_F0
 10
0
 20
0
 30
0
 70
128
 71
7
 72
15
 73
14
 74
14
 0
VERTEX
 8
MESH_303_F0
 10
0
 20
0
 30
0
 70
128
 71
16
 72
15
 73
7
 74
7
 0
VERTEX
 8
MESH_303_F0
 10
0
 20
0
 30
0
 70
128
 71
9
 72
16
 73
6
 74
6
 0
VERTEX
 8
MESH_303_F0
 10
0
 20
0
 30
0
 70
128
 71
4
 72
9
 73
5
 74
5
 0
VERTEX
 8
MESH_303_F0
 10
0
 20
0
 30
0
 70
128
 71
9
 72
6
 73
5
 74
5
 0
VERTEX
 8
MESH_303_F0
 10
0
 20
0
 30
0
 70
128
 71
3
 72
10
 73
4
 74
4
 0
VERTEX
 8
MESH_303_F0
 10
0
 20
0
 30
0
 70
128
 71
10
 72
9
 73
4
 74
4
 0
VERTEX
 8
MESH_303_F0
 10
0
 20
0
 30
0
 70
128
 71
16
 72
7
 73
6
 74
6
 0
VERTEX
 8
MESH_303_F0
 10
0
 20
0
 30
0
 70
128
 71
3
 72
11
 73
10
 74
10
 0
VERTEX
 8
MESH_303_F0
 10
0
 20
0
 30
0
 70
128
 71
2
 72
11
 73
3
 74
3
 0
VERTEX
 8
MESH_303_F0
 10
0
 20
0
 30
0
 70
128
 71
12
 72
11
 73
2
 74
2
 0
VERTEX
 8
MESH_303_F0
 10
0
 20
0
 30
0
 70
128
 71
12
 72
2
 73
13
 74
13
 0
VERTEX
 8
MESH_303_F0
 10
0
 20
0
 30
0
 70
128
 71
2
 72
1
 73
13
 74
13
 0
SEQEND
 0
POLYLINE
 8
MESH_302_F0
 66
1
 10
0.0
 20
0.0
 30
0.0
 70
64
 71
10
 72
8
 0
VERTEX
 8
MESH_302_F0
 10
-82
 20
34.5198
 30
-76
 70
192
 0
VERTEX
 8
MESH_302_F0
 10
-82
 20
34.4586
 30
-72.4913
 70
192
 0
VERTEX
 8
MESH_302_F0
 10
-85.2113
 20
35.7887
 30
-72.4913
 70
192
 0
VERTEX
 8
MESH_302_F0
 10
-86.5414
 20
39
 30
-72.4913
 70
192
 0
VERTEX
 8
MESH_302_F0
 10
-85.2113
 20
42.2113
 30
-72.4913
 70
192
 0
VERTEX
 8
MESH_302_F0
 10
-82
 20
43.5414
 30
-72.4913
 70
192
 0
VERTEX
 8
MESH_302_F0
 10
-82
 20
43.4802
 30
-76
 70
192
 0
VERTEX
 8
MESH_302_F0
 10
-85.168
 20
42.168
 30
-76
 70
192
 0
VERTEX
 8
MESH_302_F0
 10
-86.4802
 20
39
 30
-76
 70
192
 0
VERTEX
 8
MESH_302_F0
 10
-85.168
 20
35.832
 30
-76
 70
192
 0
VERTEX
 8
MESH_302_F0
 10
0
 20
0
 30
0
 70
128
 71
10
 72
2
 73
1
 74
1
 0
VERTEX
 8
MESH_302_F0
 10
0
 20
0
 30
0
 70
128
 71
3
 72
2
 73
10
 74
10
 0
VERTEX
 8
MESH_302_F0
 10
0
 20
0
 30
0
 70
128
 71
4
 72
3
 73
9
 74
9
 0
VERTEX
 8
MESH_302_F0
 10
0
 20
0
 30
0
 70
128
 71
5
 72
4
 73
8
 74
8
 0
VERTEX
 8
MESH_302_F0
 10
0
 20
0
 30
0
 70
128
 71
6
 72
5
 73
7
 74
7
 0
VERTEX
 8
MESH_302_F0
 10
0
 20
0
 30
0
 70
128
 71
5
 72
8
 73
7
 74
7
 0
VERTEX
 8
MESH_302_F0
 10
0
 20
0
 30
0
 70
128
 71
4
 72
9
 73
8
 74
8
 0
VERTEX
 8
MESH_302_F0
 10
0
 20
0
 30
0
 70
128
 71
3
 72
10
 73
9
 74
9
 0
SEQEND
 0
POLYLINE
 8
MESH_301_F0
 66
1
 10
0.0
 20
0.0
 30
0.0
 70
64
 71
24
 72
28
 0
VERTEX
 8
MESH_301_F0
 10
-82
 20
44.0413
 30
-72
 70
192
 0
VERTEX
 8
MESH_301_F0
 10
-82
 20
43.7939
 30
-72.0655
 70
192
 0
VERTEX
 8
MESH_301_F0
 10
-82
 20
43.6113
 30
-72.245
 70
192
 0
VERTEX
 8
MESH_301_F0
 10
-82
 20
43.5414
 30
-72.4913
 70
192
 0
VERTEX
 8
MESH_301_F0
 10
-85.2113
 20
42.2113
 30
-72.4913
 70
192
 0
VERTEX
 8
MESH_301_F0
 10
-86.5414
 20
39
 30
-72.4913
 70
192
 0
VERTEX
 8
MESH_301_F0
 10
-85.2113
 20
35.7887
 30
-72.4913
 70
192
 0
VERTEX
 8
MESH_301_F0
 10
-82
 20
34.4586
 30
-72.4913
 70
192
 0
VERTEX
 8
MESH_301_F0
 10
-82
 20
34.3887
 30
-72.245
 70
192
 0
VERTEX
 8
MESH_301_F0
 10
-82
 20
34.2061
 30
-72.0655
 70
192
 0
VERTEX
 8
MESH_301_F0
 10
-82
 20
33.9587
 30
-72
 70
192
 0
VERTEX
 8
MESH_301_F0
 10
-85.5648
 20
35.4352
 30
-72
 70
192
 0
VERTEX
 8
MESH_301_F0
 10
-87.0414
 20
39
 30
-72
 70
192
 0
VERTEX
 8
MESH_301_F0
 10
-85.5648
 20
42.5648
 30
-72
 70
192
 0
VERTEX
 8
MESH_301_F0
 10
-84.3042
 20
42.9909
 30
-72.25
 70
192
 0
VERTEX
 8
MESH_301_F0
 10
-84.5407
 20
43.0068
 30
-72.0977
 70
192
 0
VERTEX
 8
MESH_301_F0
 10
-85.9909
 20
41.3042
 30
-72.25
 70
192
 0
VERTEX
 8
MESH_301_F0
 10
-86.2469
 20
41.1947
 30
-72.0735
 70
192
 0
VERTEX
 8
MESH_301_F0
 10
-85.9909
 20
36.6958
 30
-72.25
 70
192
 0
VERTEX
 8
MESH_301_F0
 10
-86.2219
 20
36.7556
 30
-72.0729
 70
192
 0
VERTEX
 8
MESH_301_F0
 10
-86.7913
 20
39
 30
-72.067
 70
192
 0
VERTEX
 8
MESH_301_F0
 10
-86.6083
 20
39
 30
-72.25
 70
192
 0
VERTEX
 8
MESH_301_F0
 10
-84.3042
 20
35.0091
 30
-72.25
 70
192
 0
VERTEX
 8
MESH_301_F0
 10
-84.5205
 20
34.9118
 30
-72.0606
 70
192
 0
VERTEX
 8
MESH_301_F0
 10
0
 20
0
 30
0
 70
128
 71
14
 72
2
 73
1
 74
1
 0
VERTEX
 8
MESH_301_F0
 10
0
 20
0
 30
0
 70
128
 71
16
 72
2
 73
14
 74
14
 0
VERTEX
 8
MESH_301_F0
 10
0
 20
0
 30
0
 70
128
 71
17
 72
15
 73
16
 74
18
 0
VERTEX
 8
MESH_301_F0
 10
0
 20
0
 30
0
 70
128
 71
18
 72
21
 73
22
 74
17
 0
VERTEX
 8
MESH_301_F0
 10
0
 20
0
 30
0
 70
128
 71
5
 72
17
 73
6
 74
6
 0
VERTEX
 8
MESH_301_F0
 10
0
 20
0
 30
0
 70
128
 71
17
 72
22
 73
6
 74
6
 0
VERTEX
 8
MESH_301_F0
 10
0
 20
0
 30
0
 70
128
 71
22
 72
19
 73
6
 74
6
 0
VERTEX
 8
MESH_301_F0
 10
0
 20
0
 30
0
 70
128
 71
19
 72
7
 73
6
 74
6
 0
VERTEX
 8
MESH_301_F0
 10
0
 20
0
 30
0
 70
128
 71
23
 72
7
 73
19
 74
19
 0
VERTEX
 8
MESH_301_F0
 10
0
 20
0
 30
0
 70
128
 71
10
 72
23
 73
24
 74
24
 0
VERTEX
 8
MESH_301_F0
 10
0
 20
0
 30
0
 70
128
 71
10
 72
24
 73
11
 74
11
 0
VERTEX
 8
MESH_301_F0
 10
0
 20
0
 30
0
 70
128
 71
24
 72
12
 73
11
 74
11
 0
VERTEX
 8
MESH_301_F0
 10
0
 20
0
 30
0
 70
128
 71
20
 72
12
 73
24
 74
24
 0
VERTEX
 8
MESH_301_F0
 10
0
 20
0
 30
0
 70
128
 71
22
 72
21
 73
20
 74
19
 0
VERTEX
 8
MESH_301_F0
 10
0
 20
0
 30
0
 70
128
 71
19
 72
20
 73
24
 74
23
 0
VERTEX
 8
MESH_301_F0
 10
0
 20
0
 30
0
 70
128
 71
16
 72
3
 73
2
 74
2
 0
VERTEX
 8
MESH_301_F0
 10
0
 20
0
 30
0
 70
128
 71
15
 72
3
 73
16
 74
16
 0
VERTEX
 8
MESH_301_F0
 10
0
 20
0
 30
0
 70
128
 71
4
 72
3
 73
15
 74
15
 0
VERTEX
 8
MESH_301_F0
 10
0
 20
0
 30
0
 70
128
 71
4
 72
15
 73
5
 74
5
 0
VERTEX
 8
MESH_301_F0
 10
0
 20
0
 30
0
 70
128
 71
15
 72
17
 73
5
 74
5
 0
VERTEX
 8
MESH_301_F0
 10
0
 20
0
 30
0
 70
128
 71
23
 72
8
 73
7
 74
7
 0
VERTEX
 8
MESH_301_F0
 10
0
 20
0
 30
0
 70
128
 71
9
 72
8
 73
23
 74
23
 0
VERTEX
 8
MESH_301_F0
 10
0
 20
0
 30
0
 70
128
 71
9
 72
23
 73
10
 74
10
 0
VERTEX
 8
MESH_301_F0
 10
0
 20
0
 30
0
 70
128
 71
20
 72
13
 73
12
 74
12
 0
VERTEX
 8
MESH_301_F0
 10
0
 20
0
 30
0
 70
128
 71
21
 72
13
 73
20
 74
20
 0
VERTEX
 8
MESH_301_F0
 10
0
 20
0
 30
0
 70
128
 71
18
 72
13
 73
21
 74
21
 0
VERTEX
 8
MESH_301_F0
 10
0
 20
0
 30
0
 70
128
 71
14
 72
13
 73
18
 74
18
 0
VERTEX
 8
MESH_301_F0
 10
0
 20
0
 30
0
 70
128
 71
14
 72
18
 73
16
 74
16
 0
SEQEND
 0
POLYLINE
 8
MESH_300_F0
 66
1
 10
0.0
 20
0.0
 30
0.0
 70
64
 71
24
 72
28
 0
VERTEX
 8
MESH_300_F0
 10
-82
 20
44.0413
 30
-72
 70
192
 0
VERTEX
 8
MESH_300_F0
 10
-78.4352
 20
42.5648
 30
-72
 70
192
 0
VERTEX
 8
MESH_300_F0
 10
-76.9586
 20
39
 30
-72
 70
192
 0
VERTEX
 8
MESH_300_F0
 10
-78.4352
 20
35.4352
 30
-72
 70
192
 0
VERTEX
 8
MESH_300_F0
 10
-82
 20
33.9587
 30
-72
 70
192
 0
VERTEX
 8
MESH_300_F0
 10
-82
 20
34.2061
 30
-72.0655
 70
192
 0
VERTEX
 8
MESH_300_F0
 10
-82
 20
34.3887
 30
-72.245
 70
192
 0
VERTEX
 8
MESH_300_F0
 10
-82
 20
34.4586
 30
-72.4913
 70
192
 0
VERTEX
 8
MESH_300_F0
 10
-78.7887
 20
35.7887
 30
-72.4913
 70
192
 0
VERTEX
 8
MESH_300_F0
 10
-77.4586
 20
39
 30
-72.4913
 70
192
 0
VERTEX
 8
MESH_300_F0
 10
-78.7887
 20
42.2113
 30
-72.4913
 70
192
 0
VERTEX
 8
MESH_300_F0
 10
-82
 20
43.5414
 30
-72.4913
 70
192
 0
VERTEX
 8
MESH_300_F0
 10
-82
 20
43.6113
 30
-72.245
 70
192
 0
VERTEX
 8
MESH_300_F0
 10
-82
 20
43.7939
 30
-72.0655
 70
192
 0
VERTEX
 8
MESH_300_F0
 10
-79.4795
 20
43.0882
 30
-72.0606
 70
192
 0
VERTEX
 8
MESH_300_F0
 10
-79.6958
 20
42.9909
 30
-72.25
 70
192
 0
VERTEX
 8
MESH_300_F0
 10
-77.7781
 20
41.2444
 30
-72.0729
 70
192
 0
VERTEX
 8
MESH_300_F0
 10
-78.0091
 20
41.3042
 30
-72.25
 70
192
 0
VERTEX
 8
MESH_300_F0
 10
-77.7531
 20
36.8053
 30
-72.0735
 70
192
 0
VERTEX
 8
MESH_300_F0
 10
-78.0091
 20
36.6958
 30
-72.25
 70
192
 0
VERTEX
 8
MESH_300_F0
 10
-77.3917
 20
39
 30
-72.25
 70
192
 0
VERTEX
 8
MESH_300_F0
 10
-77.2086
 20
39
 30
-72.067
 70
192
 0
VERTEX
 8
MESH_300_F0
 10
-79.4593
 20
34.9931
 30
-72.0977
 70
192
 0
VERTEX
 8
MESH_300_F0
 10
-79.6958
 20
35.0091
 30
-72.25
 70
192
 0
VERTEX
 8
MESH_300_F0
 10
0
 20
0
 30
0
 70
128
 71
15
 72
1
 73
14
 74
14
 0
VERTEX
 8
MESH_300_F0
 10
0
 20
0
 30
0
 70
128
 71
18
 72
17
 73
15
 74
16
 0
VERTEX
 8
MESH_300_F0
 10
0
 20
0
 30
0
 70
128
 71
16
 72
11
 73
18
 74
18
 0
VERTEX
 8
MESH_300_F0
 10
0
 20
0
 30
0
 70
128
 71
11
 72
10
 73
18
 74
18
 0
VERTEX
 8
MESH_300_F0
 10
0
 20
0
 30
0
 70
128
 71
10
 72
21
 73
18
 74
18
 0
VERTEX
 8
MESH_300_F0
 10
0
 20
0
 30
0
 70
128
 71
21
 72
22
 73
17
 74
18
 0
VERTEX
 8
MESH_300_F0
 10
0
 20
0
 30
0
 70
128
 71
22
 72
3
 73
17
 74
17
 0
VERTEX
 8
MESH_300_F0
 10
0
 20
0
 30
0
 70
128
 71
3
 72
2
 73
17
 74
17
 0
VERTEX
 8
MESH_300_F0
 10
0
 20
0
 30
0
 70
128
 71
2
 72
15
 73
17
 74
17
 0
VERTEX
 8
MESH_300_F0
 10
0
 20
0
 30
0
 70
128
 71
1
 72
15
 73
2
 74
2
 0
VERTEX
 8
MESH_300_F0
 10
0
 20
0
 30
0
 70
128
 71
19
 72
3
 73
22
 74
22
 0
VERTEX
 8
MESH_300_F0
 10
0
 20
0
 30
0
 70
128
 71
24
 72
23
 73
19
 74
20
 0
VERTEX
 8
MESH_300_F0
 10
0
 20
0
 30
0
 70
128
 71
20
 72
9
 73
24
 74
24
 0
VERTEX
 8
MESH_300_F0
 10
0
 20
0
 30
0
 70
128
 71
9
 72
8
 73
24
 74
24
 0
VERTEX
 8
MESH_300_F0
 10
0
 20
0
 30
0
 70
128
 71
8
 72
7
 73
24
 74
24
 0
VERTEX
 8
MESH_300_F0
 10
0
 20
0
 30
0
 70
128
 71
7
 72
23
 73
24
 74
24
 0
VERTEX
 8
MESH_300_F0
 10
0
 20
0
 30
0
 70
128
 71
6
 72
23
 73
7
 74
7
 0
VERTEX
 8
MESH_300_F0
 10
0
 20
0
 30
0
 70
128
 71
4
 72
23
 73
6
 74
6
 0
VERTEX
 8
MESH_300_F0
 10
0
 20
0
 30
0
 70
128
 71
4
 72
6
 73
5
 74
5
 0
VERTEX
 8
MESH_300_F0
 10
0
 20
0
 30
0
 70
128
 71
20
 72
10
 73
9
 74
9
 0
VERTEX
 8
MESH_300_F0
 10
0
 20
0
 30
0
 70
128
 71
21
 72
10
 73
20
 74
20
 0
VERTEX
 8
MESH_300_F0
 10
0
 20
0
 30
0
 70
128
 71
21
 72
20
 73
19
 74
22
 0
VERTEX
 8
MESH_300_F0
 10
0
 20
0
 30
0
 70
128
 71
16
 72
12
 73
11
 74
11
 0
VERTEX
 8
MESH_300_F0
 10
0
 20
0
 30
0
 70
128
 71
13
 72
12
 73
16
 74
16
 0
VERTEX
 8
MESH_300_F0
 10
0
 20
0
 30
0
 70
128
 71
13
 72
16
 73
14
 74
14
 0
VERTEX
 8
MESH_300_F0
 10
0
 20
0
 30
0
 70
128
 71
16
 72
15
 73
14
 74
14
 0
VERTEX
 8
MESH_300_F0
 10
0
 20
0
 30
0
 70
128
 71
19
 72
4
 73
3
 74
3
 0
VERTEX
 8
MESH_300_F0
 10
0
 20
0
 30
0
 70
128
 71
23
 72
4
 73
19
 74
19
 0
SEQEND
 0
POLYLINE
 8
MESH_299_F0
 66
1
 10
0.0
 20
0.0
 30
0.0
 70
64
 71
10
 72
8
 0
VERTEX
 8
MESH_299_F0
 10
82
 20
38.2849
 30
-70
 70
192
 0
VERTEX
 8
MESH_299_F0
 10
82.5056
 20
38.4944
 30
-70
 70
192
 0
VERTEX
 8
MESH_299_F0
 10
82.7151
 20
39
 30
-70
 70
192
 0
VERTEX
 8
MESH_299_F0
 10
82.5056
 20
39.5056
 30
-70
 70
192
 0
VERTEX
 8
MESH_299_F0
 10
82
 20
39.7151
 30
-70
 70
192
 0
VERTEX
 8
MESH_299_F0
 10
82
 20
39.75
 30
-72
 70
192
 0
VERTEX
 8
MESH_299_F0
 10
82.5303
 20
39.5303
 30
-72
 70
192
 0
VERTEX
 8
MESH_299_F0
 10
82.75
 20
39
 30
-72
 70
192
 0
VERTEX
 8
MESH_299_F0
 10
82.5303
 20
38.4697
 30
-72
 70
192
 0
VERTEX
 8
MESH_299_F0
 10
82
 20
38.25
 30
-72
 70
192
 0
VERTEX
 8
MESH_299_F0
 10
0
 20
0
 30
0
 70
128
 71
9
 72
1
 73
10
 74
10
 0
VERTEX
 8
MESH_299_F0
 10
0
 20
0
 30
0
 70
128
 71
2
 72
1
 73
9
 74
9
 0
VERTEX
 8
MESH_299_F0
 10
0
 20
0
 30
0
 70
128
 71
3
 72
2
 73
8
 74
8
 0
VERTEX
 8
MESH_299_F0
 10
0
 20
0
 30
0
 70
128
 71
4
 72
3
 73
7
 74
7
 0
VERTEX
 8
MESH_299_F0
 10
0
 20
0
 30
0
 70
128
 71
5
 72
4
 73
6
 74
6
 0
VERTEX
 8
MESH_299_F0
 10
0
 20
0
 30
0
 70
128
 71
4
 72
7
 73
6
 74
6
 0
VERTEX
 8
MESH_299_F0
 10
0
 20
0
 30
0
 70
128
 71
3
 72
8
 73
7
 74
7
 0
VERTEX
 8
MESH_299_F0
 10
0
 20
0
 30
0
 70
128
 71
2
 72
9
 73
8
 74
8
 0
SEQEND
 0
POLYLINE
 8
MESH_298_F0
 66
1
 10
0.0
 20
0.0
 30
0.0
 70
64
 71
16
 72
16
 0
VERTEX
 8
MESH_298_F0
 10
82
 20
35.45
 30
-72
 70
192
 0
VERTEX
 8
MESH_298_F0
 10
79.4898
 20
36.4898
 30
-72
 70
192
 0
VERTEX
 8
MESH_298_F0
 10
78.45
 20
39
 30
-72
 70
192
 0
VERTEX
 8
MESH_298_F0
 10
79.4898
 20
41.5102
 30
-72
 70
192
 0
VERTEX
 8
MESH_298_F0
 10
82
 20
42.55
 30
-72
 70
192
 0
VERTEX
 8
MESH_298_F0
 10
84.5102
 20
41.5102
 30
-72
 70
192
 0
VERTEX
 8
MESH_298_F0
 10
85.55
 20
39
 30
-72
 70
192
 0
VERTEX
 8
MESH_298_F0
 10
84.5102
 20
36.4898
 30
-72
 70
192
 0
VERTEX
 8
MESH_298_F0
 10
82
 20
39.75
 30
-72
 70
192
 0
VERTEX
 8
MESH_298_F0
 10
81.4697
 20
39.5303
 30
-72
 70
192
 0
VERTEX
 8
MESH_298_F0
 10
81.25
 20
39
 30
-72
 70
192
 0
VERTEX
 8
MESH_298_F0
 10
81.4697
 20
38.4697
 30
-72
 70
192
 0
VERTEX
 8
MESH_298_F0
 10
82
 20
38.25
 30
-72
 70
192
 0
VERTEX
 8
MESH_298_F0
 10
82.5303
 20
38.4697
 30
-72
 70
192
 0
VERTEX
 8
MESH_298_F0
 10
82.75
 20
39
 30
-72
 70
192
 0
VERTEX
 8
MESH_298_F0
 10
82.5303
 20
39.5303
 30
-72
 70
192
 0
VERTEX
 8
MESH_298_F0
 10
0
 20
0
 30
0
 70
128
 71
13
 72
1
 73
8
 74
8
 0
VERTEX
 8
MESH_298_F0
 10
0
 20
0
 30
0
 70
128
 71
13
 72
8
 73
14
 74
14
 0
VERTEX
 8
MESH_298_F0
 10
0
 20
0
 30
0
 70
128
 71
8
 72
7
 73
14
 74
14
 0
VERTEX
 8
MESH_298_F0
 10
0
 20
0
 30
0
 70
128
 71
7
 72
15
 73
14
 74
14
 0
VERTEX
 8
MESH_298_F0
 10
0
 20
0
 30
0
 70
128
 71
16
 72
15
 73
7
 74
7
 0
VERTEX
 8
MESH_298_F0
 10
0
 20
0
 30
0
 70
128
 71
9
 72
16
 73
6
 74
6
 0
VERTEX
 8
MESH_298_F0
 10
0
 20
0
 30
0
 70
128
 71
4
 72
9
 73
5
 74
5
 0
VERTEX
 8
MESH_298_F0
 10
0
 20
0
 30
0
 70
128
 71
9
 72
6
 73
5
 74
5
 0
VERTEX
 8
MESH_298_F0
 10
0
 20
0
 30
0
 70
128
 71
3
 72
10
 73
4
 74
4
 0
VERTEX
 8
MESH_298_F0
 10
0
 20
0
 30
0
 70
128
 71
10
 72
9
 73
4
 74
4
 0
VERTEX
 8
MESH_298_F0
 10
0
 20
0
 30
0
 70
128
 71
16
 72
7
 73
6
 74
6
 0
VERTEX
 8
MESH_298_F0
 10
0
 20
0
 30
0
 70
128
 71
3
 72
11
 73
10
 74
10
 0
VERTEX
 8
MESH_298_F0
 10
0
 20
0
 30
0
 70
128
 71
2
 72
11
 73
3
 74
3
 0
VERTEX
 8
MESH_298_F0
 10
0
 20
0
 30
0
 70
128
 71
12
 72
11
 73
2
 74
2
 0
VERTEX
 8
MESH_298_F0
 10
0
 20
0
 30
0
 70
128
 71
12
 72
2
 73
13
 74
13
 0
VERTEX
 8
MESH_298_F0
 10
0
 20
0
 30
0
 70
128
 71
2
 72
1
 73
13
 74
13
 0
SEQEND
 0
POLYLINE
 8
MESH_297_F0
 66
1
 10
0.0
 20
0.0
 30
0.0
 70
64
 71
10
 72
8
 0
VERTEX
 8
MESH_297_F0
 10
82
 20
35.45
 30
-72
 70
192
 0
VERTEX
 8
MESH_297_F0
 10
82
 20
35.4151
 30
-76
 70
192
 0
VERTEX
 8
MESH_297_F0
 10
79.4651
 20
36.4651
 30
-76
 70
192
 0
VERTEX
 8
MESH_297_F0
 10
78.4151
 20
39
 30
-76
 70
192
 0
VERTEX
 8
MESH_297_F0
 10
79.4651
 20
41.5349
 30
-76
 70
192
 0
VERTEX
 8
MESH_297_F0
 10
82
 20
42.5849
 30
-76
 70
192
 0
VERTEX
 8
MESH_297_F0
 10
82
 20
42.55
 30
-72
 70
192
 0
VERTEX
 8
MESH_297_F0
 10
79.4898
 20
41.5102
 30
-72
 70
192
 0
VERTEX
 8
MESH_297_F0
 10
78.45
 20
39
 30
-72
 70
192
 0
VERTEX
 8
MESH_297_F0
 10
79.4898
 20
36.4898
 30
-72
 70
192
 0
VERTEX
 8
MESH_297_F0
 10
0
 20
0
 30
0
 70
128
 71
10
 72
2
 73
1
 74
1
 0
VERTEX
 8
MESH_297_F0
 10
0
 20
0
 30
0
 70
128
 71
3
 72
2
 73
10
 74
10
 0
VERTEX
 8
MESH_297_F0
 10
0
 20
0
 30
0
 70
128
 71
4
 72
3
 73
9
 74
9
 0
VERTEX
 8
MESH_297_F0
 10
0
 20
0
 30
0
 70
128
 71
5
 72
4
 73
8
 74
8
 0
VERTEX
 8
MESH_297_F0
 10
0
 20
0
 30
0
 70
128
 71
6
 72
5
 73
7
 74
7
 0
VERTEX
 8
MESH_297_F0
 10
0
 20
0
 30
0
 70
128
 71
5
 72
8
 73
7
 74
7
 0
VERTEX
 8
MESH_297_F0
 10
0
 20
0
 30
0
 70
128
 71
4
 72
9
 73
8
 74
8
 0
VERTEX
 8
MESH_297_F0
 10
0
 20
0
 30
0
 70
128
 71
3
 72
10
 73
9
 74
9
 0
SEQEND
 0
POLYLINE
 8
MESH_296_F0
 66
1
 10
0.0
 20
0.0
 30
0.0
 70
64
 71
10
 72
8
 0
VERTEX
 8
MESH_296_F0
 10
82
 20
35.45
 30
-72
 70
192
 0
VERTEX
 8
MESH_296_F0
 10
84.5102
 20
36.4898
 30
-72
 70
192
 0
VERTEX
 8
MESH_296_F0
 10
85.55
 20
39
 30
-72
 70
192
 0
VERTEX
 8
MESH_296_F0
 10
84.5102
 20
41.5102
 30
-72
 70
192
 0
VERTEX
 8
MESH_296_F0
 10
82
 20
42.55
 30
-72
 70
192
 0
VERTEX
 8
MESH_296_F0
 10
82
 20
42.5849
 30
-76
 70
192
 0
VERTEX
 8
MESH_296_F0
 10
84.5349
 20
41.5349
 30
-76
 70
192
 0
VERTEX
 8
MESH_296_F0
 10
85.5849
 20
39
 30
-76
 70
192
 0
VERTEX
 8
MESH_296_F0
 10
84.5349
 20
36.4651
 30
-76
 70
192
 0
VERTEX
 8
MESH_296_F0
 10
82
 20
35.4151
 30
-76
 70
192
 0
VERTEX
 8
MESH_296_F0
 10
0
 20
0
 30
0
 70
128
 71
9
 72
1
 73
10
 74
10
 0
VERTEX
 8
MESH_296_F0
 10
0
 20
0
 30
0
 70
128
 71
2
 72
1
 73
9
 74
9
 0
VERTEX
 8
MESH_296_F0
 10
0
 20
0
 30
0
 70
128
 71
3
 72
2
 73
8
 74
8
 0
VERTEX
 8
MESH_296_F0
 10
0
 20
0
 30
0
 70
128
 71
4
 72
3
 73
7
 74
7
 0
VERTEX
 8
MESH_296_F0
 10
0
 20
0
 30
0
 70
128
 71
5
 72
4
 73
6
 74
6
 0
VERTEX
 8
MESH_296_F0
 10
0
 20
0
 30
0
 70
128
 71
4
 72
7
 73
6
 74
6
 0
VERTEX
 8
MESH_296_F0
 10
0
 20
0
 30
0
 70
128
 71
3
 72
8
 73
7
 74
7
 0
VERTEX
 8
MESH_296_F0
 10
0
 20
0
 30
0
 70
128
 71
2
 72
9
 73
8
 74
8
 0
SEQEND
 0
POLYLINE
 8
MESH_295_F0
 66
1
 10
0.0
 20
0.0
 30
0.0
 70
64
 71
10
 72
8
 0
VERTEX
 8
MESH_295_F0
 10
82
 20
34.5198
 30
-76
 70
192
 0
VERTEX
 8
MESH_295_F0
 10
85.168
 20
35.832
 30
-76
 70
192
 0
VERTEX
 8
MESH_295_F0
 10
86.4802
 20
39
 30
-76
 70
192
 0
VERTEX
 8
MESH_295_F0
 10
85.168
 20
42.168
 30
-76
 70
192
 0
VERTEX
 8
MESH_295_F0
 10
82
 20
43.4802
 30
-76
 70
192
 0
VERTEX
 8
MESH_295_F0
 10
82
 20
43.5414
 30
-72.4913
 70
192
 0
VERTEX
 8
MESH_295_F0
 10
85.2113
 20
42.2113
 30
-72.4913
 70
192
 0
VERTEX
 8
MESH_295_F0
 10
86.5414
 20
39
 30
-72.4913
 70
192
 0
VERTEX
 8
MESH_295_F0
 10
85.2113
 20
35.7887
 30
-72.4913
 70
192
 0
VERTEX
 8
MESH_295_F0
 10
82
 20
34.4586
 30
-72.4913
 70
192
 0
VERTEX
 8
MESH_295_F0
 10
0
 20
0
 30
0
 70
128
 71
9
 72
1
 73
10
 74
10
 0
VERTEX
 8
MESH_295_F0
 10
0
 20
0
 30
0
 70
128
 71
2
 72
1
 73
9
 74
9
 0
VERTEX
 8
MESH_295_F0
 10
0
 20
0
 30
0
 70
128
 71
3
 72
2
 73
8
 74
8
 0
VERTEX
 8
MESH_295_F0
 10
0
 20
0
 30
0
 70
128
 71
4
 72
3
 73
7
 74
7
 0
VERTEX
 8
MESH_295_F0
 10
0
 20
0
 30
0
 70
128
 71
5
 72
4
 73
6
 74
6
 0
VERTEX
 8
MESH_295_F0
 10
0
 20
0
 30
0
 70
128
 71
4
 72
7
 73
6
 74
6
 0
VERTEX
 8
MESH_295_F0
 10
0
 20
0
 30
0
 70
128
 71
3
 72
8
 73
7
 74
7
 0
VERTEX
 8
MESH_295_F0
 10
0
 20
0
 30
0
 70
128
 71
2
 72
9
 73
8
 74
8
 0
SEQEND
 0
POLYLINE
 8
MESH_294_F0
 66
1
 10
0.0
 20
0.0
 30
0.0
 70
64
 71
16
 72
16
 0
VERTEX
 8
MESH_294_F0
 10
82
 20
34.5198
 30
-76
 70
192
 0
VERTEX
 8
MESH_294_F0
 10
78.832
 20
35.832
 30
-76
 70
192
 0
VERTEX
 8
MESH_294_F0
 10
77.5198
 20
39
 30
-76
 70
192
 0
VERTEX
 8
MESH_294_F0
 10
78.832
 20
42.168
 30
-76
 70
192
 0
VERTEX
 8
MESH_294_F0
 10
82
 20
43.4802
 30
-76
 70
192
 0
VERTEX
 8
MESH_294_F0
 10
85.168
 20
42.168
 30
-76
 70
192
 0
VERTEX
 8
MESH_294_F0
 10
86.4802
 20
39
 30
-76
 70
192
 0
VERTEX
 8
MESH_294_F0
 10
85.168
 20
35.832
 30
-76
 70
192
 0
VERTEX
 8
MESH_294_F0
 10
82
 20
42.5849
 30
-76
 70
192
 0
VERTEX
 8
MESH_294_F0
 10
79.4651
 20
41.5349
 30
-76
 70
192
 0
VERTEX
 8
MESH_294_F0
 10
78.4151
 20
39
 30
-76
 70
192
 0
VERTEX
 8
MESH_294_F0
 10
79.4651
 20
36.4651
 30
-76
 70
192
 0
VERTEX
 8
MESH_294_F0
 10
82
 20
35.4151
 30
-76
 70
192
 0
VERTEX
 8
MESH_294_F0
 10
84.5349
 20
36.4651
 30
-76
 70
192
 0
VERTEX
 8
MESH_294_F0
 10
85.5849
 20
39
 30
-76
 70
192
 0
VERTEX
 8
MESH_294_F0
 10
84.5349
 20
41.5349
 30
-76
 70
192
 0
VERTEX
 8
MESH_294_F0
 10
0
 20
0
 30
0
 70
128
 71
2
 72
11
 73
3
 74
3
 0
VERTEX
 8
MESH_294_F0
 10
0
 20
0
 30
0
 70
128
 71
11
 72
4
 73
3
 74
3
 0
VERTEX
 8
MESH_294_F0
 10
0
 20
0
 30
0
 70
128
 71
10
 72
4
 73
11
 74
11
 0
VERTEX
 8
MESH_294_F0
 10
0
 20
0
 30
0
 70
128
 71
9
 72
4
 73
10
 74
10
 0
VERTEX
 8
MESH_294_F0
 10
0
 20
0
 30
0
 70
128
 71
5
 72
4
 73
9
 74
9
 0
VERTEX
 8
MESH_294_F0
 10
0
 20
0
 30
0
 70
128
 71
6
 72
5
 73
16
 74
16
 0
VERTEX
 8
MESH_294_F0
 10
0
 20
0
 30
0
 70
128
 71
7
 72
6
 73
15
 74
15
 0
VERTEX
 8
MESH_294_F0
 10
0
 20
0
 30
0
 70
128
 71
7
 72
15
 73
8
 74
8
 0
VERTEX
 8
MESH_294_F0
 10
0
 20
0
 30
0
 70
128
 71
15
 72
14
 73
8
 74
8
 0
VERTEX
 8
MESH_294_F0
 10
0
 20
0
 30
0
 70
128
 71
14
 72
1
 73
8
 74
8
 0
VERTEX
 8
MESH_294_F0
 10
0
 20
0
 30
0
 70
128
 71
13
 72
1
 73
14
 74
14
 0
VERTEX
 8
MESH_294_F0
 10
0
 20
0
 30
0
 70
128
 71
12
 72
1
 73
13
 74
13
 0
VERTEX
 8
MESH_294_F0
 10
0
 20
0
 30
0
 70
128
 71
2
 72
1
 73
12
 74
12
 0
VERTEX
 8
MESH_294_F0
 10
0
 20
0
 30
0
 70
128
 71
2
 72
12
 73
11
 74
11
 0
VERTEX
 8
MESH_294_F0
 10
0
 20
0
 30
0
 70
128
 71
6
 72
16
 73
15
 74
15
 0
VERTEX
 8
MESH_294_F0
 10
0
 20
0
 30
0
 70
128
 71
5
 72
9
 73
16
 74
16
 0
SEQEND
 0
POLYLINE
 8
MESH_293_F0
 66
1
 10
0.0
 20
0.0
 30
0.0
 70
64
 71
10
 72
8
 0
VERTEX
 8
MESH_293_F0
 10
82
 20
34.5198
 30
-76
 70
192
 0
VERTEX
 8
MESH_293_F0
 10
82
 20
34.4586
 30
-72.4913
 70
192
 0
VERTEX
 8
MESH_293_F0
 10
78.7887
 20
35.7887
 30
-72.4913
 70
192
 0
VERTEX
 8
MESH_293_F0
 10
77.4586
 20
39
 30
-72.4913
 70
192
 0
VERTEX
 8
MESH_293_F0
 10
78.7887
 20
42.2113
 30
-72.4913
 70
192
 0
VERTEX
 8
MESH_293_F0
 10
82
 20
43.5414
 30
-72.4913
 70
192
 0
VERTEX
 8
MESH_293_F0
 10
82
 20
43.4802
 30
-76
 70
192
 0
VERTEX
 8
MESH_293_F0
 10
78.832
 20
42.168
 30
-76
 70
192
 0
VERTEX
 8
MESH_293_F0
 10
77.5198
 20
39
 30
-76
 70
192
 0
VERTEX
 8
MESH_293_F0
 10
78.832
 20
35.832
 30
-76
 70
192
 0
VERTEX
 8
MESH_293_F0
 10
0
 20
0
 30
0
 70
128
 71
10
 72
2
 73
1
 74
1
 0
VERTEX
 8
MESH_293_F0
 10
0
 20
0
 30
0
 70
128
 71
3
 72
2
 73
10
 74
10
 0
VERTEX
 8
MESH_293_F0
 10
0
 20
0
 30
0
 70
128
 71
4
 72
3
 73
9
 74
9
 0
VERTEX
 8
MESH_293_F0
 10
0
 20
0
 30
0
 70
128
 71
5
 72
4
 73
8
 74
8
 0
VERTEX
 8
MESH_293_F0
 10
0
 20
0
 30
0
 70
128
 71
6
 72
5
 73
7
 74
7
 0
VERTEX
 8
MESH_293_F0
 10
0
 20
0
 30
0
 70
128
 71
5
 72
8
 73
7
 74
7
 0
VERTEX
 8
MESH_293_F0
 10
0
 20
0
 30
0
 70
128
 71
4
 72
9
 73
8
 74
8
 0
VERTEX
 8
MESH_293_F0
 10
0
 20
0
 30
0
 70
128
 71
3
 72
10
 73
9
 74
9
 0
SEQEND
 0
POLYLINE
 8
MESH_292_F0
 66
1
 10
0.0
 20
0.0
 30
0.0
 70
64
 71
24
 72
28
 0
VERTEX
 8
MESH_292_F0
 10
82
 20
44.0413
 30
-72
 70
192
 0
VERTEX
 8
MESH_292_F0
 10
82
 20
43.7939
 30
-72.0655
 70
192
 0
VERTEX
 8
MESH_292_F0
 10
82
 20
43.6113
 30
-72.245
 70
192
 0
VERTEX
 8
MESH_292_F0
 10
82
 20
43.5414
 30
-72.4913
 70
192
 0
VERTEX
 8
MESH_292_F0
 10
78.7887
 20
42.2113
 30
-72.4913
 70
192
 0
VERTEX
 8
MESH_292_F0
 10
77.4586
 20
39
 30
-72.4913
 70
192
 0
VERTEX
 8
MESH_292_F0
 10
78.7887
 20
35.7887
 30
-72.4913
 70
192
 0
VERTEX
 8
MESH_292_F0
 10
82
 20
34.4586
 30
-72.4913
 70
192
 0
VERTEX
 8
MESH_292_F0
 10
82
 20
34.3887
 30
-72.245
 70
192
 0
VERTEX
 8
MESH_292_F0
 10
82
 20
34.2061
 30
-72.0655
 70
192
 0
VERTEX
 8
MESH_292_F0
 10
82
 20
33.9587
 30
-72
 70
192
 0
VERTEX
 8
MESH_292_F0
 10
78.4352
 20
35.4352
 30
-72
 70
192
 0
VERTEX
 8
MESH_292_F0
 10
76.9586
 20
39
 30
-72
 70
192
 0
VERTEX
 8
MESH_292_F0
 10
78.4352
 20
42.5648
 30
-72
 70
192
 0
VERTEX
 8
MESH_292_F0
 10
79.6958
 20
42.9909
 30
-72.25
 70
192
 0
VERTEX
 8
MESH_292_F0
 10
79.4593
 20
43.0068
 30
-72.0977
 70
192
 0
VERTEX
 8
MESH_292_F0
 10
78.0091
 20
41.3042
 30
-72.25
 70
192
 0
VERTEX
 8
MESH_292_F0
 10
77.7531
 20
41.1947
 30
-72.0735
 70
192
 0
VERTEX
 8
MESH_292_F0
 10
78.0091
 20
36.6958
 30
-72.25
 70
192
 0
VERTEX
 8
MESH_292_F0
 10
77.7781
 20
36.7556
 30
-72.0729
 70
192
 0
VERTEX
 8
MESH_292_F0
 10
77.2086
 20
39
 30
-72.067
 70
192
 0
VERTEX
 8
MESH_292_F0
 10
77.3917
 20
39
 30
-72.25
 70
192
 0
VERTEX
 8
MESH_292_F0
 10
79.6958
 20
35.0091
 30
-72.25
 70
192
 0
VERTEX
 8
MESH_292_F0
 10
79.4795
 20
34.9118
 30
-72.0606
 70
192
 0
VERTEX
 8
MESH_292_F0
 10
0
 20
0
 30
0
 70
128
 71
14
 72
2
 73
1
 74
1
 0
VERTEX
 8
MESH_292_F0
 10
0
 20
0
 30
0
 70
128
 71
16
 72
2
 73
14
 74
14
 0
VERTEX
 8
MESH_292_F0
 10
0
 20
0
 30
0
 70
128
 71
17
 72
15
 73
16
 74
18
 0
VERTEX
 8
MESH_292_F0
 10
0
 20
0
 30
0
 70
128
 71
18
 72
21
 73
22
 74
17
 0
VERTEX
 8
MESH_292_F0
 10
0
 20
0
 30
0
 70
128
 71
5
 72
17
 73
6
 74
6
 0
VERTEX
 8
MESH_292_F0
 10
0
 20
0
 30
0
 70
128
 71
17
 72
22
 73
6
 74
6
 0
VERTEX
 8
MESH_292_F0
 10
0
 20
0
 30
0
 70
128
 71
22
 72
19
 73
6
 74
6
 0
VERTEX
 8
MESH_292_F0
 10
0
 20
0
 30
0
 70
128
 71
19
 72
7
 73
6
 74
6
 0
VERTEX
 8
MESH_292_F0
 10
0
 20
0
 30
0
 70
128
 71
23
 72
7
 73
19
 74
19
 0
VERTEX
 8
MESH_292_F0
 10
0
 20
0
 30
0
 70
128
 71
10
 72
23
 73
24
 74
24
 0
VERTEX
 8
MESH_292_F0
 10
0
 20
0
 30
0
 70
128
 71
10
 72
24
 73
11
 74
11
 0
VERTEX
 8
MESH_292_F0
 10
0
 20
0
 30
0
 70
128
 71
24
 72
12
 73
11
 74
11
 0
VERTEX
 8
MESH_292_F0
 10
0
 20
0
 30
0
 70
128
 71
20
 72
12
 73
24
 74
24
 0
VERTEX
 8
MESH_292_F0
 10
0
 20
0
 30
0
 70
128
 71
22
 72
21
 73
20
 74
19
 0
VERTEX
 8
MESH_292_F0
 10
0
 20
0
 30
0
 70
128
 71
19
 72
20
 73
24
 74
23
 0
VERTEX
 8
MESH_292_F0
 10
0
 20
0
 30
0
 70
128
 71
16
 72
3
 73
2
 74
2
 0
VERTEX
 8
MESH_292_F0
 10
0
 20
0
 30
0
 70
128
 71
15
 72
3
 73
16
 74
16
 0
VERTEX
 8
MESH_292_F0
 10
0
 20
0
 30
0
 70
128
 71
4
 72
3
 73
15
 74
15
 0
VERTEX
 8
MESH_292_F0
 10
0
 20
0
 30
0
 70
128
 71
4
 72
15
 73
5
 74
5
 0
VERTEX
 8
MESH_292_F0
 10
0
 20
0
 30
0
 70
128
 71
15
 72
17
 73
5
 74
5
 0
VERTEX
 8
MESH_292_F0
 10
0
 20
0
 30
0
 70
128
 71
23
 72
8
 73
7
 74
7
 0
VERTEX
 8
MESH_292_F0
 10
0
 20
0
 30
0
 70
128
 71
9
 72
8
 73
23
 74
23
 0
VERTEX
 8
MESH_292_F0
 10
0
 20
0
 30
0
 70
128
 71
9
 72
23
 73
10
 74
10
 0
VERTEX
 8
MESH_292_F0
 10
0
 20
0
 30
0
 70
128
 71
20
 72
13
 73
12
 74
12
 0
VERTEX
 8
MESH_292_F0
 10
0
 20
0
 30
0
 70
128
 71
21
 72
13
 73
20
 74
20
 0
VERTEX
 8
MESH_292_F0
 10
0
 20
0
 30
0
 70
128
 71
18
 72
13
 73
21
 74
21
 0
VERTEX
 8
MESH_292_F0
 10
0
 20
0
 30
0
 70
128
 71
14
 72
13
 73
18
 74
18
 0
VERTEX
 8
MESH_292_F0
 10
0
 20
0
 30
0
 70
128
 71
14
 72
18
 73
16
 74
16
 0
SEQEND
 0
POLYLINE
 8
MESH_291_F0
 66
1
 10
0.0
 20
0.0
 30
0.0
 70
64
 71
24
 72
28
 0
VERTEX
 8
MESH_291_F0
 10
82
 20
44.0413
 30
-72
 70
192
 0
VERTEX
 8
MESH_291_F0
 10
85.5648
 20
42.5648
 30
-72
 70
192
 0
VERTEX
 8
MESH_291_F0
 10
87.0414
 20
39
 30
-72
 70
192
 0
VERTEX
 8
MESH_291_F0
 10
85.5648
 20
35.4352
 30
-72
 70
192
 0
VERTEX
 8
MESH_291_F0
 10
82
 20
33.9587
 30
-72
 70
192
 0
VERTEX
 8
MESH_291_F0
 10
82
 20
34.2061
 30
-72.0655
 70
192
 0
VERTEX
 8
MESH_291_F0
 10
82
 20
34.3887
 30
-72.245
 70
192
 0
VERTEX
 8
MESH_291_F0
 10
82
 20
34.4586
 30
-72.4913
 70
192
 0
VERTEX
 8
MESH_291_F0
 10
85.2113
 20
35.7887
 30
-72.4913
 70
192
 0
VERTEX
 8
MESH_291_F0
 10
86.5414
 20
39
 30
-72.4913
 70
192
 0
VERTEX
 8
MESH_291_F0
 10
85.2113
 20
42.2113
 30
-72.4913
 70
192
 0
VERTEX
 8
MESH_291_F0
 10
82
 20
43.5414
 30
-72.4913
 70
192
 0
VERTEX
 8
MESH_291_F0
 10
82
 20
43.6113
 30
-72.245
 70
192
 0
VERTEX
 8
MESH_291_F0
 10
82
 20
43.7939
 30
-72.0655
 70
192
 0
VERTEX
 8
MESH_291_F0
 10
84.5205
 20
43.0882
 30
-72.0606
 70
192
 0
VERTEX
 8
MESH_291_F0
 10
84.3042
 20
42.9909
 30
-72.25
 70
192
 0
VERTEX
 8
MESH_291_F0
 10
86.2219
 20
41.2444
 30
-72.0729
 70
192
 0
VERTEX
 8
MESH_291_F0
 10
85.9909
 20
41.3042
 30
-72.25
 70
192
 0
VERTEX
 8
MESH_291_F0
 10
86.2469
 20
36.8053
 30
-72.0735
 70
192
 0
VERTEX
 8
MESH_291_F0
 10
85.9909
 20
36.6958
 30
-72.25
 70
192
 0
VERTEX
 8
MESH_291_F0
 10
86.6083
 20
39
 30
-72.25
 70
192
 0
VERTEX
 8
MESH_291_F0
 10
86.7913
 20
39
 30
-72.067
 70
192
 0
VERTEX
 8
MESH_291_F0
 10
84.5407
 20
34.9931
 30
-72.0977
 70
192
 0
VERTEX
 8
MESH_291_F0
 10
84.3042
 20
35.0091
 30
-72.25
 70
192
 0
VERTEX
 8
MESH_291_F0
 10
0
 20
0
 30
0
 70
128
 71
15
 72
1
 73
14
 74
14
 0
VERTEX
 8
MESH_291_F0
 10
0
 20
0
 30
0
 70
128
 71
18
 72
17
 73
15
 74
16
 0
VERTEX
 8
MESH_291_F0
 10
0
 20
0
 30
0
 70
128
 71
16
 72
11
 73
18
 74
18
 0
VERTEX
 8
MESH_291_F0
 10
0
 20
0
 30
0
 70
128
 71
11
 72
10
 73
18
 74
18
 0
VERTEX
 8
MESH_291_F0
 10
0
 20
0
 30
0
 70
128
 71
10
 72
21
 73
18
 74
18
 0
VERTEX
 8
MESH_291_F0
 10
0
 20
0
 30
0
 70
128
 71
21
 72
22
 73
17
 74
18
 0
VERTEX
 8
MESH_291_F0
 10
0
 20
0
 30
0
 70
128
 71
22
 72
3
 73
17
 74
17
 0
VERTEX
 8
MESH_291_F0
 10
0
 20
0
 30
0
 70
128
 71
3
 72
2
 73
17
 74
17
 0
VERTEX
 8
MESH_291_F0
 10
0
 20
0
 30
0
 70
128
 71
2
 72
15
 73
17
 74
17
 0
VERTEX
 8
MESH_291_F0
 10
0
 20
0
 30
0
 70
128
 71
1
 72
15
 73
2
 74
2
 0
VERTEX
 8
MESH_291_F0
 10
0
 20
0
 30
0
 70
128
 71
19
 72
3
 73
22
 74
22
 0
VERTEX
 8
MESH_291_F0
 10
0
 20
0
 30
0
 70
128
 71
24
 72
23
 73
19
 74
20
 0
VERTEX
 8
MESH_291_F0
 10
0
 20
0
 30
0
 70
128
 71
20
 72
9
 73
24
 74
24
 0
VERTEX
 8
MESH_291_F0
 10
0
 20
0
 30
0
 70
128
 71
9
 72
8
 73
24
 74
24
 0
VERTEX
 8
MESH_291_F0
 10
0
 20
0
 30
0
 70
128
 71
8
 72
7
 73
24
 74
24
 0
VERTEX
 8
MESH_291_F0
 10
0
 20
0
 30
0
 70
128
 71
7
 72
23
 73
24
 74
24
 0
VERTEX
 8
MESH_291_F0
 10
0
 20
0
 30
0
 70
128
 71
6
 72
23
 73
7
 74
7
 0
VERTEX
 8
MESH_291_F0
 10
0
 20
0
 30
0
 70
128
 71
4
 72
23
 73
6
 74
6
 0
VERTEX
 8
MESH_291_F0
 10
0
 20
0
 30
0
 70
128
 71
4
 72
6
 73
5
 74
5
 0
VERTEX
 8
MESH_291_F0
 10
0
 20
0
 30
0
 70
128
 71
20
 72
10
 73
9
 74
9
 0
VERTEX
 8
MESH_291_F0
 10
0
 20
0
 30
0
 70
128
 71
21
 72
10
 73
20
 74
20
 0
VERTEX
 8
MESH_291_F0
 10
0
 20
0
 30
0
 70
128
 71
21
 72
20
 73
19
 74
22
 0
VERTEX
 8
MESH_291_F0
 10
0
 20
0
 30
0
 70
128
 71
16
 72
12
 73
11
 74
11
 0
VERTEX
 8
MESH_291_F0
 10
0
 20
0
 30
0
 70
128
 71
13
 72
12
 73
16
 74
16
 0
VERTEX
 8
MESH_291_F0
 10
0
 20
0
 30
0
 70
128
 71
13
 72
16
 73
14
 74
14
 0
VERTEX
 8
MESH_291_F0
 10
0
 20
0
 30
0
 70
128
 71
16
 72
15
 73
14
 74
14
 0
VERTEX
 8
MESH_291_F0
 10
0
 20
0
 30
0
 70
128
 71
19
 72
4
 73
3
 74
3
 0
VERTEX
 8
MESH_291_F0
 10
0
 20
0
 30
0
 70
128
 71
23
 72
4
 73
19
 74
19
 0
SEQEND
 0
POLYLINE
 8
MESH_290_F0
 66
1
 10
0.0
 20
0.0
 30
0.0
 70
64
 71
10
 72
8
 0
VERTEX
 8
MESH_290_F0
 10
82
 20
-39.7151
 30
-70
 70
192
 0
VERTEX
 8
MESH_290_F0
 10
82
 20
-39.75
 30
-72
 70
192
 0
VERTEX
 8
MESH_290_F0
 10
81.4697
 20
-39.5303
 30
-72
 70
192
 0
VERTEX
 8
MESH_290_F0
 10
81.25
 20
-39
 30
-72
 70
192
 0
VERTEX
 8
MESH_290_F0
 10
81.4697
 20
-38.4697
 30
-72
 70
192
 0
VERTEX
 8
MESH_290_F0
 10
82
 20
-38.25
 30
-72
 70
192
 0
VERTEX
 8
MESH_290_F0
 10
82
 20
-38.2849
 30
-70
 70
192
 0
VERTEX
 8
MESH_290_F0
 10
81.4944
 20
-38.4944
 30
-70
 70
192
 0
VERTEX
 8
MESH_290_F0
 10
81.2849
 20
-39
 30
-70
 70
192
 0
VERTEX
 8
MESH_290_F0
 10
81.4944
 20
-39.5056
 30
-70
 70
192
 0
VERTEX
 8
MESH_290_F0
 10
0
 20
0
 30
0
 70
128
 71
10
 72
2
 73
1
 74
1
 0
VERTEX
 8
MESH_290_F0
 10
0
 20
0
 30
0
 70
128
 71
3
 72
2
 73
10
 74
10
 0
VERTEX
 8
MESH_290_F0
 10
0
 20
0
 30
0
 70
128
 71
4
 72
3
 73
9
 74
9
 0
VERTEX
 8
MESH_290_F0
 10
0
 20
0
 30
0
 70
128
 71
5
 72
4
 73
8
 74
8
 0
VERTEX
 8
MESH_290_F0
 10
0
 20
0
 30
0
 70
128
 71
6
 72
5
 73
7
 74
7
 0
VERTEX
 8
MESH_290_F0
 10
0
 20
0
 30
0
 70
128
 71
5
 72
8
 73
7
 74
7
 0
VERTEX
 8
MESH_290_F0
 10
0
 20
0
 30
0
 70
128
 71
4
 72
9
 73
8
 74
8
 0
VERTEX
 8
MESH_290_F0
 10
0
 20
0
 30
0
 70
128
 71
3
 72
10
 73
9
 74
9
 0
SEQEND
 0
POLYLINE
 8
MESH_289_F0
 66
1
 10
0.0
 20
0.0
 30
0.0
 70
64
 71
10
 72
8
 0
VERTEX
 8
MESH_289_F0
 10
82
 20
-39.7151
 30
-70
 70
192
 0
VERTEX
 8
MESH_289_F0
 10
82.5056
 20
-39.5056
 30
-70
 70
192
 0
VERTEX
 8
MESH_289_F0
 10
82.7151
 20
-39
 30
-70
 70
192
 0
VERTEX
 8
MESH_289_F0
 10
82.5056
 20
-38.4944
 30
-70
 70
192
 0
VERTEX
 8
MESH_289_F0
 10
82
 20
-38.2849
 30
-70
 70
192
 0
VERTEX
 8
MESH_289_F0
 10
82
 20
-38.25
 30
-72
 70
192
 0
VERTEX
 8
MESH_289_F0
 10
82.5303
 20
-38.4697
 30
-72
 70
192
 0
VERTEX
 8
MESH_289_F0
 10
82.75
 20
-39
 30
-72
 70
192
 0
VERTEX
 8
MESH_289_F0
 10
82.5303
 20
-39.5303
 30
-72
 70
192
 0
VERTEX
 8
MESH_289_F0
 10
82
 20
-39.75
 30
-72
 70
192
 0
VERTEX
 8
MESH_289_F0
 10
0
 20
0
 30
0
 70
128
 71
9
 72
1
 73
10
 74
10
 0
VERTEX
 8
MESH_289_F0
 10
0
 20
0
 30
0
 70
128
 71
2
 72
1
 73
9
 74
9
 0
VERTEX
 8
MESH_289_F0
 10
0
 20
0
 30
0
 70
128
 71
3
 72
2
 73
8
 74
8
 0
VERTEX
 8
MESH_289_F0
 10
0
 20
0
 30
0
 70
128
 71
4
 72
3
 73
7
 74
7
 0
VERTEX
 8
MESH_289_F0
 10
0
 20
0
 30
0
 70
128
 71
5
 72
4
 73
6
 74
6
 0
VERTEX
 8
MESH_289_F0
 10
0
 20
0
 30
0
 70
128
 71
4
 72
7
 73
6
 74
6
 0
VERTEX
 8
MESH_289_F0
 10
0
 20
0
 30
0
 70
128
 71
3
 72
8
 73
7
 74
7
 0
VERTEX
 8
MESH_289_F0
 10
0
 20
0
 30
0
 70
128
 71
2
 72
9
 73
8
 74
8
 0
SEQEND
 0
POLYLINE
 8
MESH_288_F0
 66
1
 10
0.0
 20
0.0
 30
0.0
 70
64
 71
16
 72
16
 0
VERTEX
 8
MESH_288_F0
 10
82
 20
-42.55
 30
-72
 70
192
 0
VERTEX
 8
MESH_288_F0
 10
79.4898
 20
-41.5102
 30
-72
 70
192
 0
VERTEX
 8
MESH_288_F0
 10
78.45
 20
-39
 30
-72
 70
192
 0
VERTEX
 8
MESH_288_F0
 10
79.4898
 20
-36.4898
 30
-72
 70
192
 0
VERTEX
 8
MESH_288_F0
 10
82
 20
-35.45
 30
-72
 70
192
 0
VERTEX
 8
MESH_288_F0
 10
84.5102
 20
-36.4898
 30
-72
 70
192
 0
VERTEX
 8
MESH_288_F0
 10
85.55
 20
-39
 30
-72
 70
192
 0
VERTEX
 8
MESH_288_F0
 10
84.5102
 20
-41.5102
 30
-72
 70
192
 0
VERTEX
 8
MESH_288_F0
 10
82
 20
-38.25
 30
-72
 70
192
 0
VERTEX
 8
MESH_288_F0
 10
81.4697
 20
-38.4697
 30
-72
 70
192
 0
VERTEX
 8
MESH_288_F0
 10
81.25
 20
-39
 30
-72
 70
192
 0
VERTEX
 8
MESH_288_F0
 10
81.4697
 20
-39.5303
 30
-72
 70
192
 0
VERTEX
 8
MESH_288_F0
 10
82
 20
-39.75
 30
-72
 70
192
 0
VERTEX
 8
MESH_288_F0
 10
82.5303
 20
-39.5303
 30
-72
 70
192
 0
VERTEX
 8
MESH_288_F0
 10
82.75
 20
-39
 30
-72
 70
192
 0
VERTEX
 8
MESH_288_F0
 10
82.5303
 20
-38.4697
 30
-72
 70
192
 0
VERTEX
 8
MESH_288_F0
 10
0
 20
0
 30
0
 70
128
 71
13
 72
1
 73
8
 74
8
 0
VERTEX
 8
MESH_288_F0
 10
0
 20
0
 30
0
 70
128
 71
13
 72
8
 73
14
 74
14
 0
VERTEX
 8
MESH_288_F0
 10
0
 20
0
 30
0
 70
128
 71
8
 72
7
 73
14
 74
14
 0
VERTEX
 8
MESH_288_F0
 10
0
 20
0
 30
0
 70
128
 71
7
 72
15
 73
14
 74
14
 0
VERTEX
 8
MESH_288_F0
 10
0
 20
0
 30
0
 70
128
 71
16
 72
15
 73
7
 74
7
 0
VERTEX
 8
MESH_288_F0
 10
0
 20
0
 30
0
 70
128
 71
9
 72
16
 73
6
 74
6
 0
VERTEX
 8
MESH_288_F0
 10
0
 20
0
 30
0
 70
128
 71
4
 72
9
 73
5
 74
5
 0
VERTEX
 8
MESH_288_F0
 10
0
 20
0
 30
0
 70
128
 71
9
 72
6
 73
5
 74
5
 0
VERTEX
 8
MESH_288_F0
 10
0
 20
0
 30
0
 70
128
 71
3
 72
10
 73
4
 74
4
 0
VERTEX
 8
MESH_288_F0
 10
0
 20
0
 30
0
 70
128
 71
10
 72
9
 73
4
 74
4
 0
VERTEX
 8
MESH_288_F0
 10
0
 20
0
 30
0
 70
128
 71
16
 72
7
 73
6
 74
6
 0
VERTEX
 8
MESH_288_F0
 10
0
 20
0
 30
0
 70
128
 71
3
 72
11
 73
10
 74
10
 0
VERTEX
 8
MESH_288_F0
 10
0
 20
0
 30
0
 70
128
 71
2
 72
11
 73
3
 74
3
 0
VERTEX
 8
MESH_288_F0
 10
0
 20
0
 30
0
 70
128
 71
12
 72
11
 73
2
 74
2
 0
VERTEX
 8
MESH_288_F0
 10
0
 20
0
 30
0
 70
128
 71
12
 72
2
 73
13
 74
13
 0
VERTEX
 8
MESH_288_F0
 10
0
 20
0
 30
0
 70
128
 71
2
 72
1
 73
13
 74
13
 0
SEQEND
 0
POLYLINE
 8
MESH_287_F0
 66
1
 10
0.0
 20
0.0
 30
0.0
 70
64
 71
10
 72
8
 0
VERTEX
 8
MESH_287_F0
 10
82
 20
-42.55
 30
-72
 70
192
 0
VERTEX
 8
MESH_287_F0
 10
82
 20
-42.5849
 30
-76
 70
192
 0
VERTEX
 8
MESH_287_F0
 10
79.4651
 20
-41.5349
 30
-76
 70
192
 0
VERTEX
 8
MESH_287_F0
 10
78.4151
 20
-39
 30
-76
 70
192
 0
VERTEX
 8
MESH_287_F0
 10
79.4651
 20
-36.4651
 30
-76
 70
192
 0
VERTEX
 8
MESH_287_F0
 10
82
 20
-35.4151
 30
-76
 70
192
 0
VERTEX
 8
MESH_287_F0
 10
82
 20
-35.45
 30
-72
 70
192
 0
VERTEX
 8
MESH_287_F0
 10
79.4898
 20
-36.4898
 30
-72
 70
192
 0
VERTEX
 8
MESH_287_F0
 10
78.45
 20
-39
 30
-72
 70
192
 0
VERTEX
 8
MESH_287_F0
 10
79.4898
 20
-41.5102
 30
-72
 70
192
 0
VERTEX
 8
MESH_287_F0
 10
0
 20
0
 30
0
 70
128
 71
10
 72
2
 73
1
 74
1
 0
VERTEX
 8
MESH_287_F0
 10
0
 20
0
 30
0
 70
128
 71
3
 72
2
 73
10
 74
10
 0
VERTEX
 8
MESH_287_F0
 10
0
 20
0
 30
0
 70
128
 71
4
 72
3
 73
9
 74
9
 0
VERTEX
 8
MESH_287_F0
 10
0
 20
0
 30
0
 70
128
 71
5
 72
4
 73
8
 74
8
 0
VERTEX
 8
MESH_287_F0
 10
0
 20
0
 30
0
 70
128
 71
6
 72
5
 73
7
 74
7
 0
VERTEX
 8
MESH_287_F0
 10
0
 20
0
 30
0
 70
128
 71
5
 72
8
 73
7
 74
7
 0
VERTEX
 8
MESH_287_F0
 10
0
 20
0
 30
0
 70
128
 71
4
 72
9
 73
8
 74
8
 0
VERTEX
 8
MESH_287_F0
 10
0
 20
0
 30
0
 70
128
 71
3
 72
10
 73
9
 74
9
 0
SEQEND
 0
POLYLINE
 8
MESH_286_F0
 66
1
 10
0.0
 20
0.0
 30
0.0
 70
64
 71
10
 72
8
 0
VERTEX
 8
MESH_286_F0
 10
82
 20
-42.55
 30
-72
 70
192
 0
VERTEX
 8
MESH_286_F0
 10
84.5102
 20
-41.5102
 30
-72
 70
192
 0
VERTEX
 8
MESH_286_F0
 10
85.55
 20
-39
 30
-72
 70
192
 0
VERTEX
 8
MESH_286_F0
 10
84.5102
 20
-36.4898
 30
-72
 70
192
 0
VERTEX
 8
MESH_286_F0
 10
82
 20
-35.45
 30
-72
 70
192
 0
VERTEX
 8
MESH_286_F0
 10
82
 20
-35.4151
 30
-76
 70
192
 0
VERTEX
 8
MESH_286_F0
 10
84.5349
 20
-36.4651
 30
-76
 70
192
 0
VERTEX
 8
MESH_286_F0
 10
85.5849
 20
-39
 30
-76
 70
192
 0
VERTEX
 8
MESH_286_F0
 10
84.5349
 20
-41.5349
 30
-76
 70
192
 0
VERTEX
 8
MESH_286_F0
 10
82
 20
-42.5849
 30
-76
 70
192
 0
VERTEX
 8
MESH_286_F0
 10
0
 20
0
 30
0
 70
128
 71
9
 72
1
 73
10
 74
10
 0
VERTEX
 8
MESH_286_F0
 10
0
 20
0
 30
0
 70
128
 71
2
 72
1
 73
9
 74
9
 0
VERTEX
 8
MESH_286_F0
 10
0
 20
0
 30
0
 70
128
 71
3
 72
2
 73
8
 74
8
 0
VERTEX
 8
MESH_286_F0
 10
0
 20
0
 30
0
 70
128
 71
4
 72
3
 73
7
 74
7
 0
VERTEX
 8
MESH_286_F0
 10
0
 20
0
 30
0
 70
128
 71
5
 72
4
 73
6
 74
6
 0
VERTEX
 8
MESH_286_F0
 10
0
 20
0
 30
0
 70
128
 71
4
 72
7
 73
6
 74
6
 0
VERTEX
 8
MESH_286_F0
 10
0
 20
0
 30
0
 70
128
 71
3
 72
8
 73
7
 74
7
 0
VERTEX
 8
MESH_286_F0
 10
0
 20
0
 30
0
 70
128
 71
2
 72
9
 73
8
 74
8
 0
SEQEND
 0
POLYLINE
 8
MESH_285_F0
 66
1
 10
0.0
 20
0.0
 30
0.0
 70
64
 71
10
 72
8
 0
VERTEX
 8
MESH_285_F0
 10
82
 20
-43.4802
 30
-76
 70
192
 0
VERTEX
 8
MESH_285_F0
 10
85.168
 20
-42.168
 30
-76
 70
192
 0
VERTEX
 8
MESH_285_F0
 10
86.4802
 20
-39
 30
-76
 70
192
 0
VERTEX
 8
MESH_285_F0
 10
85.168
 20
-35.832
 30
-76
 70
192
 0
VERTEX
 8
MESH_285_F0
 10
82
 20
-34.5198
 30
-76
 70
192
 0
VERTEX
 8
MESH_285_F0
 10
82
 20
-34.4586
 30
-72.4913
 70
192
 0
VERTEX
 8
MESH_285_F0
 10
85.2113
 20
-35.7887
 30
-72.4913
 70
192
 0
VERTEX
 8
MESH_285_F0
 10
86.5414
 20
-39
 30
-72.4913
 70
192
 0
VERTEX
 8
MESH_285_F0
 10
85.2113
 20
-42.2113
 30
-72.4913
 70
192
 0
VERTEX
 8
MESH_285_F0
 10
82
 20
-43.5414
 30
-72.4913
 70
192
 0
VERTEX
 8
MESH_285_F0
 10
0
 20
0
 30
0
 70
128
 71
9
 72
1
 73
10
 74
10
 0
VERTEX
 8
MESH_285_F0
 10
0
 20
0
 30
0
 70
128
 71
2
 72
1
 73
9
 74
9
 0
VERTEX
 8
MESH_285_F0
 10
0
 20
0
 30
0
 70
128
 71
3
 72
2
 73
8
 74
8
 0
VERTEX
 8
MESH_285_F0
 10
0
 20
0
 30
0
 70
128
 71
4
 72
3
 73
7
 74
7
 0
VERTEX
 8
MESH_285_F0
 10
0
 20
0
 30
0
 70
128
 71
5
 72
4
 73
6
 74
6
 0
VERTEX
 8
MESH_285_F0
 10
0
 20
0
 30
0
 70
128
 71
4
 72
7
 73
6
 74
6
 0
VERTEX
 8
MESH_285_F0
 10
0
 20
0
 30
0
 70
128
 71
3
 72
8
 73
7
 74
7
 0
VERTEX
 8
MESH_285_F0
 10
0
 20
0
 30
0
 70
128
 71
2
 72
9
 73
8
 74
8
 0
SEQEND
 0
POLYLINE
 8
MESH_284_F0
 66
1
 10
0.0
 20
0.0
 30
0.0
 70
64
 71
16
 72
16
 0
VERTEX
 8
MESH_284_F0
 10
82
 20
-43.4802
 30
-76
 70
192
 0
VERTEX
 8
MESH_284_F0
 10
78.832
 20
-42.168
 30
-76
 70
192
 0
VERTEX
 8
MESH_284_F0
 10
77.5198
 20
-39
 30
-76
 70
192
 0
VERTEX
 8
MESH_284_F0
 10
78.832
 20
-35.832
 30
-76
 70
192
 0
VERTEX
 8
MESH_284_F0
 10
82
 20
-34.5198
 30
-76
 70
192
 0
VERTEX
 8
MESH_284_F0
 10
85.168
 20
-35.832
 30
-76
 70
192
 0
VERTEX
 8
MESH_284_F0
 10
86.4802
 20
-39
 30
-76
 70
192
 0
VERTEX
 8
MESH_284_F0
 10
85.168
 20
-42.168
 30
-76
 70
192
 0
VERTEX
 8
MESH_284_F0
 10
82
 20
-35.4151
 30
-76
 70
192
 0
VERTEX
 8
MESH_284_F0
 10
79.4651
 20
-36.4651
 30
-76
 70
192
 0
VERTEX
 8
MESH_284_F0
 10
78.4151
 20
-39
 30
-76
 70
192
 0
VERTEX
 8
MESH_284_F0
 10
79.4651
 20
-41.5349
 30
-76
 70
192
 0
VERTEX
 8
MESH_284_F0
 10
82
 20
-42.5849
 30
-76
 70
192
 0
VERTEX
 8
MESH_284_F0
 10
84.5349
 20
-41.5349
 30
-76
 70
192
 0
VERTEX
 8
MESH_284_F0
 10
85.5849
 20
-39
 30
-76
 70
192
 0
VERTEX
 8
MESH_284_F0
 10
84.5349
 20
-36.4651
 30
-76
 70
192
 0
VERTEX
 8
MESH_284_F0
 10
0
 20
0
 30
0
 70
128
 71
13
 72
1
 73
8
 74
8
 0
VERTEX
 8
MESH_284_F0
 10
0
 20
0
 30
0
 70
128
 71
13
 72
8
 73
14
 74
14
 0
VERTEX
 8
MESH_284_F0
 10
0
 20
0
 30
0
 70
128
 71
8
 72
7
 73
14
 74
14
 0
VERTEX
 8
MESH_284_F0
 10
0
 20
0
 30
0
 70
128
 71
7
 72
15
 73
14
 74
14
 0
VERTEX
 8
MESH_284_F0
 10
0
 20
0
 30
0
 70
128
 71
16
 72
15
 73
7
 74
7
 0
VERTEX
 8
MESH_284_F0
 10
0
 20
0
 30
0
 70
128
 71
9
 72
16
 73
6
 74
6
 0
VERTEX
 8
MESH_284_F0
 10
0
 20
0
 30
0
 70
128
 71
4
 72
9
 73
5
 74
5
 0
VERTEX
 8
MESH_284_F0
 10
0
 20
0
 30
0
 70
128
 71
9
 72
6
 73
5
 74
5
 0
VERTEX
 8
MESH_284_F0
 10
0
 20
0
 30
0
 70
128
 71
3
 72
10
 73
4
 74
4
 0
VERTEX
 8
MESH_284_F0
 10
0
 20
0
 30
0
 70
128
 71
10
 72
9
 73
4
 74
4
 0
VERTEX
 8
MESH_284_F0
 10
0
 20
0
 30
0
 70
128
 71
16
 72
7
 73
6
 74
6
 0
VERTEX
 8
MESH_284_F0
 10
0
 20
0
 30
0
 70
128
 71
3
 72
11
 73
10
 74
10
 0
VERTEX
 8
MESH_284_F0
 10
0
 20
0
 30
0
 70
128
 71
2
 72
11
 73
3
 74
3
 0
VERTEX
 8
MESH_284_F0
 10
0
 20
0
 30
0
 70
128
 71
12
 72
11
 73
2
 74
2
 0
VERTEX
 8
MESH_284_F0
 10
0
 20
0
 30
0
 70
128
 71
12
 72
2
 73
13
 74
13
 0
VERTEX
 8
MESH_284_F0
 10
0
 20
0
 30
0
 70
128
 71
2
 72
1
 73
13
 74
13
 0
SEQEND
 0
POLYLINE
 8
MESH_283_F0
 66
1
 10
0.0
 20
0.0
 30
0.0
 70
64
 71
10
 72
8
 0
VERTEX
 8
MESH_283_F0
 10
82
 20
-43.4802
 30
-76
 70
192
 0
VERTEX
 8
MESH_283_F0
 10
82
 20
-43.5414
 30
-72.4913
 70
192
 0
VERTEX
 8
MESH_283_F0
 10
78.7887
 20
-42.2113
 30
-72.4913
 70
192
 0
VERTEX
 8
MESH_283_F0
 10
77.4586
 20
-39
 30
-72.4913
 70
192
 0
VERTEX
 8
MESH_283_F0
 10
78.7887
 20
-35.7887
 30
-72.4913
 70
192
 0
VERTEX
 8
MESH_283_F0
 10
82
 20
-34.4586
 30
-72.4913
 70
192
 0
VERTEX
 8
MESH_283_F0
 10
82
 20
-34.5198
 30
-76
 70
192
 0
VERTEX
 8
MESH_283_F0
 10
78.832
 20
-35.832
 30
-76
 70
192
 0
VERTEX
 8
MESH_283_F0
 10
77.5198
 20
-39
 30
-76
 70
192
 0
VERTEX
 8
MESH_283_F0
 10
78.832
 20
-42.168
 30
-76
 70
192
 0
VERTEX
 8
MESH_283_F0
 10
0
 20
0
 30
0
 70
128
 71
10
 72
2
 73
1
 74
1
 0
VERTEX
 8
MESH_283_F0
 10
0
 20
0
 30
0
 70
128
 71
3
 72
2
 73
10
 74
10
 0
VERTEX
 8
MESH_283_F0
 10
0
 20
0
 30
0
 70
128
 71
4
 72
3
 73
9
 74
9
 0
VERTEX
 8
MESH_283_F0
 10
0
 20
0
 30
0
 70
128
 71
5
 72
4
 73
8
 74
8
 0
VERTEX
 8
MESH_283_F0
 10
0
 20
0
 30
0
 70
128
 71
6
 72
5
 73
7
 74
7
 0
VERTEX
 8
MESH_283_F0
 10
0
 20
0
 30
0
 70
128
 71
5
 72
8
 73
7
 74
7
 0
VERTEX
 8
MESH_283_F0
 10
0
 20
0
 30
0
 70
128
 71
4
 72
9
 73
8
 74
8
 0
VERTEX
 8
MESH_283_F0
 10
0
 20
0
 30
0
 70
128
 71
3
 72
10
 73
9
 74
9
 0
SEQEND
 0
POLYLINE
 8
MESH_282_F0
 66
1
 10
0.0
 20
0.0
 30
0.0
 70
64
 71
24
 72
28
 0
VERTEX
 8
MESH_282_F0
 10
82
 20
-33.9587
 30
-72
 70
192
 0
VERTEX
 8
MESH_282_F0
 10
82
 20
-34.2061
 30
-72.0655
 70
192
 0
VERTEX
 8
MESH_282_F0
 10
82
 20
-34.3887
 30
-72.245
 70
192
 0
VERTEX
 8
MESH_282_F0
 10
82
 20
-34.4586
 30
-72.4913
 70
192
 0
VERTEX
 8
MESH_282_F0
 10
78.7887
 20
-35.7887
 30
-72.4913
 70
192
 0
VERTEX
 8
MESH_282_F0
 10
77.4586
 20
-39
 30
-72.4913
 70
192
 0
VERTEX
 8
MESH_282_F0
 10
78.7887
 20
-42.2113
 30
-72.4913
 70
192
 0
VERTEX
 8
MESH_282_F0
 10
82
 20
-43.5414
 30
-72.4913
 70
192
 0
VERTEX
 8
MESH_282_F0
 10
82
 20
-43.6113
 30
-72.245
 70
192
 0
VERTEX
 8
MESH_282_F0
 10
82
 20
-43.7939
 30
-72.0655
 70
192
 0
VERTEX
 8
MESH_282_F0
 10
82
 20
-44.0413
 30
-72
 70
192
 0
VERTEX
 8
MESH_282_F0
 10
78.4352
 20
-42.5648
 30
-72
 70
192
 0
VERTEX
 8
MESH_282_F0
 10
76.9586
 20
-39
 30
-72
 70
192
 0
VERTEX
 8
MESH_282_F0
 10
78.4352
 20
-35.4352
 30
-72
 70
192
 0
VERTEX
 8
MESH_282_F0
 10
79.6958
 20
-35.0091
 30
-72.25
 70
192
 0
VERTEX
 8
MESH_282_F0
 10
79.4593
 20
-34.9931
 30
-72.0977
 70
192
 0
VERTEX
 8
MESH_282_F0
 10
78.0091
 20
-36.6958
 30
-72.25
 70
192
 0
VERTEX
 8
MESH_282_F0
 10
77.7531
 20
-36.8053
 30
-72.0735
 70
192
 0
VERTEX
 8
MESH_282_F0
 10
78.0091
 20
-41.3042
 30
-72.25
 70
192
 0
VERTEX
 8
MESH_282_F0
 10
77.7781
 20
-41.2444
 30
-72.0729
 70
192
 0
VERTEX
 8
MESH_282_F0
 10
77.2086
 20
-39
 30
-72.067
 70
192
 0
VERTEX
 8
MESH_282_F0
 10
77.3917
 20
-39
 30
-72.25
 70
192
 0
VERTEX
 8
MESH_282_F0
 10
79.6958
 20
-42.9909
 30
-72.25
 70
192
 0
VERTEX
 8
MESH_282_F0
 10
79.4795
 20
-43.0882
 30
-72.0606
 70
192
 0
VERTEX
 8
MESH_282_F0
 10
0
 20
0
 30
0
 70
128
 71
14
 72
2
 73
1
 74
1
 0
VERTEX
 8
MESH_282_F0
 10
0
 20
0
 30
0
 70
128
 71
16
 72
2
 73
14
 74
14
 0
VERTEX
 8
MESH_282_F0
 10
0
 20
0
 30
0
 70
128
 71
17
 72
15
 73
16
 74
18
 0
VERTEX
 8
MESH_282_F0
 10
0
 20
0
 30
0
 70
128
 71
18
 72
21
 73
22
 74
17
 0
VERTEX
 8
MESH_282_F0
 10
0
 20
0
 30
0
 70
128
 71
5
 72
17
 73
6
 74
6
 0
VERTEX
 8
MESH_282_F0
 10
0
 20
0
 30
0
 70
128
 71
17
 72
22
 73
6
 74
6
 0
VERTEX
 8
MESH_282_F0
 10
0
 20
0
 30
0
 70
128
 71
22
 72
19
 73
6
 74
6
 0
VERTEX
 8
MESH_282_F0
 10
0
 20
0
 30
0
 70
128
 71
19
 72
7
 73
6
 74
6
 0
VERTEX
 8
MESH_282_F0
 10
0
 20
0
 30
0
 70
128
 71
23
 72
7
 73
19
 74
19
 0
VERTEX
 8
MESH_282_F0
 10
0
 20
0
 30
0
 70
128
 71
10
 72
23
 73
24
 74
24
 0
VERTEX
 8
MESH_282_F0
 10
0
 20
0
 30
0
 70
128
 71
10
 72
24
 73
11
 74
11
 0
VERTEX
 8
MESH_282_F0
 10
0
 20
0
 30
0
 70
128
 71
24
 72
12
 73
11
 74
11
 0
VERTEX
 8
MESH_282_F0
 10
0
 20
0
 30
0
 70
128
 71
20
 72
12
 73
24
 74
24
 0
VERTEX
 8
MESH_282_F0
 10
0
 20
0
 30
0
 70
128
 71
22
 72
21
 73
20
 74
19
 0
VERTEX
 8
MESH_282_F0
 10
0
 20
0
 30
0
 70
128
 71
19
 72
20
 73
24
 74
23
 0
VERTEX
 8
MESH_282_F0
 10
0
 20
0
 30
0
 70
128
 71
16
 72
3
 73
2
 74
2
 0
VERTEX
 8
MESH_282_F0
 10
0
 20
0
 30
0
 70
128
 71
15
 72
3
 73
16
 74
16
 0
VERTEX
 8
MESH_282_F0
 10
0
 20
0
 30
0
 70
128
 71
4
 72
3
 73
15
 74
15
 0
VERTEX
 8
MESH_282_F0
 10
0
 20
0
 30
0
 70
128
 71
4
 72
15
 73
5
 74
5
 0
VERTEX
 8
MESH_282_F0
 10
0
 20
0
 30
0
 70
128
 71
15
 72
17
 73
5
 74
5
 0
VERTEX
 8
MESH_282_F0
 10
0
 20
0
 30
0
 70
128
 71
23
 72
8
 73
7
 74
7
 0
VERTEX
 8
MESH_282_F0
 10
0
 20
0
 30
0
 70
128
 71
9
 72
8
 73
23
 74
23
 0
VERTEX
 8
MESH_282_F0
 10
0
 20
0
 30
0
 70
128
 71
9
 72
23
 73
10
 74
10
 0
VERTEX
 8
MESH_282_F0
 10
0
 20
0
 30
0
 70
128
 71
20
 72
13
 73
12
 74
12
 0
VERTEX
 8
MESH_282_F0
 10
0
 20
0
 30
0
 70
128
 71
21
 72
13
 73
20
 74
20
 0
VERTEX
 8
MESH_282_F0
 10
0
 20
0
 30
0
 70
128
 71
18
 72
13
 73
21
 74
21
 0
VERTEX
 8
MESH_282_F0
 10
0
 20
0
 30
0
 70
128
 71
14
 72
13
 73
18
 74
18
 0
VERTEX
 8
MESH_282_F0
 10
0
 20
0
 30
0
 70
128
 71
14
 72
18
 73
16
 74
16
 0
SEQEND
 0
POLYLINE
 8
MESH_281_F0
 66
1
 10
0.0
 20
0.0
 30
0.0
 70
64
 71
24
 72
28
 0
VERTEX
 8
MESH_281_F0
 10
82
 20
-33.9587
 30
-72
 70
192
 0
VERTEX
 8
MESH_281_F0
 10
85.5648
 20
-35.4352
 30
-72
 70
192
 0
VERTEX
 8
MESH_281_F0
 10
87.0414
 20
-39
 30
-72
 70
192
 0
VERTEX
 8
MESH_281_F0
 10
85.5648
 20
-42.5648
 30
-72
 70
192
 0
VERTEX
 8
MESH_281_F0
 10
82
 20
-44.0413
 30
-72
 70
192
 0
VERTEX
 8
MESH_281_F0
 10
82
 20
-43.7939
 30
-72.0655
 70
192
 0
VERTEX
 8
MESH_281_F0
 10
82
 20
-43.6113
 30
-72.245
 70
192
 0
VERTEX
 8
MESH_281_F0
 10
82
 20
-43.5414
 30
-72.4913
 70
192
 0
VERTEX
 8
MESH_281_F0
 10
85.2113
 20
-42.2113
 30
-72.4913
 70
192
 0
VERTEX
 8
MESH_281_F0
 10
86.5414
 20
-39
 30
-72.4913
 70
192
 0
VERTEX
 8
MESH_281_F0
 10
85.2113
 20
-35.7887
 30
-72.4913
 70
192
 0
VERTEX
 8
MESH_281_F0
 10
82
 20
-34.4586
 30
-72.4913
 70
192
 0
VERTEX
 8
MESH_281_F0
 10
82
 20
-34.3887
 30
-72.245
 70
192
 0
VERTEX
 8
MESH_281_F0
 10
82
 20
-34.2061
 30
-72.0655
 70
192
 0
VERTEX
 8
MESH_281_F0
 10
84.5205
 20
-34.9118
 30
-72.0606
 70
192
 0
VERTEX
 8
MESH_281_F0
 10
84.3042
 20
-35.0091
 30
-72.25
 70
192
 0
VERTEX
 8
MESH_281_F0
 10
86.2219
 20
-36.7556
 30
-72.0729
 70
192
 0
VERTEX
 8
MESH_281_F0
 10
85.9909
 20
-36.6958
 30
-72.25
 70
192
 0
VERTEX
 8
MESH_281_F0
 10
86.2469
 20
-41.1947
 30
-72.0735
 70
192
 0
VERTEX
 8
MESH_281_F0
 10
85.9909
 20
-41.3042
 30
-72.25
 70
192
 0
VERTEX
 8
MESH_281_F0
 10
86.6083
 20
-39
 30
-72.25
 70
192
 0
VERTEX
 8
MESH_281_F0
 10
86.7913
 20
-39
 30
-72.067
 70
192
 0
VERTEX
 8
MESH_281_F0
 10
84.5407
 20
-43.0068
 30
-72.0977
 70
192
 0
VERTEX
 8
MESH_281_F0
 10
84.3042
 20
-42.9909
 30
-72.25
 70
192
 0
VERTEX
 8
MESH_281_F0
 10
0
 20
0
 30
0
 70
128
 71
15
 72
1
 73
14
 74
14
 0
VERTEX
 8
MESH_281_F0
 10
0
 20
0
 30
0
 70
128
 71
18
 72
17
 73
15
 74
16
 0
VERTEX
 8
MESH_281_F0
 10
0
 20
0
 30
0
 70
128
 71
16
 72
11
 73
18
 74
18
 0
VERTEX
 8
MESH_281_F0
 10
0
 20
0
 30
0
 70
128
 71
11
 72
10
 73
18
 74
18
 0
VERTEX
 8
MESH_281_F0
 10
0
 20
0
 30
0
 70
128
 71
10
 72
21
 73
18
 74
18
 0
VERTEX
 8
MESH_281_F0
 10
0
 20
0
 30
0
 70
128
 71
21
 72
22
 73
17
 74
18
 0
VERTEX
 8
MESH_281_F0
 10
0
 20
0
 30
0
 70
128
 71
22
 72
3
 73
17
 74
17
 0
VERTEX
 8
MESH_281_F0
 10
0
 20
0
 30
0
 70
128
 71
3
 72
2
 73
17
 74
17
 0
VERTEX
 8
MESH_281_F0
 10
0
 20
0
 30
0
 70
128
 71
2
 72
15
 73
17
 74
17
 0
VERTEX
 8
MESH_281_F0
 10
0
 20
0
 30
0
 70
128
 71
1
 72
15
 73
2
 74
2
 0
VERTEX
 8
MESH_281_F0
 10
0
 20
0
 30
0
 70
128
 71
19
 72
3
 73
22
 74
22
 0
VERTEX
 8
MESH_281_F0
 10
0
 20
0
 30
0
 70
128
 71
24
 72
23
 73
19
 74
20
 0
VERTEX
 8
MESH_281_F0
 10
0
 20
0
 30
0
 70
128
 71
20
 72
9
 73
24
 74
24
 0
VERTEX
 8
MESH_281_F0
 10
0
 20
0
 30
0
 70
128
 71
9
 72
8
 73
24
 74
24
 0
VERTEX
 8
MESH_281_F0
 10
0
 20
0
 30
0
 70
128
 71
8
 72
7
 73
24
 74
24
 0
VERTEX
 8
MESH_281_F0
 10
0
 20
0
 30
0
 70
128
 71
7
 72
23
 73
24
 74
24
 0
VERTEX
 8
MESH_281_F0
 10
0
 20
0
 30
0
 70
128
 71
6
 72
23
 73
7
 74
7
 0
VERTEX
 8
MESH_281_F0
 10
0
 20
0
 30
0
 70
128
 71
4
 72
23
 73
6
 74
6
 0
VERTEX
 8
MESH_281_F0
 10
0
 20
0
 30
0
 70
128
 71
4
 72
6
 73
5
 74
5
 0
VERTEX
 8
MESH_281_F0
 10
0
 20
0
 30
0
 70
128
 71
20
 72
10
 73
9
 74
9
 0
VERTEX
 8
MESH_281_F0
 10
0
 20
0
 30
0
 70
128
 71
21
 72
10
 73
20
 74
20
 0
VERTEX
 8
MESH_281_F0
 10
0
 20
0
 30
0
 70
128
 71
21
 72
20
 73
19
 74
22
 0
VERTEX
 8
MESH_281_F0
 10
0
 20
0
 30
0
 70
128
 71
16
 72
12
 73
11
 74
11
 0
VERTEX
 8
MESH_281_F0
 10
0
 20
0
 30
0
 70
128
 71
13
 72
12
 73
16
 74
16
 0
VERTEX
 8
MESH_281_F0
 10
0
 20
0
 30
0
 70
128
 71
13
 72
16
 73
14
 74
14
 0
VERTEX
 8
MESH_281_F0
 10
0
 20
0
 30
0
 70
128
 71
16
 72
15
 73
14
 74
14
 0
VERTEX
 8
MESH_281_F0
 10
0
 20
0
 30
0
 70
128
 71
19
 72
4
 73
3
 74
3
 0
VERTEX
 8
MESH_281_F0
 10
0
 20
0
 30
0
 70
128
 71
23
 72
4
 73
19
 74
19
 0
SEQEND
 0
POLYLINE
 8
MESH_280_F0
 66
1
 10
0.0
 20
0.0
 30
0.0
 70
64
 71
36
 72
42
 0
VERTEX
 8
MESH_280_F0
 10
88.9163
 20
-44.9163
 30
-72
 70
192
 0
VERTEX
 8
MESH_280_F0
 10
-88.9163
 20
-44.9163
 30
-72
 70
192
 0
VERTEX
 8
MESH_280_F0
 10
-88.9163
 20
44.9163
 30
-72
 70
192
 0
VERTEX
 8
MESH_280_F0
 10
88.9163
 20
44.9163
 30
-72
 70
192
 0
VERTEX
 8
MESH_280_F0
 10
82
 20
-33.9587
 30
-72
 70
192
 0
VERTEX
 8
MESH_280_F0
 10
78.4352
 20
-35.4352
 30
-72
 70
192
 0
VERTEX
 8
MESH_280_F0
 10
76.9586
 20
-39
 30
-72
 70
192
 0
VERTEX
 8
MESH_280_F0
 10
78.4352
 20
-42.5648
 30
-72
 70
192
 0
VERTEX
 8
MESH_280_F0
 10
82
 20
-44.0413
 30
-72
 70
192
 0
VERTEX
 8
MESH_280_F0
 10
85.5648
 20
-42.5648
 30
-72
 70
192
 0
VERTEX
 8
MESH_280_F0
 10
87.0414
 20
-39
 30
-72
 70
192
 0
VERTEX
 8
MESH_280_F0
 10
85.5648
 20
-35.4352
 30
-72
 70
192
 0
VERTEX
 8
MESH_280_F0
 10
82
 20
44.0413
 30
-72
 70
192
 0
VERTEX
 8
MESH_280_F0
 10
78.4352
 20
42.5648
 30
-72
 70
192
 0
VERTEX
 8
MESH_280_F0
 10
76.9586
 20
39
 30
-72
 70
192
 0
VERTEX
 8
MESH_280_F0
 10
78.4352
 20
35.4352
 30
-72
 70
192
 0
VERTEX
 8
MESH_280_F0
 10
82
 20
33.9587
 30
-72
 70
192
 0
VERTEX
 8
MESH_280_F0
 10
85.5648
 20
35.4352
 30
-72
 70
192
 0
VERTEX
 8
MESH_280_F0
 10
87.0414
 20
39
 30
-72
 70
192
 0
VERTEX
 8
MESH_280_F0
 10
85.5648
 20
42.5648
 30
-72
 70
192
 0
VERTEX
 8
MESH_280_F0
 10
-82
 20
44.0413
 30
-72
 70
192
 0
VERTEX
 8
MESH_280_F0
 10
-85.5648
 20
42.5648
 30
-72
 70
192
 0
VERTEX
 8
MESH_280_F0
 10
-87.0414
 20
39
 30
-72
 70
192
 0
VERTEX
 8
MESH_280_F0
 10
-85.5648
 20
35.4352
 30
-72
 70
192
 0
VERTEX
 8
MESH_280_F0
 10
-82
 20
33.9587
 30
-72
 70
192
 0
VERTEX
 8
MESH_280_F0
 10
-78.4352
 20
35.4352
 30
-72
 70
192
 0
VERTEX
 8
MESH_280_F0
 10
-76.9586
 20
39
 30
-72
 70
192
 0
VERTEX
 8
MESH_280_F0
 10
-78.4352
 20
42.5648
 30
-72
 70
192
 0
VERTEX
 8
MESH_280_F0
 10
-82
 20
-33.9587
 30
-72
 70
192
 0
VERTEX
 8
MESH_280_F0
 10
-85.5648
 20
-35.4352
 30
-72
 70
192
 0
VERTEX
 8
MESH_280_F0
 10
-87.0414
 20
-39
 30
-72
 70
192
 0
VERTEX
 8
MESH_280_F0
 10
-85.5648
 20
-42.5648
 30
-72
 70
192
 0
VERTEX
 8
MESH_280_F0
 10
-82
 20
-44.0413
 30
-72
 70
192
 0
VERTEX
 8
MESH_280_F0
 10
-78.4352
 20
-42.5648
 30
-72
 70
192
 0
VERTEX
 8
MESH_280_F0
 10
-76.9586
 20
-39
 30
-72
 70
192
 0
VERTEX
 8
MESH_280_F0
 10
-78.4352
 20
-35.4352
 30
-72
 70
192
 0
VERTEX
 8
MESH_280_F0
 10
0
 20
0
 30
0
 70
128
 71
2
 72
33
 73
32
 74
32
 0
VERTEX
 8
MESH_280_F0
 10
0
 20
0
 30
0
 70
128
 71
24
 72
2
 73
31
 74
31
 0
VERTEX
 8
MESH_280_F0
 10
0
 20
0
 30
0
 70
128
 71
25
 72
24
 73
30
 74
30
 0
VERTEX
 8
MESH_280_F0
 10
0
 20
0
 30
0
 70
128
 71
26
 72
25
 73
29
 74
29
 0
VERTEX
 8
MESH_280_F0
 10
0
 20
0
 30
0
 70
128
 71
15
 72
26
 73
16
 74
16
 0
VERTEX
 8
MESH_280_F0
 10
0
 20
0
 30
0
 70
128
 71
26
 72
29
 73
16
 74
16
 0
VERTEX
 8
MESH_280_F0
 10
0
 20
0
 30
0
 70
128
 71
29
 72
17
 73
16
 74
16
 0
VERTEX
 8
MESH_280_F0
 10
0
 20
0
 30
0
 70
128
 71
36
 72
17
 73
29
 74
29
 0
VERTEX
 8
MESH_280_F0
 10
0
 20
0
 30
0
 70
128
 71
6
 72
17
 73
36
 74
36
 0
VERTEX
 8
MESH_280_F0
 10
0
 20
0
 30
0
 70
128
 71
7
 72
6
 73
35
 74
35
 0
VERTEX
 8
MESH_280_F0
 10
0
 20
0
 30
0
 70
128
 71
8
 72
7
 73
34
 74
34
 0
VERTEX
 8
MESH_280_F0
 10
0
 20
0
 30
0
 70
128
 71
9
 72
8
 73
33
 74
33
 0
VERTEX
 8
MESH_280_F0
 10
0
 20
0
 30
0
 70
128
 71
1
 72
9
 73
2
 74
2
 0
VERTEX
 8
MESH_280_F0
 10
0
 20
0
 30
0
 70
128
 71
9
 72
33
 73
2
 74
2
 0
VERTEX
 8
MESH_280_F0
 10
0
 20
0
 30
0
 70
128
 71
23
 72
2
 73
24
 74
24
 0
VERTEX
 8
MESH_280_F0
 10
0
 20
0
 30
0
 70
128
 71
3
 72
2
 73
23
 74
23
 0
VERTEX
 8
MESH_280_F0
 10
0
 20
0
 30
0
 70
128
 71
21
 72
3
 73
22
 74
22
 0
VERTEX
 8
MESH_280_F0
 10
0
 20
0
 30
0
 70
128
 71
3
 72
23
 73
22
 74
22
 0
VERTEX
 8
MESH_280_F0
 10
0
 20
0
 30
0
 70
128
 71
13
 72
3
 73
21
 74
21
 0
VERTEX
 8
MESH_280_F0
 10
0
 20
0
 30
0
 70
128
 71
14
 72
13
 73
28
 74
28
 0
VERTEX
 8
MESH_280_F0
 10
0
 20
0
 30
0
 70
128
 71
15
 72
14
 73
27
 74
27
 0
VERTEX
 8
MESH_280_F0
 10
0
 20
0
 30
0
 70
128
 71
15
 72
27
 73
26
 74
26
 0
VERTEX
 8
MESH_280_F0
 10
0
 20
0
 30
0
 70
128
 71
1
 72
18
 73
11
 74
11
 0
VERTEX
 8
MESH_280_F0
 10
0
 20
0
 30
0
 70
128
 71
9
 72
1
 73
10
 74
10
 0
VERTEX
 8
MESH_280_F0
 10
0
 20
0
 30
0
 70
128
 71
1
 72
11
 73
10
 74
10
 0
VERTEX
 8
MESH_280_F0
 10
0
 20
0
 30
0
 70
128
 71
17
 72
5
 73
12
 74
12
 0
VERTEX
 8
MESH_280_F0
 10
0
 20
0
 30
0
 70
128
 71
17
 72
12
 73
18
 74
18
 0
VERTEX
 8
MESH_280_F0
 10
0
 20
0
 30
0
 70
128
 71
12
 72
11
 73
18
 74
18
 0
VERTEX
 8
MESH_280_F0
 10
0
 20
0
 30
0
 70
128
 71
1
 72
19
 73
18
 74
18
 0
VERTEX
 8
MESH_280_F0
 10
0
 20
0
 30
0
 70
128
 71
4
 72
19
 73
1
 74
1
 0
VERTEX
 8
MESH_280_F0
 10
0
 20
0
 30
0
 70
128
 71
20
 72
19
 73
4
 74
4
 0
VERTEX
 8
MESH_280_F0
 10
0
 20
0
 30
0
 70
128
 71
20
 72
4
 73
13
 74
13
 0
VERTEX
 8
MESH_280_F0
 10
0
 20
0
 30
0
 70
128
 71
4
 72
3
 73
13
 74
13
 0
VERTEX
 8
MESH_280_F0
 10
0
 20
0
 30
0
 70
128
 71
14
 72
28
 73
27
 74
27
 0
VERTEX
 8
MESH_280_F0
 10
0
 20
0
 30
0
 70
128
 71
13
 72
21
 73
28
 74
28
 0
VERTEX
 8
MESH_280_F0
 10
0
 20
0
 30
0
 70
128
 71
25
 72
30
 73
29
 74
29
 0
VERTEX
 8
MESH_280_F0
 10
0
 20
0
 30
0
 70
128
 71
24
 72
31
 73
30
 74
30
 0
VERTEX
 8
MESH_280_F0
 10
0
 20
0
 30
0
 70
128
 71
2
 72
32
 73
31
 74
31
 0
VERTEX
 8
MESH_280_F0
 10
0
 20
0
 30
0
 70
128
 71
8
 72
34
 73
33
 74
33
 0
VERTEX
 8
MESH_280_F0
 10
0
 20
0
 30
0
 70
128
 71
7
 72
35
 73
34
 74
34
 0
VERTEX
 8
MESH_280_F0
 10
0
 20
0
 30
0
 70
128
 71
6
 72
36
 73
35
 74
35
 0
VERTEX
 8
MESH_280_F0
 10
0
 20
0
 30
0
 70
128
 71
6
 72
5
 73
17
 74
17
 0
SEQEND
 0
POLYLINE
 8
MESH_279_F0
 66
1
 10
0.0
 20
0.0
 30
0.0
 70
64
 71
12
 72
13
 0
VERTEX
 8
MESH_279_F0
 10
95.9857
 20
-51.9846
 30
-62.2468
 70
192
 0
VERTEX
 8
MESH_279_F0
 10
93.9151
 20
-53.5739
 30
-62.2384
 70
192
 0
VERTEX
 8
MESH_279_F0
 10
91.5038
 20
-54.5733
 30
-62.2137
 70
192
 0
VERTEX
 8
MESH_279_F0
 10
88.9163
 20
-54.9147
 30
-62.1745
 70
192
 0
VERTEX
 8
MESH_279_F0
 10
88.9163
 20
-53.5178
 30
-67.1004
 70
192
 0
VERTEX
 8
MESH_279_F0
 10
88.9163
 20
-49.8658
 30
-70.6892
 70
192
 0
VERTEX
 8
MESH_279_F0
 10
88.9163
 20
-44.9163
 30
-72
 70
192
 0
VERTEX
 8
MESH_279_F0
 10
92.4013
 20
-48.4013
 30
-70.7011
 70
192
 0
VERTEX
 8
MESH_279_F0
 10
94.981
 20
-50.981
 30
-67.1418
 70
192
 0
VERTEX
 8
MESH_279_F0
 10
93.2464
 20
-53.5765
 30
-64.5
 70
192
 0
VERTEX
 8
MESH_279_F0
 10
93.2464
 20
-49.9163
 30
-69.5
 70
192
 0
VERTEX
 8
MESH_279_F0
 10
91.4163
 20
-53.5765
 30
-66.3301
 70
192
 0
VERTEX
 8
MESH_279_F0
 10
0
 20
0
 30
0
 70
128
 71
10
 72
1
 73
9
 74
9
 0
VERTEX
 8
MESH_279_F0
 10
0
 20
0
 30
0
 70
128
 71
4
 72
10
 73
12
 74
12
 0
VERTEX
 8
MESH_279_F0
 10
0
 20
0
 30
0
 70
128
 71
4
 72
12
 73
5
 74
5
 0
VERTEX
 8
MESH_279_F0
 10
0
 20
0
 30
0
 70
128
 71
12
 72
6
 73
5
 74
5
 0
VERTEX
 8
MESH_279_F0
 10
0
 20
0
 30
0
 70
128
 71
11
 72
6
 73
12
 74
12
 0
VERTEX
 8
MESH_279_F0
 10
0
 20
0
 30
0
 70
128
 71
8
 72
11
 73
9
 74
9
 0
VERTEX
 8
MESH_279_F0
 10
0
 20
0
 30
0
 70
128
 71
11
 72
12
 73
9
 74
9
 0
VERTEX
 8
MESH_279_F0
 10
0
 20
0
 30
0
 70
128
 71
12
 72
10
 73
9
 74
9
 0
VERTEX
 8
MESH_279_F0
 10
0
 20
0
 30
0
 70
128
 71
10
 72
2
 73
1
 74
1
 0
VERTEX
 8
MESH_279_F0
 10
0
 20
0
 30
0
 70
128
 71
3
 72
2
 73
10
 74
10
 0
VERTEX
 8
MESH_279_F0
 10
0
 20
0
 30
0
 70
128
 71
6
 72
8
 73
7
 74
7
 0
VERTEX
 8
MESH_279_F0
 10
0
 20
0
 30
0
 70
128
 71
11
 72
8
 73
6
 74
6
 0
VERTEX
 8
MESH_279_F0
 10
0
 20
0
 30
0
 70
128
 71
3
 72
10
 73
4
 74
4
 0
SEQEND
 0
POLYLINE
 8
MESH_278_F0
 66
1
 10
0.0
 20
0.0
 30
0.0
 70
64
 71
8
 72
6
 0
VERTEX
 8
MESH_278_F0
 10
-88.9163
 20
-44.9163
 30
-72
 70
192
 0
VERTEX
 8
MESH_278_F0
 10
88.9163
 20
-44.9163
 30
-72
 70
192
 0
VERTEX
 8
MESH_278_F0
 10
88.9163
 20
-49.8658
 30
-70.6892
 70
192
 0
VERTEX
 8
MESH_278_F0
 10
88.9163
 20
-53.5178
 30
-67.1004
 70
192
 0
VERTEX
 8
MESH_278_F0
 10
88.9163
 20
-54.9147
 30
-62.1745
 70
192
 0
VERTEX
 8
MESH_278_F0
 10
-88.9163
 20
-54.9147
 30
-62.1745
 70
192
 0
VERTEX
 8
MESH_278_F0
 10
-88.9163
 20
-53.5178
 30
-67.1004
 70
192
 0
VERTEX
 8
MESH_278_F0
 10
-88.9163
 20
-49.8658
 30
-70.6892
 70
192
 0
VERTEX
 8
MESH_278_F0
 10
0
 20
0
 30
0
 70
128
 71
8
 72
2
 73
1
 74
1
 0
VERTEX
 8
MESH_278_F0
 10
0
 20
0
 30
0
 70
128
 71
3
 72
2
 73
8
 74
8
 0
VERTEX
 8
MESH_278_F0
 10
0
 20
0
 30
0
 70
128
 71
4
 72
3
 73
7
 74
7
 0
VERTEX
 8
MESH_278_F0
 10
0
 20
0
 30
0
 70
128
 71
5
 72
4
 73
6
 74
6
 0
VERTEX
 8
MESH_278_F0
 10
0
 20
0
 30
0
 70
128
 71
4
 72
7
 73
6
 74
6
 0
VERTEX
 8
MESH_278_F0
 10
0
 20
0
 30
0
 70
128
 71
3
 72
8
 73
7
 74
7
 0
SEQEND
 0
POLYLINE
 8
MESH_277_F0
 66
1
 10
0.0
 20
0.0
 30
0.0
 70
64
 71
12
 72
13
 0
VERTEX
 8
MESH_277_F0
 10
-95.9852
 20
-51.9852
 30
-62.2468
 70
192
 0
VERTEX
 8
MESH_277_F0
 10
-94.981
 20
-50.981
 30
-67.1418
 70
192
 0
VERTEX
 8
MESH_277_F0
 10
-92.4013
 20
-48.4013
 30
-70.7011
 70
192
 0
VERTEX
 8
MESH_277_F0
 10
-88.9163
 20
-44.9163
 30
-72
 70
192
 0
VERTEX
 8
MESH_277_F0
 10
-88.9163
 20
-49.8658
 30
-70.6892
 70
192
 0
VERTEX
 8
MESH_277_F0
 10
-88.9163
 20
-53.5178
 30
-67.1004
 70
192
 0
VERTEX
 8
MESH_277_F0
 10
-88.9163
 20
-54.9147
 30
-62.1745
 70
192
 0
VERTEX
 8
MESH_277_F0
 10
-91.5036
 20
-54.5734
 30
-62.2137
 70
192
 0
VERTEX
 8
MESH_277_F0
 10
-93.9146
 20
-53.5742
 30
-62.2384
 70
192
 0
VERTEX
 8
MESH_277_F0
 10
-91.4163
 20
-53.5765
 30
-66.3301
 70
192
 0
VERTEX
 8
MESH_277_F0
 10
-93.2464
 20
-49.9163
 30
-69.5
 70
192
 0
VERTEX
 8
MESH_277_F0
 10
-93.2464
 20
-53.5765
 30
-64.5
 70
192
 0
VERTEX
 8
MESH_277_F0
 10
0
 20
0
 30
0
 70
128
 71
12
 72
1
 73
9
 74
9
 0
VERTEX
 8
MESH_277_F0
 10
0
 20
0
 30
0
 70
128
 71
10
 72
12
 73
8
 74
8
 0
VERTEX
 8
MESH_277_F0
 10
0
 20
0
 30
0
 70
128
 71
6
 72
10
 73
7
 74
7
 0
VERTEX
 8
MESH_277_F0
 10
0
 20
0
 30
0
 70
128
 71
10
 72
8
 73
7
 74
7
 0
VERTEX
 8
MESH_277_F0
 10
0
 20
0
 30
0
 70
128
 71
3
 72
6
 73
5
 74
5
 0
VERTEX
 8
MESH_277_F0
 10
0
 20
0
 30
0
 70
128
 71
3
 72
5
 73
4
 74
4
 0
VERTEX
 8
MESH_277_F0
 10
0
 20
0
 30
0
 70
128
 71
12
 72
9
 73
8
 74
8
 0
VERTEX
 8
MESH_277_F0
 10
0
 20
0
 30
0
 70
128
 71
11
 72
6
 73
3
 74
3
 0
VERTEX
 8
MESH_277_F0
 10
0
 20
0
 30
0
 70
128
 71
10
 72
11
 73
2
 74
2
 0
VERTEX
 8
MESH_277_F0
 10
0
 20
0
 30
0
 70
128
 71
10
 72
2
 73
12
 74
12
 0
VERTEX
 8
MESH_277_F0
 10
0
 20
0
 30
0
 70
128
 71
2
 72
1
 73
12
 74
12
 0
VERTEX
 8
MESH_277_F0
 10
0
 20
0
 30
0
 70
128
 71
6
 72
11
 73
10
 74
10
 0
VERTEX
 8
MESH_277_F0
 10
0
 20
0
 30
0
 70
128
 71
3
 72
2
 73
11
 74
11
 0
SEQEND
 0
POLYLINE
 8
MESH_276_F0
 66
1
 10
0.0
 20
0.0
 30
0.0
 70
64
 71
10
 72
9
 0
VERTEX
 8
MESH_276_F0
 10
-95.9852
 20
-51.9852
 30
-62.2468
 70
192
 0
VERTEX
 8
MESH_276_F0
 10
-97.5742
 20
-49.9146
 30
-62.2384
 70
192
 0
VERTEX
 8
MESH_276_F0
 10
-98.5734
 20
-47.5036
 30
-62.2137
 70
192
 0
VERTEX
 8
MESH_276_F0
 10
-98.9147
 20
-44.9163
 30
-62.1745
 70
192
 0
VERTEX
 8
MESH_276_F0
 10
-97.5178
 20
-44.9163
 30
-67.1004
 70
192
 0
VERTEX
 8
MESH_276_F0
 10
-93.8658
 20
-44.9163
 30
-70.6892
 70
192
 0
VERTEX
 8
MESH_276_F0
 10
-88.9163
 20
-44.9163
 30
-72
 70
192
 0
VERTEX
 8
MESH_276_F0
 10
-92.4013
 20
-48.4013
 30
-70.7011
 70
192
 0
VERTEX
 8
MESH_276_F0
 10
-94.981
 20
-50.981
 30
-67.1418
 70
192
 0
VERTEX
 8
MESH_276_F0
 10
-96.4163
 20
-49.9163
 30
-66.3301
 70
192
 0
VERTEX
 8
MESH_276_F0
 10
0
 20
0
 30
0
 70
128
 71
10
 72
1
 73
9
 74
9
 0
VERTEX
 8
MESH_276_F0
 10
0
 20
0
 30
0
 70
128
 71
5
 72
10
 73
6
 74
6
 0
VERTEX
 8
MESH_276_F0
 10
0
 20
0
 30
0
 70
128
 71
10
 72
9
 73
6
 74
6
 0
VERTEX
 8
MESH_276_F0
 10
0
 20
0
 30
0
 70
128
 71
9
 72
8
 73
6
 74
6
 0
VERTEX
 8
MESH_276_F0
 10
0
 20
0
 30
0
 70
128
 71
8
 72
7
 73
6
 74
6
 0
VERTEX
 8
MESH_276_F0
 10
0
 20
0
 30
0
 70
128
 71
10
 72
2
 73
1
 74
1
 0
VERTEX
 8
MESH_276_F0
 10
0
 20
0
 30
0
 70
128
 71
3
 72
2
 73
10
 74
10
 0
VERTEX
 8
MESH_276_F0
 10
0
 20
0
 30
0
 70
128
 71
4
 72
3
 73
5
 74
5
 0
VERTEX
 8
MESH_276_F0
 10
0
 20
0
 30
0
 70
128
 71
3
 72
10
 73
5
 74
5
 0
SEQEND
 0
POLYLINE
 8
MESH_275_F0
 66
1
 10
0.0
 20
0.0
 30
0.0
 70
64
 71
8
 72
6
 0
VERTEX
 8
MESH_275_F0
 10
-88.9163
 20
44.9163
 30
-72
 70
192
 0
VERTEX
 8
MESH_275_F0
 10
-88.9163
 20
-44.9163
 30
-72
 70
192
 0
VERTEX
 8
MESH_275_F0
 10
-93.8658
 20
-44.9163
 30
-70.6892
 70
192
 0
VERTEX
 8
MESH_275_F0
 10
-97.5178
 20
-44.9163
 30
-67.1004
 70
192
 0
VERTEX
 8
MESH_275_F0
 10
-98.9147
 20
-44.9163
 30
-62.1745
 70
192
 0
VERTEX
 8
MESH_275_F0
 10
-98.9147
 20
44.9163
 30
-62.1745
 70
192
 0
VERTEX
 8
MESH_275_F0
 10
-97.5178
 20
44.9163
 30
-67.1004
 70
192
 0
VERTEX
 8
MESH_275_F0
 10
-93.8658
 20
44.9163
 30
-70.6892
 70
192
 0
VERTEX
 8
MESH_275_F0
 10
0
 20
0
 30
0
 70
128
 71
8
 72
2
 73
1
 74
1
 0
VERTEX
 8
MESH_275_F0
 10
0
 20
0
 30
0
 70
128
 71
3
 72
2
 73
8
 74
8
 0
VERTEX
 8
MESH_275_F0
 10
0
 20
0
 30
0
 70
128
 71
4
 72
3
 73
7
 74
7
 0
VERTEX
 8
MESH_275_F0
 10
0
 20
0
 30
0
 70
128
 71
5
 72
4
 73
6
 74
6
 0
VERTEX
 8
MESH_275_F0
 10
0
 20
0
 30
0
 70
128
 71
4
 72
7
 73
6
 74
6
 0
VERTEX
 8
MESH_275_F0
 10
0
 20
0
 30
0
 70
128
 71
3
 72
8
 73
7
 74
7
 0
SEQEND
 0
POLYLINE
 8
MESH_274_F0
 66
1
 10
0.0
 20
0.0
 30
0.0
 70
64
 71
10
 72
9
 0
VERTEX
 8
MESH_274_F0
 10
-95.9857
 20
51.9846
 30
-62.2468
 70
192
 0
VERTEX
 8
MESH_274_F0
 10
-94.981
 20
50.981
 30
-67.1418
 70
192
 0
VERTEX
 8
MESH_274_F0
 10
-92.4013
 20
48.4013
 30
-70.7011
 70
192
 0
VERTEX
 8
MESH_274_F0
 10
-88.9163
 20
44.9163
 30
-72
 70
192
 0
VERTEX
 8
MESH_274_F0
 10
-93.8658
 20
44.9163
 30
-70.6892
 70
192
 0
VERTEX
 8
MESH_274_F0
 10
-97.5178
 20
44.9163
 30
-67.1004
 70
192
 0
VERTEX
 8
MESH_274_F0
 10
-98.9147
 20
44.9163
 30
-62.1745
 70
192
 0
VERTEX
 8
MESH_274_F0
 10
-98.5735
 20
47.5033
 30
-62.2137
 70
192
 0
VERTEX
 8
MESH_274_F0
 10
-97.5744
 20
49.9142
 30
-62.2384
 70
192
 0
VERTEX
 8
MESH_274_F0
 10
-96.4163
 20
49.9163
 30
-66.3301
 70
192
 0
VERTEX
 8
MESH_274_F0
 10
0
 20
0
 30
0
 70
128
 71
10
 72
1
 73
9
 74
9
 0
VERTEX
 8
MESH_274_F0
 10
0
 20
0
 30
0
 70
128
 71
6
 72
10
 73
8
 74
8
 0
VERTEX
 8
MESH_274_F0
 10
0
 20
0
 30
0
 70
128
 71
6
 72
8
 73
7
 74
7
 0
VERTEX
 8
MESH_274_F0
 10
0
 20
0
 30
0
 70
128
 71
10
 72
2
 73
1
 74
1
 0
VERTEX
 8
MESH_274_F0
 10
0
 20
0
 30
0
 70
128
 71
3
 72
2
 73
10
 74
10
 0
VERTEX
 8
MESH_274_F0
 10
0
 20
0
 30
0
 70
128
 71
5
 72
3
 73
6
 74
6
 0
VERTEX
 8
MESH_274_F0
 10
0
 20
0
 30
0
 70
128
 71
3
 72
10
 73
6
 74
6
 0
VERTEX
 8
MESH_274_F0
 10
0
 20
0
 30
0
 70
128
 71
5
 72
4
 73
3
 74
3
 0
VERTEX
 8
MESH_274_F0
 10
0
 20
0
 30
0
 70
128
 71
10
 72
9
 73
8
 74
8
 0
SEQEND
 0
POLYLINE
 8
MESH_273_F0
 66
1
 10
0.0
 20
0.0
 30
0.0
 70
64
 71
12
 72
13
 0
VERTEX
 8
MESH_273_F0
 10
-95.9857
 20
51.9846
 30
-62.2468
 70
192
 0
VERTEX
 8
MESH_273_F0
 10
-93.9151
 20
53.5739
 30
-62.2384
 70
192
 0
VERTEX
 8
MESH_273_F0
 10
-91.5038
 20
54.5733
 30
-62.2137
 70
192
 0
VERTEX
 8
MESH_273_F0
 10
-88.9163
 20
54.9147
 30
-62.1745
 70
192
 0
VERTEX
 8
MESH_273_F0
 10
-88.9163
 20
53.5178
 30
-67.1004
 70
192
 0
VERTEX
 8
MESH_273_F0
 10
-88.9163
 20
49.8658
 30
-70.6892
 70
192
 0
VERTEX
 8
MESH_273_F0
 10
-88.9163
 20
44.9163
 30
-72
 70
192
 0
VERTEX
 8
MESH_273_F0
 10
-92.4013
 20
48.4013
 30
-70.7011
 70
192
 0
VERTEX
 8
MESH_273_F0
 10
-94.981
 20
50.981
 30
-67.1418
 70
192
 0
VERTEX
 8
MESH_273_F0
 10
-93.2464
 20
53.5765
 30
-64.5
 70
192
 0
VERTEX
 8
MESH_273_F0
 10
-93.2464
 20
49.9163
 30
-69.5
 70
192
 0
VERTEX
 8
MESH_273_F0
 10
-91.4163
 20
53.5765
 30
-66.3301
 70
192
 0
VERTEX
 8
MESH_273_F0
 10
0
 20
0
 30
0
 70
128
 71
10
 72
1
 73
9
 74
9
 0
VERTEX
 8
MESH_273_F0
 10
0
 20
0
 30
0
 70
128
 71
4
 72
10
 73
12
 74
12
 0
VERTEX
 8
MESH_273_F0
 10
0
 20
0
 30
0
 70
128
 71
4
 72
12
 73
5
 74
5
 0
VERTEX
 8
MESH_273_F0
 10
0
 20
0
 30
0
 70
128
 71
12
 72
11
 73
5
 74
5
 0
VERTEX
 8
MESH_273_F0
 10
0
 20
0
 30
0
 70
128
 71
11
 72
6
 73
5
 74
5
 0
VERTEX
 8
MESH_273_F0
 10
0
 20
0
 30
0
 70
128
 71
8
 72
6
 73
11
 74
11
 0
VERTEX
 8
MESH_273_F0
 10
0
 20
0
 30
0
 70
128
 71
8
 72
11
 73
9
 74
9
 0
VERTEX
 8
MESH_273_F0
 10
0
 20
0
 30
0
 70
128
 71
11
 72
12
 73
9
 74
9
 0
VERTEX
 8
MESH_273_F0
 10
0
 20
0
 30
0
 70
128
 71
12
 72
10
 73
9
 74
9
 0
VERTEX
 8
MESH_273_F0
 10
0
 20
0
 30
0
 70
128
 71
8
 72
7
 73
6
 74
6
 0
VERTEX
 8
MESH_273_F0
 10
0
 20
0
 30
0
 70
128
 71
10
 72
2
 73
1
 74
1
 0
VERTEX
 8
MESH_273_F0
 10
0
 20
0
 30
0
 70
128
 71
3
 72
2
 73
10
 74
10
 0
VERTEX
 8
MESH_273_F0
 10
0
 20
0
 30
0
 70
128
 71
3
 72
10
 73
4
 74
4
 0
SEQEND
 0
POLYLINE
 8
MESH_272_F0
 66
1
 10
0.0
 20
0.0
 30
0.0
 70
64
 71
8
 72
6
 0
VERTEX
 8
MESH_272_F0
 10
88.9163
 20
44.9163
 30
-72
 70
192
 0
VERTEX
 8
MESH_272_F0
 10
-88.9163
 20
44.9163
 30
-72
 70
192
 0
VERTEX
 8
MESH_272_F0
 10
-88.9163
 20
49.8658
 30
-70.6892
 70
192
 0
VERTEX
 8
MESH_272_F0
 10
-88.9163
 20
53.5178
 30
-67.1004
 70
192
 0
VERTEX
 8
MESH_272_F0
 10
-88.9163
 20
54.9147
 30
-62.1745
 70
192
 0
VERTEX
 8
MESH_272_F0
 10
88.9163
 20
54.9147
 30
-62.1745
 70
192
 0
VERTEX
 8
MESH_272_F0
 10
88.9163
 20
53.5178
 30
-67.1004
 70
192
 0
VERTEX
 8
MESH_272_F0
 10
88.9163
 20
49.8658
 30
-70.6892
 70
192
 0
VERTEX
 8
MESH_272_F0
 10
0
 20
0
 30
0
 70
128
 71
1
 72
3
 73
2
 74
2
 0
VERTEX
 8
MESH_272_F0
 10
0
 20
0
 30
0
 70
128
 71
8
 72
3
 73
1
 74
1
 0
VERTEX
 8
MESH_272_F0
 10
0
 20
0
 30
0
 70
128
 71
7
 72
3
 73
8
 74
8
 0
VERTEX
 8
MESH_272_F0
 10
0
 20
0
 30
0
 70
128
 71
4
 72
3
 73
7
 74
7
 0
VERTEX
 8
MESH_272_F0
 10
0
 20
0
 30
0
 70
128
 71
5
 72
4
 73
6
 74
6
 0
VERTEX
 8
MESH_272_F0
 10
0
 20
0
 30
0
 70
128
 71
4
 72
7
 73
6
 74
6
 0
SEQEND
 0
POLYLINE
 8
MESH_271_F0
 66
1
 10
0.0
 20
0.0
 30
0.0
 70
64
 71
12
 72
13
 0
VERTEX
 8
MESH_271_F0
 10
95.9852
 20
51.9852
 30
-62.2468
 70
192
 0
VERTEX
 8
MESH_271_F0
 10
94.981
 20
50.981
 30
-67.1418
 70
192
 0
VERTEX
 8
MESH_271_F0
 10
92.4013
 20
48.4013
 30
-70.7011
 70
192
 0
VERTEX
 8
MESH_271_F0
 10
88.9163
 20
44.9163
 30
-72
 70
192
 0
VERTEX
 8
MESH_271_F0
 10
88.9163
 20
49.8658
 30
-70.6892
 70
192
 0
VERTEX
 8
MESH_271_F0
 10
88.9163
 20
53.5178
 30
-67.1004
 70
192
 0
VERTEX
 8
MESH_271_F0
 10
88.9163
 20
54.9147
 30
-62.1745
 70
192
 0
VERTEX
 8
MESH_271_F0
 10
91.5036
 20
54.5734
 30
-62.2137
 70
192
 0
VERTEX
 8
MESH_271_F0
 10
93.9146
 20
53.5742
 30
-62.2384
 70
192
 0
VERTEX
 8
MESH_271_F0
 10
93.2464
 20
53.5765
 30
-64.5
 70
192
 0
VERTEX
 8
MESH_271_F0
 10
91.4163
 20
53.5765
 30
-66.3301
 70
192
 0
VERTEX
 8
MESH_271_F0
 10
93.2464
 20
49.9163
 30
-69.5
 70
192
 0
VERTEX
 8
MESH_271_F0
 10
0
 20
0
 30
0
 70
128
 71
10
 72
1
 73
9
 74
9
 0
VERTEX
 8
MESH_271_F0
 10
0
 20
0
 30
0
 70
128
 71
11
 72
10
 73
8
 74
8
 0
VERTEX
 8
MESH_271_F0
 10
0
 20
0
 30
0
 70
128
 71
12
 72
11
 73
7
 74
7
 0
VERTEX
 8
MESH_271_F0
 10
0
 20
0
 30
0
 70
128
 71
3
 72
12
 73
6
 74
6
 0
VERTEX
 8
MESH_271_F0
 10
0
 20
0
 30
0
 70
128
 71
4
 72
3
 73
5
 74
5
 0
VERTEX
 8
MESH_271_F0
 10
0
 20
0
 30
0
 70
128
 71
3
 72
6
 73
5
 74
5
 0
VERTEX
 8
MESH_271_F0
 10
0
 20
0
 30
0
 70
128
 71
2
 72
12
 73
3
 74
3
 0
VERTEX
 8
MESH_271_F0
 10
0
 20
0
 30
0
 70
128
 71
11
 72
12
 73
2
 74
2
 0
VERTEX
 8
MESH_271_F0
 10
0
 20
0
 30
0
 70
128
 71
11
 72
2
 73
10
 74
10
 0
VERTEX
 8
MESH_271_F0
 10
0
 20
0
 30
0
 70
128
 71
2
 72
1
 73
10
 74
10
 0
VERTEX
 8
MESH_271_F0
 10
0
 20
0
 30
0
 70
128
 71
12
 72
7
 73
6
 74
6
 0
VERTEX
 8
MESH_271_F0
 10
0
 20
0
 30
0
 70
128
 71
10
 72
9
 73
8
 74
8
 0
VERTEX
 8
MESH_271_F0
 10
0
 20
0
 30
0
 70
128
 71
7
 72
11
 73
8
 74
8
 0
SEQEND
 0
POLYLINE
 8
MESH_270_F0
 66
1
 10
0.0
 20
0.0
 30
0.0
 70
64
 71
10
 72
9
 0
VERTEX
 8
MESH_270_F0
 10
95.9852
 20
51.9852
 30
-62.2468
 70
192
 0
VERTEX
 8
MESH_270_F0
 10
97.5742
 20
49.9146
 30
-62.2384
 70
192
 0
VERTEX
 8
MESH_270_F0
 10
98.5734
 20
47.5036
 30
-62.2137
 70
192
 0
VERTEX
 8
MESH_270_F0
 10
98.9147
 20
44.9163
 30
-62.1745
 70
192
 0
VERTEX
 8
MESH_270_F0
 10
97.5178
 20
44.9163
 30
-67.1004
 70
192
 0
VERTEX
 8
MESH_270_F0
 10
93.8658
 20
44.9163
 30
-70.6892
 70
192
 0
VERTEX
 8
MESH_270_F0
 10
88.9163
 20
44.9163
 30
-72
 70
192
 0
VERTEX
 8
MESH_270_F0
 10
92.4013
 20
48.4013
 30
-70.7011
 70
192
 0
VERTEX
 8
MESH_270_F0
 10
94.981
 20
50.981
 30
-67.1418
 70
192
 0
VERTEX
 8
MESH_270_F0
 10
96.4163
 20
49.9163
 30
-66.3301
 70
192
 0
VERTEX
 8
MESH_270_F0
 10
0
 20
0
 30
0
 70
128
 71
10
 72
1
 73
9
 74
9
 0
VERTEX
 8
MESH_270_F0
 10
0
 20
0
 30
0
 70
128
 71
3
 72
10
 73
5
 74
5
 0
VERTEX
 8
MESH_270_F0
 10
0
 20
0
 30
0
 70
128
 71
3
 72
5
 73
4
 74
4
 0
VERTEX
 8
MESH_270_F0
 10
0
 20
0
 30
0
 70
128
 71
10
 72
2
 73
1
 74
1
 0
VERTEX
 8
MESH_270_F0
 10
0
 20
0
 30
0
 70
128
 71
3
 72
2
 73
10
 74
10
 0
VERTEX
 8
MESH_270_F0
 10
0
 20
0
 30
0
 70
128
 71
9
 72
5
 73
10
 74
10
 0
VERTEX
 8
MESH_270_F0
 10
0
 20
0
 30
0
 70
128
 71
6
 72
5
 73
9
 74
9
 0
VERTEX
 8
MESH_270_F0
 10
0
 20
0
 30
0
 70
128
 71
7
 72
6
 73
8
 74
8
 0
VERTEX
 8
MESH_270_F0
 10
0
 20
0
 30
0
 70
128
 71
6
 72
9
 73
8
 74
8
 0
SEQEND
 0
POLYLINE
 8
MESH_269_F0
 66
1
 10
0.0
 20
0.0
 30
0.0
 70
64
 71
8
 72
6
 0
VERTEX
 8
MESH_269_F0
 10
88.9163
 20
-44.9163
 30
-72
 70
192
 0
VERTEX
 8
MESH_269_F0
 10
88.9163
 20
44.9163
 30
-72
 70
192
 0
VERTEX
 8
MESH_269_F0
 10
93.8658
 20
44.9163
 30
-70.6892
 70
192
 0
VERTEX
 8
MESH_269_F0
 10
97.5178
 20
44.9163
 30
-67.1004
 70
192
 0
VERTEX
 8
MESH_269_F0
 10
98.9147
 20
44.9163
 30
-62.1745
 70
192
 0
VERTEX
 8
MESH_269_F0
 10
98.9147
 20
-44.9163
 30
-62.1745
 70
192
 0
VERTEX
 8
MESH_269_F0
 10
97.5178
 20
-44.9163
 30
-67.1004
 70
192
 0
VERTEX
 8
MESH_269_F0
 10
93.8658
 20
-44.9163
 30
-70.6892
 70
192
 0
VERTEX
 8
MESH_269_F0
 10
0
 20
0
 30
0
 70
128
 71
8
 72
2
 73
1
 74
1
 0
VERTEX
 8
MESH_269_F0
 10
0
 20
0
 30
0
 70
128
 71
3
 72
2
 73
8
 74
8
 0
VERTEX
 8
MESH_269_F0
 10
0
 20
0
 30
0
 70
128
 71
4
 72
3
 73
7
 74
7
 0
VERTEX
 8
MESH_269_F0
 10
0
 20
0
 30
0
 70
128
 71
5
 72
4
 73
6
 74
6
 0
VERTEX
 8
MESH_269_F0
 10
0
 20
0
 30
0
 70
128
 71
4
 72
7
 73
6
 74
6
 0
VERTEX
 8
MESH_269_F0
 10
0
 20
0
 30
0
 70
128
 71
3
 72
8
 73
7
 74
7
 0
SEQEND
 0
POLYLINE
 8
MESH_268_F0
 66
1
 10
0.0
 20
0.0
 30
0.0
 70
64
 71
10
 72
9
 0
VERTEX
 8
MESH_268_F0
 10
95.9857
 20
-51.9846
 30
-62.2468
 70
192
 0
VERTEX
 8
MESH_268_F0
 10
94.981
 20
-50.981
 30
-67.1418
 70
192
 0
VERTEX
 8
MESH_268_F0
 10
92.4013
 20
-48.4013
 30
-70.7011
 70
192
 0
VERTEX
 8
MESH_268_F0
 10
88.9163
 20
-44.9163
 30
-72
 70
192
 0
VERTEX
 8
MESH_268_F0
 10
93.8658
 20
-44.9163
 30
-70.6892
 70
192
 0
VERTEX
 8
MESH_268_F0
 10
97.5178
 20
-44.9163
 30
-67.1004
 70
192
 0
VERTEX
 8
MESH_268_F0
 10
98.9147
 20
-44.9163
 30
-62.1745
 70
192
 0
VERTEX
 8
MESH_268_F0
 10
98.5735
 20
-47.5033
 30
-62.2137
 70
192
 0
VERTEX
 8
MESH_268_F0
 10
97.5744
 20
-49.9142
 30
-62.2384
 70
192
 0
VERTEX
 8
MESH_268_F0
 10
96.4163
 20
-49.9163
 30
-66.3301
 70
192
 0
VERTEX
 8
MESH_268_F0
 10
0
 20
0
 30
0
 70
128
 71
10
 72
1
 73
9
 74
9
 0
VERTEX
 8
MESH_268_F0
 10
0
 20
0
 30
0
 70
128
 71
6
 72
10
 73
8
 74
8
 0
VERTEX
 8
MESH_268_F0
 10
0
 20
0
 30
0
 70
128
 71
6
 72
8
 73
7
 74
7
 0
VERTEX
 8
MESH_268_F0
 10
0
 20
0
 30
0
 70
128
 71
10
 72
2
 73
1
 74
1
 0
VERTEX
 8
MESH_268_F0
 10
0
 20
0
 30
0
 70
128
 71
3
 72
2
 73
10
 74
10
 0
VERTEX
 8
MESH_268_F0
 10
0
 20
0
 30
0
 70
128
 71
5
 72
3
 73
6
 74
6
 0
VERTEX
 8
MESH_268_F0
 10
0
 20
0
 30
0
 70
128
 71
3
 72
10
 73
6
 74
6
 0
VERTEX
 8
MESH_268_F0
 10
0
 20
0
 30
0
 70
128
 71
5
 72
4
 73
3
 74
3
 0
VERTEX
 8
MESH_268_F0
 10
0
 20
0
 30
0
 70
128
 71
10
 72
9
 73
8
 74
8
 0
SEQEND
 0
POLYLINE
 8
MESH_267_F0
 66
1
 10
0.0
 20
0.0
 30
0.0
 70
64
 71
12
 72
10
 0
VERTEX
 8
MESH_267_F0
 10
88.9163
 20
-54.9147
 30
-62.1745
 70
192
 0
VERTEX
 8
MESH_267_F0
 10
91.5038
 20
-54.5733
 30
-62.2137
 70
192
 0
VERTEX
 8
MESH_267_F0
 10
93.9151
 20
-53.5739
 30
-62.2384
 70
192
 0
VERTEX
 8
MESH_267_F0
 10
95.9857
 20
-51.9846
 30
-62.2468
 70
192
 0
VERTEX
 8
MESH_267_F0
 10
97.5744
 20
-49.9142
 30
-62.2384
 70
192
 0
VERTEX
 8
MESH_267_F0
 10
98.5735
 20
-47.5033
 30
-62.2137
 70
192
 0
VERTEX
 8
MESH_267_F0
 10
98.9147
 20
-44.9163
 30
-62.1745
 70
192
 0
VERTEX
 8
MESH_267_F0
 10
100
 20
-46.0015
 30
0
 70
192
 0
VERTEX
 8
MESH_267_F0
 10
99.1146
 20
-50.1154
 30
0
 70
192
 0
VERTEX
 8
MESH_267_F0
 10
97.0717
 20
-53.0717
 30
0
 70
192
 0
VERTEX
 8
MESH_267_F0
 10
94.1154
 20
-55.1146
 30
0
 70
192
 0
VERTEX
 8
MESH_267_F0
 10
90.0015
 20
-56
 30
0
 70
192
 0
VERTEX
 8
MESH_267_F0
 10
0
 20
0
 30
0
 70
128
 71
12
 72
2
 73
1
 74
1
 0
VERTEX
 8
MESH_267_F0
 10
0
 20
0
 30
0
 70
128
 71
11
 72
2
 73
12
 74
12
 0
VERTEX
 8
MESH_267_F0
 10
0
 20
0
 30
0
 70
128
 71
3
 72
2
 73
11
 74
11
 0
VERTEX
 8
MESH_267_F0
 10
0
 20
0
 30
0
 70
128
 71
4
 72
3
 73
10
 74
10
 0
VERTEX
 8
MESH_267_F0
 10
0
 20
0
 30
0
 70
128
 71
4
 72
10
 73
5
 74
5
 0
VERTEX
 8
MESH_267_F0
 10
0
 20
0
 30
0
 70
128
 71
10
 72
9
 73
5
 74
5
 0
VERTEX
 8
MESH_267_F0
 10
0
 20
0
 30
0
 70
128
 71
9
 72
6
 73
5
 74
5
 0
VERTEX
 8
MESH_267_F0
 10
0
 20
0
 30
0
 70
128
 71
8
 72
6
 73
9
 74
9
 0
VERTEX
 8
MESH_267_F0
 10
0
 20
0
 30
0
 70
128
 71
7
 72
6
 73
8
 74
8
 0
VERTEX
 8
MESH_267_F0
 10
0
 20
0
 30
0
 70
128
 71
3
 72
11
 73
10
 74
10
 0
SEQEND
 0
POLYLINE
 8
MESH_266_F0
 66
1
 10
0.0
 20
0.0
 30
0.0
 70
64
 71
4
 72
2
 0
VERTEX
 8
MESH_266_F0
 10
98.9147
 20
-44.9163
 30
-62.1745
 70
192
 0
VERTEX
 8
MESH_266_F0
 10
98.9147
 20
44.9163
 30
-62.1745
 70
192
 0
VERTEX
 8
MESH_266_F0
 10
100
 20
46.0015
 30
0
 70
192
 0
VERTEX
 8
MESH_266_F0
 10
100
 20
-46.0015
 30
0
 70
192
 0
VERTEX
 8
MESH_266_F0
 10
0
 20
0
 30
0
 70
128
 71
4
 72
2
 73
1
 74
1
 0
VERTEX
 8
MESH_266_F0
 10
0
 20
0
 30
0
 70
128
 71
3
 72
2
 73
4
 74
4
 0
SEQEND
 0
POLYLINE
 8
MESH_265_F0
 66
1
 10
0.0
 20
0.0
 30
0.0
 70
64
 71
12
 72
10
 0
VERTEX
 8
MESH_265_F0
 10
98.9147
 20
44.9163
 30
-62.1745
 70
192
 0
VERTEX
 8
MESH_265_F0
 10
98.5734
 20
47.5036
 30
-62.2137
 70
192
 0
VERTEX
 8
MESH_265_F0
 10
97.5742
 20
49.9146
 30
-62.2384
 70
192
 0
VERTEX
 8
MESH_265_F0
 10
95.9852
 20
51.9852
 30
-62.2468
 70
192
 0
VERTEX
 8
MESH_265_F0
 10
93.9146
 20
53.5742
 30
-62.2384
 70
192
 0
VERTEX
 8
MESH_265_F0
 10
91.5036
 20
54.5734
 30
-62.2137
 70
192
 0
VERTEX
 8
MESH_265_F0
 10
88.9163
 20
54.9147
 30
-62.1745
 70
192
 0
VERTEX
 8
MESH_265_F0
 10
90.0015
 20
56
 30
0
 70
192
 0
VERTEX
 8
MESH_265_F0
 10
94.1154
 20
55.1146
 30
0
 70
192
 0
VERTEX
 8
MESH_265_F0
 10
97.0717
 20
53.0717
 30
0
 70
192
 0
VERTEX
 8
MESH_265_F0
 10
99.1146
 20
50.1154
 30
0
 70
192
 0
VERTEX
 8
MESH_265_F0
 10
100
 20
46.0015
 30
0
 70
192
 0
VERTEX
 8
MESH_265_F0
 10
0
 20
0
 30
0
 70
128
 71
12
 72
2
 73
1
 74
1
 0
VERTEX
 8
MESH_265_F0
 10
0
 20
0
 30
0
 70
128
 71
11
 72
2
 73
12
 74
12
 0
VERTEX
 8
MESH_265_F0
 10
0
 20
0
 30
0
 70
128
 71
3
 72
2
 73
11
 74
11
 0
VERTEX
 8
MESH_265_F0
 10
0
 20
0
 30
0
 70
128
 71
4
 72
3
 73
10
 74
10
 0
VERTEX
 8
MESH_265_F0
 10
0
 20
0
 30
0
 70
128
 71
4
 72
10
 73
5
 74
5
 0
VERTEX
 8
MESH_265_F0
 10
0
 20
0
 30
0
 70
128
 71
10
 72
9
 73
5
 74
5
 0
VERTEX
 8
MESH_265_F0
 10
0
 20
0
 30
0
 70
128
 71
9
 72
6
 73
5
 74
5
 0
VERTEX
 8
MESH_265_F0
 10
0
 20
0
 30
0
 70
128
 71
8
 72
6
 73
9
 74
9
 0
VERTEX
 8
MESH_265_F0
 10
0
 20
0
 30
0
 70
128
 71
7
 72
6
 73
8
 74
8
 0
VERTEX
 8
MESH_265_F0
 10
0
 20
0
 30
0
 70
128
 71
3
 72
11
 73
10
 74
10
 0
SEQEND
 0
POLYLINE
 8
MESH_264_F0
 66
1
 10
0.0
 20
0.0
 30
0.0
 70
64
 71
4
 72
2
 0
VERTEX
 8
MESH_264_F0
 10
88.9163
 20
54.9147
 30
-62.1745
 70
192
 0
VERTEX
 8
MESH_264_F0
 10
-88.9163
 20
54.9147
 30
-62.1745
 70
192
 0
VERTEX
 8
MESH_264_F0
 10
-90.0015
 20
56
 30
0
 70
192
 0
VERTEX
 8
MESH_264_F0
 10
90.0015
 20
56
 30
0
 70
192
 0
VERTEX
 8
MESH_264_F0
 10
0
 20
0
 30
0
 70
128
 71
4
 72
2
 73
1
 74
1
 0
VERTEX
 8
MESH_264_F0
 10
0
 20
0
 30
0
 70
128
 71
3
 72
2
 73
4
 74
4
 0
SEQEND
 0
POLYLINE
 8
MESH_263_F0
 66
1
 10
0.0
 20
0.0
 30
0.0
 70
64
 71
12
 72
10
 0
VERTEX
 8
MESH_263_F0
 10
-88.9163
 20
54.9147
 30
-62.1745
 70
192
 0
VERTEX
 8
MESH_263_F0
 10
-91.5038
 20
54.5733
 30
-62.2137
 70
192
 0
VERTEX
 8
MESH_263_F0
 10
-93.9151
 20
53.5739
 30
-62.2384
 70
192
 0
VERTEX
 8
MESH_263_F0
 10
-95.9857
 20
51.9846
 30
-62.2468
 70
192
 0
VERTEX
 8
MESH_263_F0
 10
-97.5744
 20
49.9142
 30
-62.2384
 70
192
 0
VERTEX
 8
MESH_263_F0
 10
-98.5735
 20
47.5033
 30
-62.2137
 70
192
 0
VERTEX
 8
MESH_263_F0
 10
-98.9147
 20
44.9163
 30
-62.1745
 70
192
 0
VERTEX
 8
MESH_263_F0
 10
-100
 20
46.0015
 30
0
 70
192
 0
VERTEX
 8
MESH_263_F0
 10
-99.1146
 20
50.1154
 30
0
 70
192
 0
VERTEX
 8
MESH_263_F0
 10
-97.0717
 20
53.0717
 30
0
 70
192
 0
VERTEX
 8
MESH_263_F0
 10
-94.1154
 20
55.1146
 30
0
 70
192
 0
VERTEX
 8
MESH_263_F0
 10
-90.0015
 20
56
 30
0
 70
192
 0
VERTEX
 8
MESH_263_F0
 10
0
 20
0
 30
0
 70
128
 71
12
 72
2
 73
1
 74
1
 0
VERTEX
 8
MESH_263_F0
 10
0
 20
0
 30
0
 70
128
 71
11
 72
2
 73
12
 74
12
 0
VERTEX
 8
MESH_263_F0
 10
0
 20
0
 30
0
 70
128
 71
3
 72
2
 73
11
 74
11
 0
VERTEX
 8
MESH_263_F0
 10
0
 20
0
 30
0
 70
128
 71
4
 72
3
 73
10
 74
10
 0
VERTEX
 8
MESH_263_F0
 10
0
 20
0
 30
0
 70
128
 71
4
 72
10
 73
5
 74
5
 0
VERTEX
 8
MESH_263_F0
 10
0
 20
0
 30
0
 70
128
 71
10
 72
9
 73
5
 74
5
 0
VERTEX
 8
MESH_263_F0
 10
0
 20
0
 30
0
 70
128
 71
9
 72
6
 73
5
 74
5
 0
VERTEX
 8
MESH_263_F0
 10
0
 20
0
 30
0
 70
128
 71
8
 72
6
 73
9
 74
9
 0
VERTEX
 8
MESH_263_F0
 10
0
 20
0
 30
0
 70
128
 71
7
 72
6
 73
8
 74
8
 0
VERTEX
 8
MESH_263_F0
 10
0
 20
0
 30
0
 70
128
 71
3
 72
11
 73
10
 74
10
 0
SEQEND
 0
POLYLINE
 8
MESH_262_F0
 66
1
 10
0.0
 20
0.0
 30
0.0
 70
64
 71
4
 72
2
 0
VERTEX
 8
MESH_262_F0
 10
-98.9147
 20
44.9163
 30
-62.1745
 70
192
 0
VERTEX
 8
MESH_262_F0
 10
-98.9147
 20
-44.9163
 30
-62.1745
 70
192
 0
VERTEX
 8
MESH_262_F0
 10
-100
 20
-46.0015
 30
0
 70
192
 0
VERTEX
 8
MESH_262_F0
 10
-100
 20
46.0015
 30
0
 70
192
 0
VERTEX
 8
MESH_262_F0
 10
0
 20
0
 30
0
 70
128
 71
1
 72
3
 73
2
 74
2
 0
VERTEX
 8
MESH_262_F0
 10
0
 20
0
 30
0
 70
128
 71
4
 72
3
 73
1
 74
1
 0
SEQEND
 0
POLYLINE
 8
MESH_261_F0
 66
1
 10
0.0
 20
0.0
 30
0.0
 70
64
 71
12
 72
10
 0
VERTEX
 8
MESH_261_F0
 10
-98.9147
 20
-44.9163
 30
-62.1745
 70
192
 0
VERTEX
 8
MESH_261_F0
 10
-98.5734
 20
-47.5036
 30
-62.2137
 70
192
 0
VERTEX
 8
MESH_261_F0
 10
-97.5742
 20
-49.9146
 30
-62.2384
 70
192
 0
VERTEX
 8
MESH_261_F0
 10
-95.9852
 20
-51.9852
 30
-62.2468
 70
192
 0
VERTEX
 8
MESH_261_F0
 10
-93.9146
 20
-53.5742
 30
-62.2384
 70
192
 0
VERTEX
 8
MESH_261_F0
 10
-91.5036
 20
-54.5734
 30
-62.2137
 70
192
 0
VERTEX
 8
MESH_261_F0
 10
-88.9163
 20
-54.9147
 30
-62.1745
 70
192
 0
VERTEX
 8
MESH_261_F0
 10
-90.0015
 20
-56
 30
0
 70
192
 0
VERTEX
 8
MESH_261_F0
 10
-94.1154
 20
-55.1146
 30
0
 70
192
 0
VERTEX
 8
MESH_261_F0
 10
-97.0717
 20
-53.0717
 30
0
 70
192
 0
VERTEX
 8
MESH_261_F0
 10
-99.1146
 20
-50.1154
 30
0
 70
192
 0
VERTEX
 8
MESH_261_F0
 10
-100
 20
-46.0015
 30
0
 70
192
 0
VERTEX
 8
MESH_261_F0
 10
0
 20
0
 30
0
 70
128
 71
12
 72
2
 73
1
 74
1
 0
VERTEX
 8
MESH_261_F0
 10
0
 20
0
 30
0
 70
128
 71
11
 72
2
 73
12
 74
12
 0
VERTEX
 8
MESH_261_F0
 10
0
 20
0
 30
0
 70
128
 71
3
 72
2
 73
11
 74
11
 0
VERTEX
 8
MESH_261_F0
 10
0
 20
0
 30
0
 70
128
 71
4
 72
3
 73
10
 74
10
 0
VERTEX
 8
MESH_261_F0
 10
0
 20
0
 30
0
 70
128
 71
4
 72
10
 73
5
 74
5
 0
VERTEX
 8
MESH_261_F0
 10
0
 20
0
 30
0
 70
128
 71
10
 72
9
 73
5
 74
5
 0
VERTEX
 8
MESH_261_F0
 10
0
 20
0
 30
0
 70
128
 71
9
 72
6
 73
5
 74
5
 0
VERTEX
 8
MESH_261_F0
 10
0
 20
0
 30
0
 70
128
 71
8
 72
6
 73
9
 74
9
 0
VERTEX
 8
MESH_261_F0
 10
0
 20
0
 30
0
 70
128
 71
7
 72
6
 73
8
 74
8
 0
VERTEX
 8
MESH_261_F0
 10
0
 20
0
 30
0
 70
128
 71
3
 72
11
 73
10
 74
10
 0
SEQEND
 0
POLYLINE
 8
MESH_260_F0
 66
1
 10
0.0
 20
0.0
 30
0.0
 70
64
 71
4
 72
2
 0
VERTEX
 8
MESH_260_F0
 10
-88.9163
 20
-54.9147
 30
-62.1745
 70
192
 0
VERTEX
 8
MESH_260_F0
 10
88.9163
 20
-54.9147
 30
-62.1745
 70
192
 0
VERTEX
 8
MESH_260_F0
 10
90.0015
 20
-56
 30
0
 70
192
 0
VERTEX
 8
MESH_260_F0
 10
-90.0015
 20
-56
 30
0
 70
192
 0
VERTEX
 8
MESH_260_F0
 10
0
 20
0
 30
0
 70
128
 71
4
 72
2
 73
1
 74
1
 0
VERTEX
 8
MESH_260_F0
 10
0
 20
0
 30
0
 70
128
 71
3
 72
2
 73
4
 74
4
 0
SEQEND
 0
POLYLINE
 8
MESH_259_F0
 66
1
 10
0.0
 20
0.0
 30
0.0
 70
64
 71
40
 72
40
 0
VERTEX
 8
MESH_259_F0
 10
90.0015
 20
-56
 30
0
 70
192
 0
VERTEX
 8
MESH_259_F0
 10
94.1154
 20
-55.1146
 30
0
 70
192
 0
VERTEX
 8
MESH_259_F0
 10
97.0717
 20
-53.0717
 30
0
 70
192
 0
VERTEX
 8
MESH_259_F0
 10
99.1146
 20
-50.1154
 30
0
 70
192
 0
VERTEX
 8
MESH_259_F0
 10
100
 20
-46.0015
 30
0
 70
192
 0
VERTEX
 8
MESH_259_F0
 10
100
 20
46.0015
 30
0
 70
192
 0
VERTEX
 8
MESH_259_F0
 10
99.1146
 20
50.1154
 30
0
 70
192
 0
VERTEX
 8
MESH_259_F0
 10
97.0717
 20
53.0717
 30
0
 70
192
 0
VERTEX
 8
MESH_259_F0
 10
94.1154
 20
55.1146
 30
0
 70
192
 0
VERTEX
 8
MESH_259_F0
 10
90.0015
 20
56
 30
0
 70
192
 0
VERTEX
 8
MESH_259_F0
 10
-90.0015
 20
56
 30
0
 70
192
 0
VERTEX
 8
MESH_259_F0
 10
-94.1154
 20
55.1146
 30
0
 70
192
 0
VERTEX
 8
MESH_259_F0
 10
-97.0717
 20
53.0717
 30
0
 70
192
 0
VERTEX
 8
MESH_259_F0
 10
-99.1146
 20
50.1154
 30
0
 70
192
 0
VERTEX
 8
MESH_259_F0
 10
-100
 20
46.0015
 30
0
 70
192
 0
VERTEX
 8
MESH_259_F0
 10
-100
 20
-46.0015
 30
0
 70
192
 0
VERTEX
 8
MESH_259_F0
 10
-99.1146
 20
-50.1154
 30
0
 70
192
 0
VERTEX
 8
MESH_259_F0
 10
-97.0717
 20
-53.0717
 30
0
 70
192
 0
VERTEX
 8
MESH_259_F0
 10
-94.1154
 20
-55.1146
 30
0
 70
192
 0
VERTEX
 8
MESH_259_F0
 10
-90.0015
 20
-56
 30
0
 70
192
 0
VERTEX
 8
MESH_259_F0
 10
-89.9923
 20
-54.491
 30
0
 70
192
 0
VERTEX
 8
MESH_259_F0
 10
-93.245
 20
-53.8445
 30
0
 70
192
 0
VERTEX
 8
MESH_259_F0
 10
-96.0022
 20
-52.0022
 30
0
 70
192
 0
VERTEX
 8
MESH_259_F0
 10
-97.8445
 20
-49.245
 30
0
 70
192
 0
VERTEX
 8
MESH_259_F0
 10
-98.491
 20
-45.9923
 30
0
 70
192
 0
VERTEX
 8
MESH_259_F0
 10
-98.491
 20
45.9923
 30
0
 70
192
 0
VERTEX
 8
MESH_259_F0
 10
-97.8445
 20
49.245
 30
0
 70
192
 0
VERTEX
 8
MESH_259_F0
 10
-96.0022
 20
52.0022
 30
0
 70
192
 0
VERTEX
 8
MESH_259_F0
 10
-93.245
 20
53.8445
 30
0
 70
192
 0
VERTEX
 8
MESH_259_F0
 10
-89.9923
 20
54.491
 30
0
 70
192
 0
VERTEX
 8
MESH_259_F0
 10
89.9923
 20
54.491
 30
0
 70
192
 0
VERTEX
 8
MESH_259_F0
 10
93.245
 20
53.8445
 30
0
 70
192
 0
VERTEX
 8
MESH_259_F0
 10
96.0022
 20
52.0022
 30
0
 70
192
 0
VERTEX
 8
MESH_259_F0
 10
97.8445
 20
49.245
 30
0
 70
192
 0
VERTEX
 8
MESH_259_F0
 10
98.491
 20
45.9923
 30
0
 70
192
 0
VERTEX
 8
MESH_259_F0
 10
98.491
 20
-45.9923
 30
0
 70
192
 0
VERTEX
 8
MESH_259_F0
 10
97.8445
 20
-49.245
 30
0
 70
192
 0
VERTEX
 8
MESH_259_F0
 10
96.0022
 20
-52.0022
 30
0
 70
192
 0
VERTEX
 8
MESH_259_F0
 10
93.245
 20
-53.8445
 30
0
 70
192
 0
VERTEX
 8
MESH_259_F0
 10
89.9923
 20
-54.491
 30
0
 70
192
 0
VERTEX
 8
MESH_259_F0
 10
0
 20
0
 30
0
 70
128
 71
5
 72
36
 73
35
 74
35
 0
VERTEX
 8
MESH_259_F0
 10
0
 20
0
 30
0
 70
128
 71
5
 72
35
 73
6
 74
6
 0
VERTEX
 8
MESH_259_F0
 10
0
 20
0
 30
0
 70
128
 71
35
 72
34
 73
6
 74
6
 0
VERTEX
 8
MESH_259_F0
 10
0
 20
0
 30
0
 70
128
 71
34
 72
7
 73
6
 74
6
 0
VERTEX
 8
MESH_259_F0
 10
0
 20
0
 30
0
 70
128
 71
33
 72
7
 73
34
 74
34
 0
VERTEX
 8
MESH_259_F0
 10
0
 20
0
 30
0
 70
128
 71
8
 72
7
 73
33
 74
33
 0
VERTEX
 8
MESH_259_F0
 10
0
 20
0
 30
0
 70
128
 71
9
 72
8
 73
32
 74
32
 0
VERTEX
 8
MESH_259_F0
 10
0
 20
0
 30
0
 70
128
 71
10
 72
9
 73
31
 74
31
 0
VERTEX
 8
MESH_259_F0
 10
0
 20
0
 30
0
 70
128
 71
10
 72
31
 73
11
 74
11
 0
VERTEX
 8
MESH_259_F0
 10
0
 20
0
 30
0
 70
128
 71
31
 72
30
 73
11
 74
11
 0
VERTEX
 8
MESH_259_F0
 10
0
 20
0
 30
0
 70
128
 71
30
 72
12
 73
11
 74
11
 0
VERTEX
 8
MESH_259_F0
 10
0
 20
0
 30
0
 70
128
 71
29
 72
12
 73
30
 74
30
 0
VERTEX
 8
MESH_259_F0
 10
0
 20
0
 30
0
 70
128
 71
13
 72
12
 73
29
 74
29
 0
VERTEX
 8
MESH_259_F0
 10
0
 20
0
 30
0
 70
128
 71
14
 72
13
 73
28
 74
28
 0
VERTEX
 8
MESH_259_F0
 10
0
 20
0
 30
0
 70
128
 71
15
 72
14
 73
27
 74
27
 0
VERTEX
 8
MESH_259_F0
 10
0
 20
0
 30
0
 70
128
 71
16
 72
15
 73
26
 74
26
 0
VERTEX
 8
MESH_259_F0
 10
0
 20
0
 30
0
 70
128
 71
24
 72
16
 73
25
 74
25
 0
VERTEX
 8
MESH_259_F0
 10
0
 20
0
 30
0
 70
128
 71
16
 72
26
 73
25
 74
25
 0
VERTEX
 8
MESH_259_F0
 10
0
 20
0
 30
0
 70
128
 71
4
 72
37
 73
5
 74
5
 0
VERTEX
 8
MESH_259_F0
 10
0
 20
0
 30
0
 70
128
 71
37
 72
36
 73
5
 74
5
 0
VERTEX
 8
MESH_259_F0
 10
0
 20
0
 30
0
 70
128
 71
3
 72
38
 73
4
 74
4
 0
VERTEX
 8
MESH_259_F0
 10
0
 20
0
 30
0
 70
128
 71
38
 72
37
 73
4
 74
4
 0
VERTEX
 8
MESH_259_F0
 10
0
 20
0
 30
0
 70
128
 71
24
 72
17
 73
16
 74
16
 0
VERTEX
 8
MESH_259_F0
 10
0
 20
0
 30
0
 70
128
 71
23
 72
17
 73
24
 74
24
 0
VERTEX
 8
MESH_259_F0
 10
0
 20
0
 30
0
 70
128
 71
18
 72
17
 73
23
 74
23
 0
VERTEX
 8
MESH_259_F0
 10
0
 20
0
 30
0
 70
128
 71
19
 72
18
 73
22
 74
22
 0
VERTEX
 8
MESH_259_F0
 10
0
 20
0
 30
0
 70
128
 71
20
 72
19
 73
21
 74
21
 0
VERTEX
 8
MESH_259_F0
 10
0
 20
0
 30
0
 70
128
 71
20
 72
21
 73
1
 74
1
 0
VERTEX
 8
MESH_259_F0
 10
0
 20
0
 30
0
 70
128
 71
21
 72
40
 73
1
 74
1
 0
VERTEX
 8
MESH_259_F0
 10
0
 20
0
 30
0
 70
128
 71
40
 72
2
 73
1
 74
1
 0
VERTEX
 8
MESH_259_F0
 10
0
 20
0
 30
0
 70
128
 71
39
 72
2
 73
40
 74
40
 0
VERTEX
 8
MESH_259_F0
 10
0
 20
0
 30
0
 70
128
 71
3
 72
2
 73
39
 74
39
 0
VERTEX
 8
MESH_259_F0
 10
0
 20
0
 30
0
 70
128
 71
3
 72
39
 73
38
 74
38
 0
VERTEX
 8
MESH_259_F0
 10
0
 20
0
 30
0
 70
128
 71
19
 72
22
 73
21
 74
21
 0
VERTEX
 8
MESH_259_F0
 10
0
 20
0
 30
0
 70
128
 71
18
 72
23
 73
22
 74
22
 0
VERTEX
 8
MESH_259_F0
 10
0
 20
0
 30
0
 70
128
 71
15
 72
27
 73
26
 74
26
 0
VERTEX
 8
MESH_259_F0
 10
0
 20
0
 30
0
 70
128
 71
14
 72
28
 73
27
 74
27
 0
VERTEX
 8
MESH_259_F0
 10
0
 20
0
 30
0
 70
128
 71
13
 72
29
 73
28
 74
28
 0
VERTEX
 8
MESH_259_F0
 10
0
 20
0
 30
0
 70
128
 71
9
 72
32
 73
31
 74
31
 0
VERTEX
 8
MESH_259_F0
 10
0
 20
0
 30
0
 70
128
 71
8
 72
33
 73
32
 74
32
 0
SEQEND
 0
POLYLINE
 8
MESH_258_F0
 66
1
 10
0.0
 20
0.0
 30
0.0
 70
64
 71
18
 72
19
 0
VERTEX
 8
MESH_258_F0
 10
89.9923
 20
53.9911
 30
-0.4913
 70
192
 0
VERTEX
 8
MESH_258_F0
 10
93.0536
 20
53.3823
 30
-0.4886
 70
192
 0
VERTEX
 8
MESH_258_F0
 10
95.6485
 20
51.6485
 30
-0.4877
 70
192
 0
VERTEX
 8
MESH_258_F0
 10
97.3823
 20
49.0536
 30
-0.4886
 70
192
 0
VERTEX
 8
MESH_258_F0
 10
97.9911
 20
45.9923
 30
-0.4913
 70
192
 0
VERTEX
 8
MESH_258_F0
 10
98.061
 20
45.9923
 30
-0.245
 70
192
 0
VERTEX
 8
MESH_258_F0
 10
98.2436
 20
45.9923
 30
-0.0655
 70
192
 0
VERTEX
 8
MESH_258_F0
 10
98.491
 20
45.9923
 30
0
 70
192
 0
VERTEX
 8
MESH_258_F0
 10
97.8445
 20
49.245
 30
0
 70
192
 0
VERTEX
 8
MESH_258_F0
 10
96.0022
 20
52.0022
 30
0
 70
192
 0
VERTEX
 8
MESH_258_F0
 10
93.245
 20
53.8445
 30
0
 70
192
 0
VERTEX
 8
MESH_258_F0
 10
89.9923
 20
54.491
 30
0
 70
192
 0
VERTEX
 8
MESH_258_F0
 10
89.9923
 20
54.2436
 30
-0.0655
 70
192
 0
VERTEX
 8
MESH_258_F0
 10
89.9923
 20
54.061
 30
-0.245
 70
192
 0
VERTEX
 8
MESH_258_F0
 10
96.9746
 20
50.0347
 30
-0.2459
 70
192
 0
VERTEX
 8
MESH_258_F0
 10
94.0253
 20
52.98
 30
-0.2459
 70
192
 0
VERTEX
 8
MESH_258_F0
 10
97.1384
 20
50.1295
 30
-0.0622
 70
192
 0
VERTEX
 8
MESH_258_F0
 10
94.1199
 20
53.1439
 30
-0.0622
 70
192
 0
VERTEX
 8
MESH_258_F0
 10
0
 20
0
 30
0
 70
128
 71
14
 72
2
 73
1
 74
1
 0
VERTEX
 8
MESH_258_F0
 10
0
 20
0
 30
0
 70
128
 71
16
 72
2
 73
14
 74
14
 0
VERTEX
 8
MESH_258_F0
 10
0
 20
0
 30
0
 70
128
 71
18
 72
16
 73
13
 74
13
 0
VERTEX
 8
MESH_258_F0
 10
0
 20
0
 30
0
 70
128
 71
11
 72
18
 73
12
 74
12
 0
VERTEX
 8
MESH_258_F0
 10
0
 20
0
 30
0
 70
128
 71
18
 72
13
 73
12
 74
12
 0
VERTEX
 8
MESH_258_F0
 10
0
 20
0
 30
0
 70
128
 71
16
 72
3
 73
2
 74
2
 0
VERTEX
 8
MESH_258_F0
 10
0
 20
0
 30
0
 70
128
 71
15
 72
3
 73
16
 74
16
 0
VERTEX
 8
MESH_258_F0
 10
0
 20
0
 30
0
 70
128
 71
7
 72
15
 73
17
 74
17
 0
VERTEX
 8
MESH_258_F0
 10
0
 20
0
 30
0
 70
128
 71
8
 72
7
 73
9
 74
9
 0
VERTEX
 8
MESH_258_F0
 10
0
 20
0
 30
0
 70
128
 71
7
 72
17
 73
9
 74
9
 0
VERTEX
 8
MESH_258_F0
 10
0
 20
0
 30
0
 70
128
 71
17
 72
10
 73
9
 74
9
 0
VERTEX
 8
MESH_258_F0
 10
0
 20
0
 30
0
 70
128
 71
18
 72
10
 73
17
 74
17
 0
VERTEX
 8
MESH_258_F0
 10
0
 20
0
 30
0
 70
128
 71
18
 72
17
 73
15
 74
16
 0
VERTEX
 8
MESH_258_F0
 10
0
 20
0
 30
0
 70
128
 71
15
 72
4
 73
3
 74
3
 0
VERTEX
 8
MESH_258_F0
 10
0
 20
0
 30
0
 70
128
 71
6
 72
4
 73
15
 74
15
 0
VERTEX
 8
MESH_258_F0
 10
0
 20
0
 30
0
 70
128
 71
6
 72
15
 73
7
 74
7
 0
VERTEX
 8
MESH_258_F0
 10
0
 20
0
 30
0
 70
128
 71
6
 72
5
 73
4
 74
4
 0
VERTEX
 8
MESH_258_F0
 10
0
 20
0
 30
0
 70
128
 71
18
 72
11
 73
10
 74
10
 0
VERTEX
 8
MESH_258_F0
 10
0
 20
0
 30
0
 70
128
 71
16
 72
14
 73
13
 74
13
 0
SEQEND
 0
POLYLINE
 8
MESH_257_F0
 66
1
 10
0.0
 20
0.0
 30
0.0
 70
64
 71
8
 72
6
 0
VERTEX
 8
MESH_257_F0
 10
89.9923
 20
54.491
 30
0
 70
192
 0
VERTEX
 8
MESH_257_F0
 10
-89.9923
 20
54.491
 30
0
 70
192
 0
VERTEX
 8
MESH_257_F0
 10
-89.9923
 20
54.2436
 30
-0.0655
 70
192
 0
VERTEX
 8
MESH_257_F0
 10
-89.9923
 20
54.061
 30
-0.245
 70
192
 0
VERTEX
 8
MESH_257_F0
 10
-89.9923
 20
53.9911
 30
-0.4913
 70
192
 0
VERTEX
 8
MESH_257_F0
 10
89.9923
 20
53.9911
 30
-0.4913
 70
192
 0
VERTEX
 8
MESH_257_F0
 10
89.9923
 20
54.061
 30
-0.245
 70
192
 0
VERTEX
 8
MESH_257_F0
 10
89.9923
 20
54.2436
 30
-0.0655
 70
192
 0
VERTEX
 8
MESH_257_F0
 10
0
 20
0
 30
0
 70
128
 71
8
 72
2
 73
1
 74
1
 0
VERTEX
 8
MESH_257_F0
 10
0
 20
0
 30
0
 70
128
 71
3
 72
2
 73
8
 74
8
 0
VERTEX
 8
MESH_257_F0
 10
0
 20
0
 30
0
 70
128
 71
3
 72
8
 73
4
 74
4
 0
VERTEX
 8
MESH_257_F0
 10
0
 20
0
 30
0
 70
128
 71
8
 72
7
 73
4
 74
4
 0
VERTEX
 8
MESH_257_F0
 10
0
 20
0
 30
0
 70
128
 71
7
 72
6
 73
4
 74
4
 0
VERTEX
 8
MESH_257_F0
 10
0
 20
0
 30
0
 70
128
 71
6
 72
5
 73
4
 74
4
 0
SEQEND
 0
POLYLINE
 8
MESH_256_F0
 66
1
 10
0.0
 20
0.0
 30
0.0
 70
64
 71
18
 72
19
 0
VERTEX
 8
MESH_256_F0
 10
-89.9923
 20
54.491
 30
0
 70
192
 0
VERTEX
 8
MESH_256_F0
 10
-93.245
 20
53.8445
 30
0
 70
192
 0
VERTEX
 8
MESH_256_F0
 10
-96.0022
 20
52.0022
 30
0
 70
192
 0
VERTEX
 8
MESH_256_F0
 10
-97.8445
 20
49.245
 30
0
 70
192
 0
VERTEX
 8
MESH_256_F0
 10
-98.491
 20
45.9923
 30
0
 70
192
 0
VERTEX
 8
MESH_256_F0
 10
-98.2436
 20
45.9923
 30
-0.0655
 70
192
 0
VERTEX
 8
MESH_256_F0
 10
-98.061
 20
45.9923
 30
-0.245
 70
192
 0
VERTEX
 8
MESH_256_F0
 10
-97.9911
 20
45.9923
 30
-0.4913
 70
192
 0
VERTEX
 8
MESH_256_F0
 10
-97.3823
 20
49.0536
 30
-0.4886
 70
192
 0
VERTEX
 8
MESH_256_F0
 10
-95.6485
 20
51.6485
 30
-0.4877
 70
192
 0
VERTEX
 8
MESH_256_F0
 10
-93.0536
 20
53.3823
 30
-0.4886
 70
192
 0
VERTEX
 8
MESH_256_F0
 10
-89.9923
 20
53.9911
 30
-0.4913
 70
192
 0
VERTEX
 8
MESH_256_F0
 10
-89.9923
 20
54.061
 30
-0.245
 70
192
 0
VERTEX
 8
MESH_256_F0
 10
-89.9923
 20
54.2436
 30
-0.0655
 70
192
 0
VERTEX
 8
MESH_256_F0
 10
-97.1439
 20
50.1199
 30
-0.0622
 70
192
 0
VERTEX
 8
MESH_256_F0
 10
-94.1295
 20
53.1384
 30
-0.0622
 70
192
 0
VERTEX
 8
MESH_256_F0
 10
-96.98
 20
50.0253
 30
-0.2459
 70
192
 0
VERTEX
 8
MESH_256_F0
 10
-94.0347
 20
52.9746
 30
-0.2459
 70
192
 0
VERTEX
 8
MESH_256_F0
 10
0
 20
0
 30
0
 70
128
 71
14
 72
2
 73
1
 74
1
 0
VERTEX
 8
MESH_256_F0
 10
0
 20
0
 30
0
 70
128
 71
16
 72
2
 73
14
 74
14
 0
VERTEX
 8
MESH_256_F0
 10
0
 20
0
 30
0
 70
128
 71
17
 72
15
 73
16
 74
18
 0
VERTEX
 8
MESH_256_F0
 10
0
 20
0
 30
0
 70
128
 71
18
 72
10
 73
17
 74
17
 0
VERTEX
 8
MESH_256_F0
 10
0
 20
0
 30
0
 70
128
 71
10
 72
9
 73
17
 74
17
 0
VERTEX
 8
MESH_256_F0
 10
0
 20
0
 30
0
 70
128
 71
9
 72
7
 73
17
 74
17
 0
VERTEX
 8
MESH_256_F0
 10
0
 20
0
 30
0
 70
128
 71
7
 72
6
 73
17
 74
17
 0
VERTEX
 8
MESH_256_F0
 10
0
 20
0
 30
0
 70
128
 71
6
 72
15
 73
17
 74
17
 0
VERTEX
 8
MESH_256_F0
 10
0
 20
0
 30
0
 70
128
 71
5
 72
15
 73
6
 74
6
 0
VERTEX
 8
MESH_256_F0
 10
0
 20
0
 30
0
 70
128
 71
4
 72
15
 73
5
 74
5
 0
VERTEX
 8
MESH_256_F0
 10
0
 20
0
 30
0
 70
128
 71
3
 72
15
 73
4
 74
4
 0
VERTEX
 8
MESH_256_F0
 10
0
 20
0
 30
0
 70
128
 71
16
 72
15
 73
3
 74
3
 0
VERTEX
 8
MESH_256_F0
 10
0
 20
0
 30
0
 70
128
 71
16
 72
3
 73
2
 74
2
 0
VERTEX
 8
MESH_256_F0
 10
0
 20
0
 30
0
 70
128
 71
9
 72
8
 73
7
 74
7
 0
VERTEX
 8
MESH_256_F0
 10
0
 20
0
 30
0
 70
128
 71
18
 72
11
 73
10
 74
10
 0
VERTEX
 8
MESH_256_F0
 10
0
 20
0
 30
0
 70
128
 71
13
 72
11
 73
18
 74
18
 0
VERTEX
 8
MESH_256_F0
 10
0
 20
0
 30
0
 70
128
 71
13
 72
18
 73
14
 74
14
 0
VERTEX
 8
MESH_256_F0
 10
0
 20
0
 30
0
 70
128
 71
18
 72
16
 73
14
 74
14
 0
VERTEX
 8
MESH_256_F0
 10
0
 20
0
 30
0
 70
128
 71
13
 72
12
 73
11
 74
11
 0
SEQEND
 0
POLYLINE
 8
MESH_255_F0
 66
1
 10
0.0
 20
0.0
 30
0.0
 70
64
 71
12
 72
13
 0
VERTEX
 8
MESH_255_F0
 10
94.5714
 20
50.5714
 30
-62.1974
 70
192
 0
VERTEX
 8
MESH_255_F0
 10
92.9149
 20
51.8426
 30
-62.1907
 70
192
 0
VERTEX
 8
MESH_255_F0
 10
90.9861
 20
52.642
 30
-62.171
 70
192
 0
VERTEX
 8
MESH_255_F0
 10
88.9163
 20
52.915
 30
-62.1396
 70
192
 0
VERTEX
 8
MESH_255_F0
 10
88.9163
 20
51.7975
 30
-66.0803
 70
192
 0
VERTEX
 8
MESH_255_F0
 10
88.9163
 20
48.8759
 30
-68.9514
 70
192
 0
VERTEX
 8
MESH_255_F0
 10
88.9163
 20
44.9163
 30
-70
 70
192
 0
VERTEX
 8
MESH_255_F0
 10
91.7043
 20
47.7043
 30
-68.9609
 70
192
 0
VERTEX
 8
MESH_255_F0
 10
93.768
 20
49.768
 30
-66.1134
 70
192
 0
VERTEX
 8
MESH_255_F0
 10
92.3804
 20
51.8445
 30
-64
 70
192
 0
VERTEX
 8
MESH_255_F0
 10
92.3804
 20
48.9163
 30
-68
 70
192
 0
VERTEX
 8
MESH_255_F0
 10
90.9163
 20
51.8445
 30
-65.4641
 70
192
 0
VERTEX
 8
MESH_255_F0
 10
0
 20
0
 30
0
 70
128
 71
10
 72
1
 73
9
 74
9
 0
VERTEX
 8
MESH_255_F0
 10
0
 20
0
 30
0
 70
128
 71
4
 72
10
 73
12
 74
12
 0
VERTEX
 8
MESH_255_F0
 10
0
 20
0
 30
0
 70
128
 71
4
 72
12
 73
5
 74
5
 0
VERTEX
 8
MESH_255_F0
 10
0
 20
0
 30
0
 70
128
 71
12
 72
6
 73
5
 74
5
 0
VERTEX
 8
MESH_255_F0
 10
0
 20
0
 30
0
 70
128
 71
11
 72
6
 73
12
 74
12
 0
VERTEX
 8
MESH_255_F0
 10
0
 20
0
 30
0
 70
128
 71
8
 72
11
 73
9
 74
9
 0
VERTEX
 8
MESH_255_F0
 10
0
 20
0
 30
0
 70
128
 71
11
 72
12
 73
9
 74
9
 0
VERTEX
 8
MESH_255_F0
 10
0
 20
0
 30
0
 70
128
 71
12
 72
10
 73
9
 74
9
 0
VERTEX
 8
MESH_255_F0
 10
0
 20
0
 30
0
 70
128
 71
10
 72
2
 73
1
 74
1
 0
VERTEX
 8
MESH_255_F0
 10
0
 20
0
 30
0
 70
128
 71
3
 72
2
 73
10
 74
10
 0
VERTEX
 8
MESH_255_F0
 10
0
 20
0
 30
0
 70
128
 71
6
 72
8
 73
7
 74
7
 0
VERTEX
 8
MESH_255_F0
 10
0
 20
0
 30
0
 70
128
 71
11
 72
8
 73
6
 74
6
 0
VERTEX
 8
MESH_255_F0
 10
0
 20
0
 30
0
 70
128
 71
3
 72
10
 73
4
 74
4
 0
SEQEND
 0
POLYLINE
 8
MESH_254_F0
 66
1
 10
0.0
 20
0.0
 30
0.0
 70
64
 71
10
 72
9
 0
VERTEX
 8
MESH_254_F0
 10
94.5714
 20
50.5714
 30
-62.1974
 70
192
 0
VERTEX
 8
MESH_254_F0
 10
93.768
 20
49.768
 30
-66.1134
 70
192
 0
VERTEX
 8
MESH_254_F0
 10
91.7043
 20
47.7043
 30
-68.9609
 70
192
 0
VERTEX
 8
MESH_254_F0
 10
88.9163
 20
44.9163
 30
-70
 70
192
 0
VERTEX
 8
MESH_254_F0
 10
92.8759
 20
44.9163
 30
-68.9514
 70
192
 0
VERTEX
 8
MESH_254_F0
 10
95.7975
 20
44.9163
 30
-66.0803
 70
192
 0
VERTEX
 8
MESH_254_F0
 10
96.915
 20
44.9163
 30
-62.1396
 70
192
 0
VERTEX
 8
MESH_254_F0
 10
96.642
 20
46.9861
 30
-62.171
 70
192
 0
VERTEX
 8
MESH_254_F0
 10
95.8426
 20
48.9149
 30
-62.1907
 70
192
 0
VERTEX
 8
MESH_254_F0
 10
94.9163
 20
48.9163
 30
-65.4641
 70
192
 0
VERTEX
 8
MESH_254_F0
 10
0
 20
0
 30
0
 70
128
 71
10
 72
1
 73
9
 74
9
 0
VERTEX
 8
MESH_254_F0
 10
0
 20
0
 30
0
 70
128
 71
6
 72
10
 73
8
 74
8
 0
VERTEX
 8
MESH_254_F0
 10
0
 20
0
 30
0
 70
128
 71
6
 72
8
 73
7
 74
7
 0
VERTEX
 8
MESH_254_F0
 10
0
 20
0
 30
0
 70
128
 71
10
 72
2
 73
1
 74
1
 0
VERTEX
 8
MESH_254_F0
 10
0
 20
0
 30
0
 70
128
 71
3
 72
2
 73
10
 74
10
 0
VERTEX
 8
MESH_254_F0
 10
0
 20
0
 30
0
 70
128
 71
5
 72
3
 73
6
 74
6
 0
VERTEX
 8
MESH_254_F0
 10
0
 20
0
 30
0
 70
128
 71
3
 72
10
 73
6
 74
6
 0
VERTEX
 8
MESH_254_F0
 10
0
 20
0
 30
0
 70
128
 71
5
 72
4
 73
3
 74
3
 0
VERTEX
 8
MESH_254_F0
 10
0
 20
0
 30
0
 70
128
 71
10
 72
9
 73
8
 74
8
 0
SEQEND
 0
POLYLINE
 8
MESH_253_F0
 66
1
 10
0.0
 20
0.0
 30
0.0
 70
64
 71
8
 72
6
 0
VERTEX
 8
MESH_253_F0
 10
96.915
 20
44.9163
 30
-62.1396
 70
192
 0
VERTEX
 8
MESH_253_F0
 10
95.7975
 20
44.9163
 30
-66.0803
 70
192
 0
VERTEX
 8
MESH_253_F0
 10
92.8759
 20
44.9163
 30
-68.9514
 70
192
 0
VERTEX
 8
MESH_253_F0
 10
88.9163
 20
44.9163
 30
-70
 70
192
 0
VERTEX
 8
MESH_253_F0
 10
88.9163
 20
-44.9163
 30
-70
 70
192
 0
VERTEX
 8
MESH_253_F0
 10
92.8759
 20
-44.9163
 30
-68.9514
 70
192
 0
VERTEX
 8
MESH_253_F0
 10
95.7975
 20
-44.9163
 30
-66.0803
 70
192
 0
VERTEX
 8
MESH_253_F0
 10
96.915
 20
-44.9163
 30
-62.1396
 70
192
 0
VERTEX
 8
MESH_253_F0
 10
0
 20
0
 30
0
 70
128
 71
7
 72
1
 73
8
 74
8
 0
VERTEX
 8
MESH_253_F0
 10
0
 20
0
 30
0
 70
128
 71
2
 72
1
 73
7
 74
7
 0
VERTEX
 8
MESH_253_F0
 10
0
 20
0
 30
0
 70
128
 71
3
 72
2
 73
6
 74
6
 0
VERTEX
 8
MESH_253_F0
 10
0
 20
0
 30
0
 70
128
 71
4
 72
3
 73
5
 74
5
 0
VERTEX
 8
MESH_253_F0
 10
0
 20
0
 30
0
 70
128
 71
3
 72
6
 73
5
 74
5
 0
VERTEX
 8
MESH_253_F0
 10
0
 20
0
 30
0
 70
128
 71
2
 72
7
 73
6
 74
6
 0
SEQEND
 0
POLYLINE
 8
MESH_252_F0
 66
1
 10
0.0
 20
0.0
 30
0.0
 70
64
 71
10
 72
9
 0
VERTEX
 8
MESH_252_F0
 10
94.5714
 20
-50.5714
 30
-62.1974
 70
192
 0
VERTEX
 8
MESH_252_F0
 10
95.8426
 20
-48.9149
 30
-62.1907
 70
192
 0
VERTEX
 8
MESH_252_F0
 10
96.642
 20
-46.9861
 30
-62.171
 70
192
 0
VERTEX
 8
MESH_252_F0
 10
96.915
 20
-44.9163
 30
-62.1396
 70
192
 0
VERTEX
 8
MESH_252_F0
 10
95.7975
 20
-44.9163
 30
-66.0803
 70
192
 0
VERTEX
 8
MESH_252_F0
 10
92.8759
 20
-44.9163
 30
-68.9514
 70
192
 0
VERTEX
 8
MESH_252_F0
 10
88.9163
 20
-44.9163
 30
-70
 70
192
 0
VERTEX
 8
MESH_252_F0
 10
91.7043
 20
-47.7043
 30
-68.9609
 70
192
 0
VERTEX
 8
MESH_252_F0
 10
93.768
 20
-49.768
 30
-66.1134
 70
192
 0
VERTEX
 8
MESH_252_F0
 10
94.9163
 20
-48.9163
 30
-65.4641
 70
192
 0
VERTEX
 8
MESH_252_F0
 10
0
 20
0
 30
0
 70
128
 71
10
 72
1
 73
9
 74
9
 0
VERTEX
 8
MESH_252_F0
 10
0
 20
0
 30
0
 70
128
 71
3
 72
10
 73
5
 74
5
 0
VERTEX
 8
MESH_252_F0
 10
0
 20
0
 30
0
 70
128
 71
3
 72
5
 73
4
 74
4
 0
VERTEX
 8
MESH_252_F0
 10
0
 20
0
 30
0
 70
128
 71
10
 72
2
 73
1
 74
1
 0
VERTEX
 8
MESH_252_F0
 10
0
 20
0
 30
0
 70
128
 71
3
 72
2
 73
10
 74
10
 0
VERTEX
 8
MESH_252_F0
 10
0
 20
0
 30
0
 70
128
 71
9
 72
5
 73
10
 74
10
 0
VERTEX
 8
MESH_252_F0
 10
0
 20
0
 30
0
 70
128
 71
6
 72
5
 73
9
 74
9
 0
VERTEX
 8
MESH_252_F0
 10
0
 20
0
 30
0
 70
128
 71
7
 72
6
 73
8
 74
8
 0
VERTEX
 8
MESH_252_F0
 10
0
 20
0
 30
0
 70
128
 71
6
 72
9
 73
8
 74
8
 0
SEQEND
 0
POLYLINE
 8
MESH_251_F0
 66
1
 10
0.0
 20
0.0
 30
0.0
 70
64
 71
12
 72
13
 0
VERTEX
 8
MESH_251_F0
 10
94.5714
 20
-50.5714
 30
-62.1974
 70
192
 0
VERTEX
 8
MESH_251_F0
 10
93.768
 20
-49.768
 30
-66.1134
 70
192
 0
VERTEX
 8
MESH_251_F0
 10
91.7043
 20
-47.7043
 30
-68.9609
 70
192
 0
VERTEX
 8
MESH_251_F0
 10
88.9163
 20
-44.9163
 30
-70
 70
192
 0
VERTEX
 8
MESH_251_F0
 10
88.9163
 20
-48.8759
 30
-68.9514
 70
192
 0
VERTEX
 8
MESH_251_F0
 10
88.9163
 20
-51.7975
 30
-66.0803
 70
192
 0
VERTEX
 8
MESH_251_F0
 10
88.9163
 20
-52.915
 30
-62.1396
 70
192
 0
VERTEX
 8
MESH_251_F0
 10
90.9861
 20
-52.642
 30
-62.171
 70
192
 0
VERTEX
 8
MESH_251_F0
 10
92.9149
 20
-51.8426
 30
-62.1907
 70
192
 0
VERTEX
 8
MESH_251_F0
 10
92.3804
 20
-51.8445
 30
-64
 70
192
 0
VERTEX
 8
MESH_251_F0
 10
90.9163
 20
-51.8445
 30
-65.4641
 70
192
 0
VERTEX
 8
MESH_251_F0
 10
92.3804
 20
-48.9163
 30
-68
 70
192
 0
VERTEX
 8
MESH_251_F0
 10
0
 20
0
 30
0
 70
128
 71
10
 72
1
 73
9
 74
9
 0
VERTEX
 8
MESH_251_F0
 10
0
 20
0
 30
0
 70
128
 71
11
 72
10
 73
8
 74
8
 0
VERTEX
 8
MESH_251_F0
 10
0
 20
0
 30
0
 70
128
 71
6
 72
11
 73
7
 74
7
 0
VERTEX
 8
MESH_251_F0
 10
0
 20
0
 30
0
 70
128
 71
11
 72
8
 73
7
 74
7
 0
VERTEX
 8
MESH_251_F0
 10
0
 20
0
 30
0
 70
128
 71
3
 72
5
 73
4
 74
4
 0
VERTEX
 8
MESH_251_F0
 10
0
 20
0
 30
0
 70
128
 71
12
 72
5
 73
3
 74
3
 0
VERTEX
 8
MESH_251_F0
 10
0
 20
0
 30
0
 70
128
 71
11
 72
12
 73
2
 74
2
 0
VERTEX
 8
MESH_251_F0
 10
0
 20
0
 30
0
 70
128
 71
11
 72
2
 73
10
 74
10
 0
VERTEX
 8
MESH_251_F0
 10
0
 20
0
 30
0
 70
128
 71
2
 72
1
 73
10
 74
10
 0
VERTEX
 8
MESH_251_F0
 10
0
 20
0
 30
0
 70
128
 71
12
 72
6
 73
5
 74
5
 0
VERTEX
 8
MESH_251_F0
 10
0
 20
0
 30
0
 70
128
 71
11
 72
6
 73
12
 74
12
 0
VERTEX
 8
MESH_251_F0
 10
0
 20
0
 30
0
 70
128
 71
10
 72
9
 73
8
 74
8
 0
VERTEX
 8
MESH_251_F0
 10
0
 20
0
 30
0
 70
128
 71
3
 72
2
 73
12
 74
12
 0
SEQEND
 0
POLYLINE
 8
MESH_250_F0
 66
1
 10
0.0
 20
0.0
 30
0.0
 70
64
 71
8
 72
6
 0
VERTEX
 8
MESH_250_F0
 10
88.9163
 20
-52.915
 30
-62.1396
 70
192
 0
VERTEX
 8
MESH_250_F0
 10
88.9163
 20
-51.7975
 30
-66.0803
 70
192
 0
VERTEX
 8
MESH_250_F0
 10
88.9163
 20
-48.8759
 30
-68.9514
 70
192
 0
VERTEX
 8
MESH_250_F0
 10
88.9163
 20
-44.9163
 30
-70
 70
192
 0
VERTEX
 8
MESH_250_F0
 10
-88.9163
 20
-44.9163
 30
-70
 70
192
 0
VERTEX
 8
MESH_250_F0
 10
-88.9163
 20
-48.8759
 30
-68.9514
 70
192
 0
VERTEX
 8
MESH_250_F0
 10
-88.9163
 20
-51.7975
 30
-66.0803
 70
192
 0
VERTEX
 8
MESH_250_F0
 10
-88.9163
 20
-52.915
 30
-62.1396
 70
192
 0
VERTEX
 8
MESH_250_F0
 10
0
 20
0
 30
0
 70
128
 71
7
 72
1
 73
8
 74
8
 0
VERTEX
 8
MESH_250_F0
 10
0
 20
0
 30
0
 70
128
 71
2
 72
1
 73
7
 74
7
 0
VERTEX
 8
MESH_250_F0
 10
0
 20
0
 30
0
 70
128
 71
3
 72
2
 73
6
 74
6
 0
VERTEX
 8
MESH_250_F0
 10
0
 20
0
 30
0
 70
128
 71
4
 72
3
 73
5
 74
5
 0
VERTEX
 8
MESH_250_F0
 10
0
 20
0
 30
0
 70
128
 71
3
 72
6
 73
5
 74
5
 0
VERTEX
 8
MESH_250_F0
 10
0
 20
0
 30
0
 70
128
 71
2
 72
7
 73
6
 74
6
 0
SEQEND
 0
POLYLINE
 8
MESH_249_F0
 66
1
 10
0.0
 20
0.0
 30
0.0
 70
64
 71
12
 72
13
 0
VERTEX
 8
MESH_249_F0
 10
-94.5714
 20
-50.5714
 30
-62.1974
 70
192
 0
VERTEX
 8
MESH_249_F0
 10
-92.9149
 20
-51.8426
 30
-62.1907
 70
192
 0
VERTEX
 8
MESH_249_F0
 10
-90.9861
 20
-52.642
 30
-62.171
 70
192
 0
VERTEX
 8
MESH_249_F0
 10
-88.9163
 20
-52.915
 30
-62.1396
 70
192
 0
VERTEX
 8
MESH_249_F0
 10
-88.9163
 20
-51.7975
 30
-66.0803
 70
192
 0
VERTEX
 8
MESH_249_F0
 10
-88.9163
 20
-48.8759
 30
-68.9514
 70
192
 0
VERTEX
 8
MESH_249_F0
 10
-88.9163
 20
-44.9163
 30
-70
 70
192
 0
VERTEX
 8
MESH_249_F0
 10
-91.7043
 20
-47.7043
 30
-68.9609
 70
192
 0
VERTEX
 8
MESH_249_F0
 10
-93.768
 20
-49.768
 30
-66.1134
 70
192
 0
VERTEX
 8
MESH_249_F0
 10
-92.3804
 20
-51.8445
 30
-64
 70
192
 0
VERTEX
 8
MESH_249_F0
 10
-92.3804
 20
-48.9163
 30
-68
 70
192
 0
VERTEX
 8
MESH_249_F0
 10
-90.9163
 20
-51.8445
 30
-65.4641
 70
192
 0
VERTEX
 8
MESH_249_F0
 10
0
 20
0
 30
0
 70
128
 71
10
 72
1
 73
9
 74
9
 0
VERTEX
 8
MESH_249_F0
 10
0
 20
0
 30
0
 70
128
 71
4
 72
10
 73
12
 74
12
 0
VERTEX
 8
MESH_249_F0
 10
0
 20
0
 30
0
 70
128
 71
4
 72
12
 73
5
 74
5
 0
VERTEX
 8
MESH_249_F0
 10
0
 20
0
 30
0
 70
128
 71
12
 72
6
 73
5
 74
5
 0
VERTEX
 8
MESH_249_F0
 10
0
 20
0
 30
0
 70
128
 71
11
 72
6
 73
12
 74
12
 0
VERTEX
 8
MESH_249_F0
 10
0
 20
0
 30
0
 70
128
 71
8
 72
11
 73
9
 74
9
 0
VERTEX
 8
MESH_249_F0
 10
0
 20
0
 30
0
 70
128
 71
11
 72
12
 73
9
 74
9
 0
VERTEX
 8
MESH_249_F0
 10
0
 20
0
 30
0
 70
128
 71
12
 72
10
 73
9
 74
9
 0
VERTEX
 8
MESH_249_F0
 10
0
 20
0
 30
0
 70
128
 71
6
 72
8
 73
7
 74
7
 0
VERTEX
 8
MESH_249_F0
 10
0
 20
0
 30
0
 70
128
 71
11
 72
8
 73
6
 74
6
 0
VERTEX
 8
MESH_249_F0
 10
0
 20
0
 30
0
 70
128
 71
10
 72
2
 73
1
 74
1
 0
VERTEX
 8
MESH_249_F0
 10
0
 20
0
 30
0
 70
128
 71
3
 72
2
 73
10
 74
10
 0
VERTEX
 8
MESH_249_F0
 10
0
 20
0
 30
0
 70
128
 71
3
 72
10
 73
4
 74
4
 0
SEQEND
 0
POLYLINE
 8
MESH_248_F0
 66
1
 10
0.0
 20
0.0
 30
0.0
 70
64
 71
10
 72
9
 0
VERTEX
 8
MESH_248_F0
 10
-94.5714
 20
-50.5714
 30
-62.1974
 70
192
 0
VERTEX
 8
MESH_248_F0
 10
-93.768
 20
-49.768
 30
-66.1134
 70
192
 0
VERTEX
 8
MESH_248_F0
 10
-91.7043
 20
-47.7043
 30
-68.9609
 70
192
 0
VERTEX
 8
MESH_248_F0
 10
-88.9163
 20
-44.9163
 30
-70
 70
192
 0
VERTEX
 8
MESH_248_F0
 10
-92.8759
 20
-44.9163
 30
-68.9514
 70
192
 0
VERTEX
 8
MESH_248_F0
 10
-95.7975
 20
-44.9163
 30
-66.0803
 70
192
 0
VERTEX
 8
MESH_248_F0
 10
-96.915
 20
-44.9163
 30
-62.1396
 70
192
 0
VERTEX
 8
MESH_248_F0
 10
-96.642
 20
-46.9861
 30
-62.171
 70
192
 0
VERTEX
 8
MESH_248_F0
 10
-95.8426
 20
-48.9149
 30
-62.1907
 70
192
 0
VERTEX
 8
MESH_248_F0
 10
-94.9163
 20
-48.9163
 30
-65.4641
 70
192
 0
VERTEX
 8
MESH_248_F0
 10
0
 20
0
 30
0
 70
128
 71
10
 72
1
 73
9
 74
9
 0
VERTEX
 8
MESH_248_F0
 10
0
 20
0
 30
0
 70
128
 71
6
 72
10
 73
8
 74
8
 0
VERTEX
 8
MESH_248_F0
 10
0
 20
0
 30
0
 70
128
 71
6
 72
8
 73
7
 74
7
 0
VERTEX
 8
MESH_248_F0
 10
0
 20
0
 30
0
 70
128
 71
10
 72
2
 73
1
 74
1
 0
VERTEX
 8
MESH_248_F0
 10
0
 20
0
 30
0
 70
128
 71
3
 72
2
 73
10
 74
10
 0
VERTEX
 8
MESH_248_F0
 10
0
 20
0
 30
0
 70
128
 71
4
 72
3
 73
5
 74
5
 0
VERTEX
 8
MESH_248_F0
 10
0
 20
0
 30
0
 70
128
 71
3
 72
10
 73
5
 74
5
 0
VERTEX
 8
MESH_248_F0
 10
0
 20
0
 30
0
 70
128
 71
10
 72
6
 73
5
 74
5
 0
VERTEX
 8
MESH_248_F0
 10
0
 20
0
 30
0
 70
128
 71
10
 72
9
 73
8
 74
8
 0
SEQEND
 0
POLYLINE
 8
MESH_247_F0
 66
1
 10
0.0
 20
0.0
 30
0.0
 70
64
 71
8
 72
6
 0
VERTEX
 8
MESH_247_F0
 10
-96.915
 20
-44.9163
 30
-62.1396
 70
192
 0
VERTEX
 8
MESH_247_F0
 10
-95.7975
 20
-44.9163
 30
-66.0803
 70
192
 0
VERTEX
 8
MESH_247_F0
 10
-92.8759
 20
-44.9163
 30
-68.9514
 70
192
 0
VERTEX
 8
MESH_247_F0
 10
-88.9163
 20
-44.9163
 30
-70
 70
192
 0
VERTEX
 8
MESH_247_F0
 10
-88.9163
 20
44.9163
 30
-70
 70
192
 0
VERTEX
 8
MESH_247_F0
 10
-92.8759
 20
44.9163
 30
-68.9514
 70
192
 0
VERTEX
 8
MESH_247_F0
 10
-95.7975
 20
44.9163
 30
-66.0803
 70
192
 0
VERTEX
 8
MESH_247_F0
 10
-96.915
 20
44.9163
 30
-62.1396
 70
192
 0
VERTEX
 8
MESH_247_F0
 10
0
 20
0
 30
0
 70
128
 71
8
 72
2
 73
1
 74
1
 0
VERTEX
 8
MESH_247_F0
 10
0
 20
0
 30
0
 70
128
 71
7
 72
2
 73
8
 74
8
 0
VERTEX
 8
MESH_247_F0
 10
0
 20
0
 30
0
 70
128
 71
6
 72
2
 73
7
 74
7
 0
VERTEX
 8
MESH_247_F0
 10
0
 20
0
 30
0
 70
128
 71
3
 72
2
 73
6
 74
6
 0
VERTEX
 8
MESH_247_F0
 10
0
 20
0
 30
0
 70
128
 71
4
 72
3
 73
5
 74
5
 0
VERTEX
 8
MESH_247_F0
 10
0
 20
0
 30
0
 70
128
 71
3
 72
6
 73
5
 74
5
 0
SEQEND
 0
POLYLINE
 8
MESH_246_F0
 66
1
 10
0.0
 20
0.0
 30
0.0
 70
64
 71
10
 72
9
 0
VERTEX
 8
MESH_246_F0
 10
-94.5714
 20
50.5714
 30
-62.1974
 70
192
 0
VERTEX
 8
MESH_246_F0
 10
-95.8426
 20
48.9149
 30
-62.1907
 70
192
 0
VERTEX
 8
MESH_246_F0
 10
-96.642
 20
46.9861
 30
-62.171
 70
192
 0
VERTEX
 8
MESH_246_F0
 10
-96.915
 20
44.9163
 30
-62.1396
 70
192
 0
VERTEX
 8
MESH_246_F0
 10
-95.7975
 20
44.9163
 30
-66.0803
 70
192
 0
VERTEX
 8
MESH_246_F0
 10
-92.8759
 20
44.9163
 30
-68.9514
 70
192
 0
VERTEX
 8
MESH_246_F0
 10
-88.9163
 20
44.9163
 30
-70
 70
192
 0
VERTEX
 8
MESH_246_F0
 10
-91.7043
 20
47.7043
 30
-68.9609
 70
192
 0
VERTEX
 8
MESH_246_F0
 10
-93.768
 20
49.768
 30
-66.1134
 70
192
 0
VERTEX
 8
MESH_246_F0
 10
-94.9163
 20
48.9163
 30
-65.4641
 70
192
 0
VERTEX
 8
MESH_246_F0
 10
0
 20
0
 30
0
 70
128
 71
10
 72
1
 73
9
 74
9
 0
VERTEX
 8
MESH_246_F0
 10
0
 20
0
 30
0
 70
128
 71
5
 72
10
 73
6
 74
6
 0
VERTEX
 8
MESH_246_F0
 10
0
 20
0
 30
0
 70
128
 71
10
 72
9
 73
6
 74
6
 0
VERTEX
 8
MESH_246_F0
 10
0
 20
0
 30
0
 70
128
 71
9
 72
8
 73
6
 74
6
 0
VERTEX
 8
MESH_246_F0
 10
0
 20
0
 30
0
 70
128
 71
8
 72
7
 73
6
 74
6
 0
VERTEX
 8
MESH_246_F0
 10
0
 20
0
 30
0
 70
128
 71
10
 72
2
 73
1
 74
1
 0
VERTEX
 8
MESH_246_F0
 10
0
 20
0
 30
0
 70
128
 71
3
 72
2
 73
10
 74
10
 0
VERTEX
 8
MESH_246_F0
 10
0
 20
0
 30
0
 70
128
 71
4
 72
3
 73
5
 74
5
 0
VERTEX
 8
MESH_246_F0
 10
0
 20
0
 30
0
 70
128
 71
3
 72
10
 73
5
 74
5
 0
SEQEND
 0
POLYLINE
 8
MESH_245_F0
 66
1
 10
0.0
 20
0.0
 30
0.0
 70
64
 71
12
 72
13
 0
VERTEX
 8
MESH_245_F0
 10
-94.5714
 20
50.5714
 30
-62.1974
 70
192
 0
VERTEX
 8
MESH_245_F0
 10
-93.768
 20
49.768
 30
-66.1134
 70
192
 0
VERTEX
 8
MESH_245_F0
 10
-91.7043
 20
47.7043
 30
-68.9609
 70
192
 0
VERTEX
 8
MESH_245_F0
 10
-88.9163
 20
44.9163
 30
-70
 70
192
 0
VERTEX
 8
MESH_245_F0
 10
-88.9163
 20
48.8759
 30
-68.9514
 70
192
 0
VERTEX
 8
MESH_245_F0
 10
-88.9163
 20
51.7975
 30
-66.0803
 70
192
 0
VERTEX
 8
MESH_245_F0
 10
-88.9163
 20
52.915
 30
-62.1396
 70
192
 0
VERTEX
 8
MESH_245_F0
 10
-90.9861
 20
52.642
 30
-62.171
 70
192
 0
VERTEX
 8
MESH_245_F0
 10
-92.9149
 20
51.8426
 30
-62.1907
 70
192
 0
VERTEX
 8
MESH_245_F0
 10
-90.9163
 20
51.8445
 30
-65.4641
 70
192
 0
VERTEX
 8
MESH_245_F0
 10
-92.3804
 20
48.9163
 30
-68
 70
192
 0
VERTEX
 8
MESH_245_F0
 10
-92.3804
 20
51.8445
 30
-64
 70
192
 0
VERTEX
 8
MESH_245_F0
 10
0
 20
0
 30
0
 70
128
 71
12
 72
1
 73
9
 74
9
 0
VERTEX
 8
MESH_245_F0
 10
0
 20
0
 30
0
 70
128
 71
10
 72
12
 73
8
 74
8
 0
VERTEX
 8
MESH_245_F0
 10
0
 20
0
 30
0
 70
128
 71
6
 72
10
 73
7
 74
7
 0
VERTEX
 8
MESH_245_F0
 10
0
 20
0
 30
0
 70
128
 71
10
 72
8
 73
7
 74
7
 0
VERTEX
 8
MESH_245_F0
 10
0
 20
0
 30
0
 70
128
 71
3
 72
6
 73
5
 74
5
 0
VERTEX
 8
MESH_245_F0
 10
0
 20
0
 30
0
 70
128
 71
3
 72
5
 73
4
 74
4
 0
VERTEX
 8
MESH_245_F0
 10
0
 20
0
 30
0
 70
128
 71
12
 72
9
 73
8
 74
8
 0
VERTEX
 8
MESH_245_F0
 10
0
 20
0
 30
0
 70
128
 71
11
 72
6
 73
3
 74
3
 0
VERTEX
 8
MESH_245_F0
 10
0
 20
0
 30
0
 70
128
 71
10
 72
11
 73
2
 74
2
 0
VERTEX
 8
MESH_245_F0
 10
0
 20
0
 30
0
 70
128
 71
10
 72
2
 73
12
 74
12
 0
VERTEX
 8
MESH_245_F0
 10
0
 20
0
 30
0
 70
128
 71
2
 72
1
 73
12
 74
12
 0
VERTEX
 8
MESH_245_F0
 10
0
 20
0
 30
0
 70
128
 71
6
 72
11
 73
10
 74
10
 0
VERTEX
 8
MESH_245_F0
 10
0
 20
0
 30
0
 70
128
 71
3
 72
2
 73
11
 74
11
 0
SEQEND
 0
POLYLINE
 8
MESH_244_F0
 66
1
 10
0.0
 20
0.0
 30
0.0
 70
64
 71
12
 72
10
 0
VERTEX
 8
MESH_244_F0
 10
-89.9923
 20
53.9911
 30
-0.4913
 70
192
 0
VERTEX
 8
MESH_244_F0
 10
-93.0536
 20
53.3823
 30
-0.4886
 70
192
 0
VERTEX
 8
MESH_244_F0
 10
-95.6485
 20
51.6485
 30
-0.4877
 70
192
 0
VERTEX
 8
MESH_244_F0
 10
-97.3823
 20
49.0536
 30
-0.4886
 70
192
 0
VERTEX
 8
MESH_244_F0
 10
-97.9911
 20
45.9923
 30
-0.4913
 70
192
 0
VERTEX
 8
MESH_244_F0
 10
-96.915
 20
44.9163
 30
-62.1396
 70
192
 0
VERTEX
 8
MESH_244_F0
 10
-96.642
 20
46.9861
 30
-62.171
 70
192
 0
VERTEX
 8
MESH_244_F0
 10
-95.8426
 20
48.9149
 30
-62.1907
 70
192
 0
VERTEX
 8
MESH_244_F0
 10
-94.5714
 20
50.5714
 30
-62.1974
 70
192
 0
VERTEX
 8
MESH_244_F0
 10
-92.9149
 20
51.8426
 30
-62.1907
 70
192
 0
VERTEX
 8
MESH_244_F0
 10
-90.9861
 20
52.642
 30
-62.171
 70
192
 0
VERTEX
 8
MESH_244_F0
 10
-88.9163
 20
52.915
 30
-62.1396
 70
192
 0
VERTEX
 8
MESH_244_F0
 10
0
 20
0
 30
0
 70
128
 71
11
 72
1
 73
12
 74
12
 0
VERTEX
 8
MESH_244_F0
 10
0
 20
0
 30
0
 70
128
 71
2
 72
1
 73
11
 74
11
 0
VERTEX
 8
MESH_244_F0
 10
0
 20
0
 30
0
 70
128
 71
3
 72
2
 73
10
 74
10
 0
VERTEX
 8
MESH_244_F0
 10
0
 20
0
 30
0
 70
128
 71
8
 72
3
 73
9
 74
9
 0
VERTEX
 8
MESH_244_F0
 10
0
 20
0
 30
0
 70
128
 71
3
 72
10
 73
9
 74
9
 0
VERTEX
 8
MESH_244_F0
 10
0
 20
0
 30
0
 70
128
 71
8
 72
4
 73
3
 74
3
 0
VERTEX
 8
MESH_244_F0
 10
0
 20
0
 30
0
 70
128
 71
7
 72
4
 73
8
 74
8
 0
VERTEX
 8
MESH_244_F0
 10
0
 20
0
 30
0
 70
128
 71
5
 72
4
 73
7
 74
7
 0
VERTEX
 8
MESH_244_F0
 10
0
 20
0
 30
0
 70
128
 71
5
 72
7
 73
6
 74
6
 0
VERTEX
 8
MESH_244_F0
 10
0
 20
0
 30
0
 70
128
 71
2
 72
11
 73
10
 74
10
 0
SEQEND
 0
POLYLINE
 8
MESH_243_F0
 66
1
 10
0.0
 20
0.0
 30
0.0
 70
64
 71
4
 72
2
 0
VERTEX
 8
MESH_243_F0
 10
-97.9911
 20
45.9923
 30
-0.4913
 70
192
 0
VERTEX
 8
MESH_243_F0
 10
-97.9911
 20
-45.9923
 30
-0.4913
 70
192
 0
VERTEX
 8
MESH_243_F0
 10
-96.915
 20
-44.9163
 30
-62.1396
 70
192
 0
VERTEX
 8
MESH_243_F0
 10
-96.915
 20
44.9163
 30
-62.1396
 70
192
 0
VERTEX
 8
MESH_243_F0
 10
0
 20
0
 30
0
 70
128
 71
4
 72
2
 73
1
 74
1
 0
VERTEX
 8
MESH_243_F0
 10
0
 20
0
 30
0
 70
128
 71
3
 72
2
 73
4
 74
4
 0
SEQEND
 0
POLYLINE
 8
MESH_242_F0
 66
1
 10
0.0
 20
0.0
 30
0.0
 70
64
 71
12
 72
10
 0
VERTEX
 8
MESH_242_F0
 10
-97.9911
 20
-45.9923
 30
-0.4913
 70
192
 0
VERTEX
 8
MESH_242_F0
 10
-97.3823
 20
-49.0536
 30
-0.4886
 70
192
 0
VERTEX
 8
MESH_242_F0
 10
-95.6485
 20
-51.6485
 30
-0.4877
 70
192
 0
VERTEX
 8
MESH_242_F0
 10
-93.0536
 20
-53.3823
 30
-0.4886
 70
192
 0
VERTEX
 8
MESH_242_F0
 10
-89.9923
 20
-53.9911
 30
-0.4913
 70
192
 0
VERTEX
 8
MESH_242_F0
 10
-88.9163
 20
-52.915
 30
-62.1396
 70
192
 0
VERTEX
 8
MESH_242_F0
 10
-90.9861
 20
-52.642
 30
-62.171
 70
192
 0
VERTEX
 8
MESH_242_F0
 10
-92.9149
 20
-51.8426
 30
-62.1907
 70
192
 0
VERTEX
 8
MESH_242_F0
 10
-94.5714
 20
-50.5714
 30
-62.1974
 70
192
 0
VERTEX
 8
MESH_242_F0
 10
-95.8426
 20
-48.9149
 30
-62.1907
 70
192
 0
VERTEX
 8
MESH_242_F0
 10
-96.642
 20
-46.9861
 30
-62.171
 70
192
 0
VERTEX
 8
MESH_242_F0
 10
-96.915
 20
-44.9163
 30
-62.1396
 70
192
 0
VERTEX
 8
MESH_242_F0
 10
0
 20
0
 30
0
 70
128
 71
11
 72
1
 73
12
 74
12
 0
VERTEX
 8
MESH_242_F0
 10
0
 20
0
 30
0
 70
128
 71
2
 72
1
 73
11
 74
11
 0
VERTEX
 8
MESH_242_F0
 10
0
 20
0
 30
0
 70
128
 71
3
 72
2
 73
10
 74
10
 0
VERTEX
 8
MESH_242_F0
 10
0
 20
0
 30
0
 70
128
 71
8
 72
3
 73
9
 74
9
 0
VERTEX
 8
MESH_242_F0
 10
0
 20
0
 30
0
 70
128
 71
3
 72
10
 73
9
 74
9
 0
VERTEX
 8
MESH_242_F0
 10
0
 20
0
 30
0
 70
128
 71
8
 72
4
 73
3
 74
3
 0
VERTEX
 8
MESH_242_F0
 10
0
 20
0
 30
0
 70
128
 71
7
 72
4
 73
8
 74
8
 0
VERTEX
 8
MESH_242_F0
 10
0
 20
0
 30
0
 70
128
 71
5
 72
4
 73
7
 74
7
 0
VERTEX
 8
MESH_242_F0
 10
0
 20
0
 30
0
 70
128
 71
5
 72
7
 73
6
 74
6
 0
VERTEX
 8
MESH_242_F0
 10
0
 20
0
 30
0
 70
128
 71
2
 72
11
 73
10
 74
10
 0
SEQEND
 0
POLYLINE
 8
MESH_241_F0
 66
1
 10
0.0
 20
0.0
 30
0.0
 70
64
 71
4
 72
2
 0
VERTEX
 8
MESH_241_F0
 10
-89.9923
 20
-53.9911
 30
-0.4913
 70
192
 0
VERTEX
 8
MESH_241_F0
 10
89.9923
 20
-53.9911
 30
-0.4913
 70
192
 0
VERTEX
 8
MESH_241_F0
 10
88.9163
 20
-52.915
 30
-62.1396
 70
192
 0
VERTEX
 8
MESH_241_F0
 10
-88.9163
 20
-52.915
 30
-62.1396
 70
192
 0
VERTEX
 8
MESH_241_F0
 10
0
 20
0
 30
0
 70
128
 71
4
 72
2
 73
1
 74
1
 0
VERTEX
 8
MESH_241_F0
 10
0
 20
0
 30
0
 70
128
 71
3
 72
2
 73
4
 74
4
 0
SEQEND
 0
POLYLINE
 8
MESH_240_F0
 66
1
 10
0.0
 20
0.0
 30
0.0
 70
64
 71
12
 72
10
 0
VERTEX
 8
MESH_240_F0
 10
89.9923
 20
-53.9911
 30
-0.4913
 70
192
 0
VERTEX
 8
MESH_240_F0
 10
93.0536
 20
-53.3823
 30
-0.4886
 70
192
 0
VERTEX
 8
MESH_240_F0
 10
95.6485
 20
-51.6485
 30
-0.4877
 70
192
 0
VERTEX
 8
MESH_240_F0
 10
97.3823
 20
-49.0536
 30
-0.4886
 70
192
 0
VERTEX
 8
MESH_240_F0
 10
97.9911
 20
-45.9923
 30
-0.4913
 70
192
 0
VERTEX
 8
MESH_240_F0
 10
96.915
 20
-44.9163
 30
-62.1396
 70
192
 0
VERTEX
 8
MESH_240_F0
 10
96.642
 20
-46.9861
 30
-62.171
 70
192
 0
VERTEX
 8
MESH_240_F0
 10
95.8426
 20
-48.9149
 30
-62.1907
 70
192
 0
VERTEX
 8
MESH_240_F0
 10
94.5714
 20
-50.5714
 30
-62.1974
 70
192
 0
VERTEX
 8
MESH_240_F0
 10
92.9149
 20
-51.8426
 30
-62.1907
 70
192
 0
VERTEX
 8
MESH_240_F0
 10
90.9861
 20
-52.642
 30
-62.171
 70
192
 0
VERTEX
 8
MESH_240_F0
 10
88.9163
 20
-52.915
 30
-62.1396
 70
192
 0
VERTEX
 8
MESH_240_F0
 10
0
 20
0
 30
0
 70
128
 71
11
 72
1
 73
12
 74
12
 0
VERTEX
 8
MESH_240_F0
 10
0
 20
0
 30
0
 70
128
 71
2
 72
1
 73
11
 74
11
 0
VERTEX
 8
MESH_240_F0
 10
0
 20
0
 30
0
 70
128
 71
3
 72
2
 73
10
 74
10
 0
VERTEX
 8
MESH_240_F0
 10
0
 20
0
 30
0
 70
128
 71
8
 72
3
 73
9
 74
9
 0
VERTEX
 8
MESH_240_F0
 10
0
 20
0
 30
0
 70
128
 71
3
 72
10
 73
9
 74
9
 0
VERTEX
 8
MESH_240_F0
 10
0
 20
0
 30
0
 70
128
 71
8
 72
4
 73
3
 74
3
 0
VERTEX
 8
MESH_240_F0
 10
0
 20
0
 30
0
 70
128
 71
7
 72
4
 73
8
 74
8
 0
VERTEX
 8
MESH_240_F0
 10
0
 20
0
 30
0
 70
128
 71
5
 72
4
 73
7
 74
7
 0
VERTEX
 8
MESH_240_F0
 10
0
 20
0
 30
0
 70
128
 71
5
 72
7
 73
6
 74
6
 0
VERTEX
 8
MESH_240_F0
 10
0
 20
0
 30
0
 70
128
 71
2
 72
11
 73
10
 74
10
 0
SEQEND
 0
POLYLINE
 8
MESH_239_F0
 66
1
 10
0.0
 20
0.0
 30
0.0
 70
64
 71
4
 72
2
 0
VERTEX
 8
MESH_239_F0
 10
97.9911
 20
-45.9923
 30
-0.4913
 70
192
 0
VERTEX
 8
MESH_239_F0
 10
97.9911
 20
45.9923
 30
-0.4913
 70
192
 0
VERTEX
 8
MESH_239_F0
 10
96.915
 20
44.9163
 30
-62.1396
 70
192
 0
VERTEX
 8
MESH_239_F0
 10
96.915
 20
-44.9163
 30
-62.1396
 70
192
 0
VERTEX
 8
MESH_239_F0
 10
0
 20
0
 30
0
 70
128
 71
4
 72
2
 73
1
 74
1
 0
VERTEX
 8
MESH_239_F0
 10
0
 20
0
 30
0
 70
128
 71
3
 72
2
 73
4
 74
4
 0
SEQEND
 0
POLYLINE
 8
MESH_238_F0
 66
1
 10
0.0
 20
0.0
 30
0.0
 70
64
 71
12
 72
10
 0
VERTEX
 8
MESH_238_F0
 10
97.9911
 20
45.9923
 30
-0.4913
 70
192
 0
VERTEX
 8
MESH_238_F0
 10
97.3823
 20
49.0536
 30
-0.4886
 70
192
 0
VERTEX
 8
MESH_238_F0
 10
95.6485
 20
51.6485
 30
-0.4877
 70
192
 0
VERTEX
 8
MESH_238_F0
 10
93.0536
 20
53.3823
 30
-0.4886
 70
192
 0
VERTEX
 8
MESH_238_F0
 10
89.9923
 20
53.9911
 30
-0.4913
 70
192
 0
VERTEX
 8
MESH_238_F0
 10
88.9163
 20
52.915
 30
-62.1396
 70
192
 0
VERTEX
 8
MESH_238_F0
 10
90.9861
 20
52.642
 30
-62.171
 70
192
 0
VERTEX
 8
MESH_238_F0
 10
92.9149
 20
51.8426
 30
-62.1907
 70
192
 0
VERTEX
 8
MESH_238_F0
 10
94.5714
 20
50.5714
 30
-62.1974
 70
192
 0
VERTEX
 8
MESH_238_F0
 10
95.8426
 20
48.9149
 30
-62.1907
 70
192
 0
VERTEX
 8
MESH_238_F0
 10
96.642
 20
46.9861
 30
-62.171
 70
192
 0
VERTEX
 8
MESH_238_F0
 10
96.915
 20
44.9163
 30
-62.1396
 70
192
 0
VERTEX
 8
MESH_238_F0
 10
0
 20
0
 30
0
 70
128
 71
11
 72
1
 73
12
 74
12
 0
VERTEX
 8
MESH_238_F0
 10
0
 20
0
 30
0
 70
128
 71
2
 72
1
 73
11
 74
11
 0
VERTEX
 8
MESH_238_F0
 10
0
 20
0
 30
0
 70
128
 71
3
 72
2
 73
10
 74
10
 0
VERTEX
 8
MESH_238_F0
 10
0
 20
0
 30
0
 70
128
 71
8
 72
3
 73
9
 74
9
 0
VERTEX
 8
MESH_238_F0
 10
0
 20
0
 30
0
 70
128
 71
3
 72
10
 73
9
 74
9
 0
VERTEX
 8
MESH_238_F0
 10
0
 20
0
 30
0
 70
128
 71
8
 72
4
 73
3
 74
3
 0
VERTEX
 8
MESH_238_F0
 10
0
 20
0
 30
0
 70
128
 71
7
 72
4
 73
8
 74
8
 0
VERTEX
 8
MESH_238_F0
 10
0
 20
0
 30
0
 70
128
 71
5
 72
4
 73
7
 74
7
 0
VERTEX
 8
MESH_238_F0
 10
0
 20
0
 30
0
 70
128
 71
5
 72
7
 73
6
 74
6
 0
VERTEX
 8
MESH_238_F0
 10
0
 20
0
 30
0
 70
128
 71
2
 72
11
 73
10
 74
10
 0
SEQEND
 0
POLYLINE
 8
MESH_237_F0
 66
1
 10
0.0
 20
0.0
 30
0.0
 70
64
 71
4
 72
2
 0
VERTEX
 8
MESH_237_F0
 10
89.9923
 20
53.9911
 30
-0.4913
 70
192
 0
VERTEX
 8
MESH_237_F0
 10
-89.9923
 20
53.9911
 30
-0.4913
 70
192
 0
VERTEX
 8
MESH_237_F0
 10
-88.9163
 20
52.915
 30
-62.1396
 70
192
 0
VERTEX
 8
MESH_237_F0
 10
88.9163
 20
52.915
 30
-62.1396
 70
192
 0
VERTEX
 8
MESH_237_F0
 10
0
 20
0
 30
0
 70
128
 71
1
 72
3
 73
2
 74
2
 0
VERTEX
 8
MESH_237_F0
 10
0
 20
0
 30
0
 70
128
 71
4
 72
3
 73
1
 74
1
 0
SEQEND
 0
POLYLINE
 8
MESH_236_F0
 66
1
 10
0.0
 20
0.0
 30
0.0
 70
64
 71
8
 72
6
 0
VERTEX
 8
MESH_236_F0
 10
-88.9163
 20
52.915
 30
-62.1396
 70
192
 0
VERTEX
 8
MESH_236_F0
 10
-88.9163
 20
51.7975
 30
-66.0803
 70
192
 0
VERTEX
 8
MESH_236_F0
 10
-88.9163
 20
48.8759
 30
-68.9514
 70
192
 0
VERTEX
 8
MESH_236_F0
 10
-88.9163
 20
44.9163
 30
-70
 70
192
 0
VERTEX
 8
MESH_236_F0
 10
88.9163
 20
44.9163
 30
-70
 70
192
 0
VERTEX
 8
MESH_236_F0
 10
88.9163
 20
48.8759
 30
-68.9514
 70
192
 0
VERTEX
 8
MESH_236_F0
 10
88.9163
 20
51.7975
 30
-66.0803
 70
192
 0
VERTEX
 8
MESH_236_F0
 10
88.9163
 20
52.915
 30
-62.1396
 70
192
 0
VERTEX
 8
MESH_236_F0
 10
0
 20
0
 30
0
 70
128
 71
8
 72
2
 73
1
 74
1
 0
VERTEX
 8
MESH_236_F0
 10
0
 20
0
 30
0
 70
128
 71
7
 72
2
 73
8
 74
8
 0
VERTEX
 8
MESH_236_F0
 10
0
 20
0
 30
0
 70
128
 71
6
 72
2
 73
7
 74
7
 0
VERTEX
 8
MESH_236_F0
 10
0
 20
0
 30
0
 70
128
 71
3
 72
2
 73
6
 74
6
 0
VERTEX
 8
MESH_236_F0
 10
0
 20
0
 30
0
 70
128
 71
4
 72
3
 73
5
 74
5
 0
VERTEX
 8
MESH_236_F0
 10
0
 20
0
 30
0
 70
128
 71
3
 72
6
 73
5
 74
5
 0
SEQEND
 0
POLYLINE
 8
MESH_235_F0
 66
1
 10
0.0
 20
0.0
 30
0.0
 70
64
 71
36
 72
42
 0
VERTEX
 8
MESH_235_F0
 10
-88.9163
 20
44.9163
 30
-70
 70
192
 0
VERTEX
 8
MESH_235_F0
 10
-88.9163
 20
-44.9163
 30
-70
 70
192
 0
VERTEX
 8
MESH_235_F0
 10
88.9163
 20
-44.9163
 30
-70
 70
192
 0
VERTEX
 8
MESH_235_F0
 10
88.9163
 20
44.9163
 30
-70
 70
192
 0
VERTEX
 8
MESH_235_F0
 10
-82
 20
39.7151
 30
-70
 70
192
 0
VERTEX
 8
MESH_235_F0
 10
-81.4944
 20
39.5056
 30
-70
 70
192
 0
VERTEX
 8
MESH_235_F0
 10
-81.2849
 20
39
 30
-70
 70
192
 0
VERTEX
 8
MESH_235_F0
 10
-81.4944
 20
38.4944
 30
-70
 70
192
 0
VERTEX
 8
MESH_235_F0
 10
-82
 20
38.2849
 30
-70
 70
192
 0
VERTEX
 8
MESH_235_F0
 10
-82.5056
 20
38.4944
 30
-70
 70
192
 0
VERTEX
 8
MESH_235_F0
 10
-82.7151
 20
39
 30
-70
 70
192
 0
VERTEX
 8
MESH_235_F0
 10
-82.5056
 20
39.5056
 30
-70
 70
192
 0
VERTEX
 8
MESH_235_F0
 10
82
 20
39.7151
 30
-70
 70
192
 0
VERTEX
 8
MESH_235_F0
 10
82.5056
 20
39.5056
 30
-70
 70
192
 0
VERTEX
 8
MESH_235_F0
 10
82.7151
 20
39
 30
-70
 70
192
 0
VERTEX
 8
MESH_235_F0
 10
82.5056
 20
38.4944
 30
-70
 70
192
 0
VERTEX
 8
MESH_235_F0
 10
82
 20
38.2849
 30
-70
 70
192
 0
VERTEX
 8
MESH_235_F0
 10
81.4944
 20
38.4944
 30
-70
 70
192
 0
VERTEX
 8
MESH_235_F0
 10
81.2849
 20
39
 30
-70
 70
192
 0
VERTEX
 8
MESH_235_F0
 10
81.4944
 20
39.5056
 30
-70
 70
192
 0
VERTEX
 8
MESH_235_F0
 10
82
 20
-38.2849
 30
-70
 70
192
 0
VERTEX
 8
MESH_235_F0
 10
82.5056
 20
-38.4944
 30
-70
 70
192
 0
VERTEX
 8
MESH_235_F0
 10
82.7151
 20
-39
 30
-70
 70
192
 0
VERTEX
 8
MESH_235_F0
 10
82.5056
 20
-39.5056
 30
-70
 70
192
 0
VERTEX
 8
MESH_235_F0
 10
82
 20
-39.7151
 30
-70
 70
192
 0
VERTEX
 8
MESH_235_F0
 10
81.4944
 20
-39.5056
 30
-70
 70
192
 0
VERTEX
 8
MESH_235_F0
 10
81.2849
 20
-39
 30
-70
 70
192
 0
VERTEX
 8
MESH_235_F0
 10
81.4944
 20
-38.4944
 30
-70
 70
192
 0
VERTEX
 8
MESH_235_F0
 10
-82
 20
-38.2849
 30
-70
 70
192
 0
VERTEX
 8
MESH_235_F0
 10
-81.4944
 20
-38.4944
 30
-70
 70
192
 0
VERTEX
 8
MESH_235_F0
 10
-81.2849
 20
-39
 30
-70
 70
192
 0
VERTEX
 8
MESH_235_F0
 10
-81.4944
 20
-39.5056
 30
-70
 70
192
 0
VERTEX
 8
MESH_235_F0
 10
-82
 20
-39.7151
 30
-70
 70
192
 0
VERTEX
 8
MESH_235_F0
 10
-82.5056
 20
-39.5056
 30
-70
 70
192
 0
VERTEX
 8
MESH_235_F0
 10
-82.7151
 20
-39
 30
-70
 70
192
 0
VERTEX
 8
MESH_235_F0
 10
-82.5056
 20
-38.4944
 30
-70
 70
192
 0
VERTEX
 8
MESH_235_F0
 10
0
 20
0
 30
0
 70
128
 71
2
 72
36
 73
35
 74
35
 0
VERTEX
 8
MESH_235_F0
 10
0
 20
0
 30
0
 70
128
 71
33
 72
2
 73
34
 74
34
 0
VERTEX
 8
MESH_235_F0
 10
0
 20
0
 30
0
 70
128
 71
2
 72
35
 73
34
 74
34
 0
VERTEX
 8
MESH_235_F0
 10
0
 20
0
 30
0
 70
128
 71
33
 72
3
 73
2
 74
2
 0
VERTEX
 8
MESH_235_F0
 10
0
 20
0
 30
0
 70
128
 71
25
 72
3
 73
33
 74
33
 0
VERTEX
 8
MESH_235_F0
 10
0
 20
0
 30
0
 70
128
 71
26
 72
25
 73
32
 74
32
 0
VERTEX
 8
MESH_235_F0
 10
0
 20
0
 30
0
 70
128
 71
27
 72
26
 73
31
 74
31
 0
VERTEX
 8
MESH_235_F0
 10
0
 20
0
 30
0
 70
128
 71
28
 72
27
 73
30
 74
30
 0
VERTEX
 8
MESH_235_F0
 10
0
 20
0
 30
0
 70
128
 71
21
 72
28
 73
9
 74
9
 0
VERTEX
 8
MESH_235_F0
 10
0
 20
0
 30
0
 70
128
 71
18
 72
21
 73
8
 74
8
 0
VERTEX
 8
MESH_235_F0
 10
0
 20
0
 30
0
 70
128
 71
19
 72
18
 73
7
 74
7
 0
VERTEX
 8
MESH_235_F0
 10
0
 20
0
 30
0
 70
128
 71
20
 72
19
 73
6
 74
6
 0
VERTEX
 8
MESH_235_F0
 10
0
 20
0
 30
0
 70
128
 71
13
 72
20
 73
5
 74
5
 0
VERTEX
 8
MESH_235_F0
 10
0
 20
0
 30
0
 70
128
 71
4
 72
13
 73
1
 74
1
 0
VERTEX
 8
MESH_235_F0
 10
0
 20
0
 30
0
 70
128
 71
13
 72
5
 73
1
 74
1
 0
VERTEX
 8
MESH_235_F0
 10
0
 20
0
 30
0
 70
128
 71
5
 72
12
 73
1
 74
1
 0
VERTEX
 8
MESH_235_F0
 10
0
 20
0
 30
0
 70
128
 71
12
 72
11
 73
1
 74
1
 0
VERTEX
 8
MESH_235_F0
 10
0
 20
0
 30
0
 70
128
 71
11
 72
10
 73
1
 74
1
 0
VERTEX
 8
MESH_235_F0
 10
0
 20
0
 30
0
 70
128
 71
10
 72
2
 73
1
 74
1
 0
VERTEX
 8
MESH_235_F0
 10
0
 20
0
 30
0
 70
128
 71
36
 72
2
 73
10
 74
10
 0
VERTEX
 8
MESH_235_F0
 10
0
 20
0
 30
0
 70
128
 71
29
 72
36
 73
9
 74
9
 0
VERTEX
 8
MESH_235_F0
 10
0
 20
0
 30
0
 70
128
 71
29
 72
9
 73
30
 74
30
 0
VERTEX
 8
MESH_235_F0
 10
0
 20
0
 30
0
 70
128
 71
9
 72
28
 73
30
 74
30
 0
VERTEX
 8
MESH_235_F0
 10
0
 20
0
 30
0
 70
128
 71
4
 72
15
 73
14
 74
14
 0
VERTEX
 8
MESH_235_F0
 10
0
 20
0
 30
0
 70
128
 71
4
 72
14
 73
13
 74
13
 0
VERTEX
 8
MESH_235_F0
 10
0
 20
0
 30
0
 70
128
 71
20
 72
6
 73
5
 74
5
 0
VERTEX
 8
MESH_235_F0
 10
0
 20
0
 30
0
 70
128
 71
19
 72
7
 73
6
 74
6
 0
VERTEX
 8
MESH_235_F0
 10
0
 20
0
 30
0
 70
128
 71
18
 72
8
 73
7
 74
7
 0
VERTEX
 8
MESH_235_F0
 10
0
 20
0
 30
0
 70
128
 71
21
 72
9
 73
8
 74
8
 0
VERTEX
 8
MESH_235_F0
 10
0
 20
0
 30
0
 70
128
 71
36
 72
10
 73
9
 74
9
 0
VERTEX
 8
MESH_235_F0
 10
0
 20
0
 30
0
 70
128
 71
4
 72
16
 73
15
 74
15
 0
VERTEX
 8
MESH_235_F0
 10
0
 20
0
 30
0
 70
128
 71
3
 72
16
 73
4
 74
4
 0
VERTEX
 8
MESH_235_F0
 10
0
 20
0
 30
0
 70
128
 71
22
 72
16
 73
3
 74
3
 0
VERTEX
 8
MESH_235_F0
 10
0
 20
0
 30
0
 70
128
 71
22
 72
3
 73
23
 74
23
 0
VERTEX
 8
MESH_235_F0
 10
0
 20
0
 30
0
 70
128
 71
3
 72
24
 73
23
 74
23
 0
VERTEX
 8
MESH_235_F0
 10
0
 20
0
 30
0
 70
128
 71
25
 72
24
 73
3
 74
3
 0
VERTEX
 8
MESH_235_F0
 10
0
 20
0
 30
0
 70
128
 71
22
 72
17
 73
16
 74
16
 0
VERTEX
 8
MESH_235_F0
 10
0
 20
0
 30
0
 70
128
 71
21
 72
17
 73
22
 74
22
 0
VERTEX
 8
MESH_235_F0
 10
0
 20
0
 30
0
 70
128
 71
18
 72
17
 73
21
 74
21
 0
VERTEX
 8
MESH_235_F0
 10
0
 20
0
 30
0
 70
128
 71
27
 72
31
 73
30
 74
30
 0
VERTEX
 8
MESH_235_F0
 10
0
 20
0
 30
0
 70
128
 71
26
 72
32
 73
31
 74
31
 0
VERTEX
 8
MESH_235_F0
 10
0
 20
0
 30
0
 70
128
 71
25
 72
33
 73
32
 74
32
 0
SEQEND
 0
POLYLINE
 8
MESH_234_F0
 66
1
 10
0.0
 20
0.0
 30
0.0
 70
64
 71
10
 72
8
 0
VERTEX
 8
MESH_234_F0
 10
82
 20
38.2849
 30
-70
 70
192
 0
VERTEX
 8
MESH_234_F0
 10
82
 20
38.25
 30
-72
 70
192
 0
VERTEX
 8
MESH_234_F0
 10
81.4697
 20
38.4697
 30
-72
 70
192
 0
VERTEX
 8
MESH_234_F0
 10
81.25
 20
39
 30
-72
 70
192
 0
VERTEX
 8
MESH_234_F0
 10
81.4697
 20
39.5303
 30
-72
 70
192
 0
VERTEX
 8
MESH_234_F0
 10
82
 20
39.75
 30
-72
 70
192
 0
VERTEX
 8
MESH_234_F0
 10
82
 20
39.7151
 30
-70
 70
192
 0
VERTEX
 8
MESH_234_F0
 10
81.4944
 20
39.5056
 30
-70
 70
192
 0
VERTEX
 8
MESH_234_F0
 10
81.2849
 20
39
 30
-70
 70
192
 0
VERTEX
 8
MESH_234_F0
 10
81.4944
 20
38.4944
 30
-70
 70
192
 0
VERTEX
 8
MESH_234_F0
 10
0
 20
0
 30
0
 70
128
 71
10
 72
2
 73
1
 74
1
 0
VERTEX
 8
MESH_234_F0
 10
0
 20
0
 30
0
 70
128
 71
3
 72
2
 73
10
 74
10
 0
VERTEX
 8
MESH_234_F0
 10
0
 20
0
 30
0
 70
128
 71
4
 72
3
 73
9
 74
9
 0
VERTEX
 8
MESH_234_F0
 10
0
 20
0
 30
0
 70
128
 71
5
 72
4
 73
8
 74
8
 0
VERTEX
 8
MESH_234_F0
 10
0
 20
0
 30
0
 70
128
 71
6
 72
5
 73
7
 74
7
 0
VERTEX
 8
MESH_234_F0
 10
0
 20
0
 30
0
 70
128
 71
5
 72
8
 73
7
 74
7
 0
VERTEX
 8
MESH_234_F0
 10
0
 20
0
 30
0
 70
128
 71
4
 72
9
 73
8
 74
8
 0
VERTEX
 8
MESH_234_F0
 10
0
 20
0
 30
0
 70
128
 71
3
 72
10
 73
9
 74
9
 0
SEQEND
 0
ENDSEC
 0
EOF
