 0
SECTION
 2
HEADER
 9
$ACADVER
 1
AC1009
 0
ENDSEC
 0
SECTION
 2
TABLES
 0
TABLE
 2
LTYPE
 70
1
 0
LTYPE
 2
CONTINUOUS
 70
64
 3
solid line
 72
65
 73
0
 40
0.0
 0
ENDTAB
 0
TABLE
 2
LAYER
 70
6
 0
LAYER
 2
0
 70
0
 62
7
 6
CONTINUOUS
 0
LAYER
 2
23
 70
64
 62
7
 6
CONTINUOUS
 0
LAYER
 2
22
 70
64
 62
7
 6
CONTINUOUS
 0
LAYER
 2
21
 70
64
 62
7
 6
CONTINUOUS
 0
LAYER
 2
20
 70
64
 62
7
 6
CONTINUOUS
 0
LAYER
 2
19
 70
64
 62
7
 6
CONTINUOUS
 0
LAYER
 2
18
 70
64
 62
7
 6
CONTINUOUS
 0
LAYER
 2
17
 70
64
 62
7
 6
CONTINUOUS
 0
LAYER
 2
16
 70
64
 62
7
 6
CONTINUOUS
 0
LAYER
 2
15
 70
64
 62
7
 6
CONTINUOUS
 0
LAYER
 2
14
 70
64
 62
7
 6
CONTINUOUS
 0
LAYER
 2
13
 70
64
 62
7
 6
CONTINUOUS
 0
LAYER
 2
12
 70
64
 62
7
 6
CONTINUOUS
 0
LAYER
 2
11
 70
64
 62
7
 6
CONTINUOUS
 0
LAYER
 2
10
 70
64
 62
7
 6
CONTINUOUS
 0
LAYER
 2
9
 70
64
 62
7
 6
CONTINUOUS
 0
LAYER
 2
8
 70
64
 62
7
 6
CONTINUOUS
 0
LAYER
 2
7
 70
64
 62
7
 6
CONTINUOUS
 0
LAYER
 2
6
 70
64
 62
7
 6
CONTINUOUS
 0
LAYER
 2
5
 70
64
 62
7
 6
CONTINUOUS
 0
LAYER
 2
4
 70
64
 62
7
 6
CONTINUOUS
 0
LAYER
 2
3
 70
64
 62
7
 6
CONTINUOUS
 0
LAYER
 2
2
 70
64
 62
7
 6
CONTINUOUS
 0
LAYER
 2
1
 70
64
 62
7
 6
CONTINUOUS
 0
ENDTAB
 0
ENDSEC
 0
SECTION
 2
BLOCKS
 0
ENDSEC
 0
SECTION
 2
ENTITIES
 0
POLYLINE
 8
23
 66
1
 10
0.0
 20
0.0
 30
0.0
 70
64
 71
1223
 72
1131
 0
VERTEX
 8
23
 10
48.85
 20
-0.35
 30
9
 70
192
 0
VERTEX
 8
23
 10
48.85
 20
-0.35
 30
9
 70
192
 0
VERTEX
 8
23
 10
48.85
 20
-0.35
 30
9
 70
192
 0
VERTEX
 8
23
 10
48.85
 20
-0.35
 30
9
 70
192
 0
VERTEX
 8
23
 10
48.7989
 20
-0.35
 30
8.6118
 70
192
 0
VERTEX
 8
23
 10
48.7989
 20
-0.35
 30
8.6118
 70
192
 0
VERTEX
 8
23
 10
48.649
 20
-0.35
 30
8.25
 70
192
 0
VERTEX
 8
23
 10
48.649
 20
-0.35
 30
8.25
 70
192
 0
VERTEX
 8
23
 10
48.4107
 20
-0.35
 30
7.9393
 70
192
 0
VERTEX
 8
23
 10
48.4107
 20
-0.35
 30
7.9393
 70
192
 0
VERTEX
 8
23
 10
48.1
 20
-0.35
 30
7.701
 70
192
 0
VERTEX
 8
23
 10
48.1
 20
-0.35
 30
7.701
 70
192
 0
VERTEX
 8
23
 10
47.7382
 20
-0.35
 30
7.5511
 70
192
 0
VERTEX
 8
23
 10
47.7382
 20
-0.35
 30
7.5511
 70
192
 0
VERTEX
 8
23
 10
47.35
 20
-0.35
 30
7.5
 70
192
 0
VERTEX
 8
23
 10
47.35
 20
-0.35
 30
7.5
 70
192
 0
VERTEX
 8
23
 10
46.9618
 20
-0.35
 30
7.5511
 70
192
 0
VERTEX
 8
23
 10
46.9618
 20
-0.35
 30
7.5511
 70
192
 0
VERTEX
 8
23
 10
46.6
 20
-0.35
 30
7.701
 70
192
 0
VERTEX
 8
23
 10
46.6
 20
-0.35
 30
7.701
 70
192
 0
VERTEX
 8
23
 10
46.2893
 20
-0.35
 30
7.9393
 70
192
 0
VERTEX
 8
23
 10
46.2893
 20
-0.35
 30
7.9393
 70
192
 0
VERTEX
 8
23
 10
46.051
 20
-0.35
 30
8.25
 70
192
 0
VERTEX
 8
23
 10
46.051
 20
-0.35
 30
8.25
 70
192
 0
VERTEX
 8
23
 10
45.9011
 20
-0.35
 30
8.6118
 70
192
 0
VERTEX
 8
23
 10
45.9011
 20
-0.35
 30
8.6118
 70
192
 0
VERTEX
 8
23
 10
45.85
 20
-0.35
 30
9
 70
192
 0
VERTEX
 8
23
 10
45.85
 20
-0.35
 30
9
 70
192
 0
VERTEX
 8
23
 10
45.85
 20
-0.35
 30
9
 70
192
 0
VERTEX
 8
23
 10
45.85
 20
-0.35
 30
9
 70
192
 0
VERTEX
 8
23
 10
45.25
 20
0.25
 30
9
 70
192
 0
VERTEX
 8
23
 10
45.25
 20
0.25
 30
9
 70
192
 0
VERTEX
 8
23
 10
45.4581
 20
0.25
 30
8.0886
 70
192
 0
VERTEX
 8
23
 10
46.0409
 20
0.25
 30
7.358
 70
192
 0
VERTEX
 8
23
 10
46.8828
 20
0.25
 30
6.9526
 70
192
 0
VERTEX
 8
23
 10
47.8172
 20
0.25
 30
6.9526
 70
192
 0
VERTEX
 8
23
 10
48.6591
 20
0.25
 30
7.358
 70
192
 0
VERTEX
 8
23
 10
49.2419
 20
0.25
 30
8.0886
 70
192
 0
VERTEX
 8
23
 10
49.45
 20
0.25
 30
9
 70
192
 0
VERTEX
 8
23
 10
49.45
 20
0.25
 30
9
 70
192
 0
VERTEX
 8
23
 10
45.9011
 20
-0.35
 30
9.3882
 70
192
 0
VERTEX
 8
23
 10
45.9011
 20
-0.35
 30
9.3882
 70
192
 0
VERTEX
 8
23
 10
46.051
 20
-0.35
 30
9.75
 70
192
 0
VERTEX
 8
23
 10
46.051
 20
-0.35
 30
9.75
 70
192
 0
VERTEX
 8
23
 10
46.2893
 20
-0.35
 30
10.0607
 70
192
 0
VERTEX
 8
23
 10
46.2893
 20
-0.35
 30
10.0607
 70
192
 0
VERTEX
 8
23
 10
46.6
 20
-0.35
 30
10.299
 70
192
 0
VERTEX
 8
23
 10
46.6
 20
-0.35
 30
10.299
 70
192
 0
VERTEX
 8
23
 10
46.9618
 20
-0.35
 30
10.4489
 70
192
 0
VERTEX
 8
23
 10
46.9618
 20
-0.35
 30
10.4489
 70
192
 0
VERTEX
 8
23
 10
47.35
 20
-0.35
 30
10.5
 70
192
 0
VERTEX
 8
23
 10
47.35
 20
-0.35
 30
10.5
 70
192
 0
VERTEX
 8
23
 10
47.7382
 20
-0.35
 30
10.4489
 70
192
 0
VERTEX
 8
23
 10
47.7382
 20
-0.35
 30
10.4489
 70
192
 0
VERTEX
 8
23
 10
48.1
 20
-0.35
 30
10.299
 70
192
 0
VERTEX
 8
23
 10
48.1
 20
-0.35
 30
10.299
 70
192
 0
VERTEX
 8
23
 10
48.4107
 20
-0.35
 30
10.0607
 70
192
 0
VERTEX
 8
23
 10
48.4107
 20
-0.35
 30
10.0607
 70
192
 0
VERTEX
 8
23
 10
48.649
 20
-0.35
 30
9.75
 70
192
 0
VERTEX
 8
23
 10
48.649
 20
-0.35
 30
9.75
 70
192
 0
VERTEX
 8
23
 10
48.7989
 20
-0.35
 30
9.3882
 70
192
 0
VERTEX
 8
23
 10
48.7989
 20
-0.35
 30
9.3882
 70
192
 0
VERTEX
 8
23
 10
49.2419
 20
0.25
 30
9.9114
 70
192
 0
VERTEX
 8
23
 10
48.6591
 20
0.25
 30
10.642
 70
192
 0
VERTEX
 8
23
 10
47.8172
 20
0.25
 30
11.0474
 70
192
 0
VERTEX
 8
23
 10
46.8828
 20
0.25
 30
11.0474
 70
192
 0
VERTEX
 8
23
 10
46.0409
 20
0.25
 30
10.642
 70
192
 0
VERTEX
 8
23
 10
45.4581
 20
0.25
 30
9.9114
 70
192
 0
VERTEX
 8
23
 10
48.85
 20
-3.2
 30
9
 70
192
 0
VERTEX
 8
23
 10
48.85
 20
-3.2
 30
9
 70
192
 0
VERTEX
 8
23
 10
48.85
 20
-3.2
 30
9
 70
192
 0
VERTEX
 8
23
 10
48.85
 20
-3.2
 30
9
 70
192
 0
VERTEX
 8
23
 10
45.85
 20
-3.2
 30
9
 70
192
 0
VERTEX
 8
23
 10
45.85
 20
-3.2
 30
9
 70
192
 0
VERTEX
 8
23
 10
46.0487
 20
-3.2558
 30
9.7461
 70
192
 0
VERTEX
 8
23
 10
46.6047
 20
-3.3707
 30
10.3017
 70
192
 0
VERTEX
 8
23
 10
47.35
 20
-3.4274
 30
10.5
 70
192
 0
VERTEX
 8
23
 10
47.35
 20
-3.4274
 30
10.5
 70
192
 0
VERTEX
 8
23
 10
48.0953
 20
-3.3707
 30
10.3017
 70
192
 0
VERTEX
 8
23
 10
48.0953
 20
-3.3707
 30
10.3017
 70
192
 0
VERTEX
 8
23
 10
48.6513
 20
-3.2558
 30
9.7461
 70
192
 0
VERTEX
 8
23
 10
48.6513
 20
-3.2558
 30
9.7461
 70
192
 0
VERTEX
 8
23
 10
48.6513
 20
-3.2558
 30
8.2539
 70
192
 0
VERTEX
 8
23
 10
48.6513
 20
-3.2558
 30
8.2539
 70
192
 0
VERTEX
 8
23
 10
48.0953
 20
-3.3707
 30
7.6983
 70
192
 0
VERTEX
 8
23
 10
48.0953
 20
-3.3707
 30
7.6983
 70
192
 0
VERTEX
 8
23
 10
47.35
 20
-3.4274
 30
7.5
 70
192
 0
VERTEX
 8
23
 10
47.35
 20
-3.4274
 30
7.5
 70
192
 0
VERTEX
 8
23
 10
46.6047
 20
-3.3707
 30
7.6983
 70
192
 0
VERTEX
 8
23
 10
46.0487
 20
-3.2558
 30
8.2539
 70
192
 0
VERTEX
 8
23
 10
38.7
 20
-11.1106
 30
13.1617
 70
192
 0
VERTEX
 8
23
 10
38.7
 20
-9.2569
 30
13.9486
 70
192
 0
VERTEX
 8
23
 10
38.7
 20
-7.2431
 30
13.9486
 70
192
 0
VERTEX
 8
23
 10
38.7
 20
-5.3894
 30
13.1617
 70
192
 0
VERTEX
 8
23
 10
53.2
 20
-3.2
 30
9
 70
192
 0
VERTEX
 8
23
 10
53.2
 20
-3.2
 30
9
 70
192
 0
VERTEX
 8
23
 10
53.2
 20
-3.5844
 30
7.0675
 70
192
 0
VERTEX
 8
23
 10
53.2
 20
-4.6791
 30
5.4291
 70
192
 0
VERTEX
 8
23
 10
53.2
 20
-6.3175
 30
4.3344
 70
192
 0
VERTEX
 8
23
 10
53.2
 20
-8.25
 30
3.95
 70
192
 0
VERTEX
 8
23
 10
53.2
 20
-10.1826
 30
4.3344
 70
192
 0
VERTEX
 8
23
 10
53.2
 20
-11.8209
 30
5.4291
 70
192
 0
VERTEX
 8
23
 10
53.2
 20
-12.9156
 30
7.0675
 70
192
 0
VERTEX
 8
23
 10
53.2
 20
-13.3
 30
9
 70
192
 0
VERTEX
 8
23
 10
53.2
 20
-13.3
 30
9
 70
192
 0
VERTEX
 8
23
 10
38.7
 20
-13.3
 30
9
 70
192
 0
VERTEX
 8
23
 10
38.7
 20
-13.3
 30
9
 70
192
 0
VERTEX
 8
23
 10
38.7
 20
-13.2875
 30
8.6447
 70
192
 0
VERTEX
 8
23
 10
38.7
 20
-11.1106
 30
4.8383
 70
192
 0
VERTEX
 8
23
 10
38.7
 20
-9.2569
 30
4.0514
 70
192
 0
VERTEX
 8
23
 10
38.7
 20
-7.2431
 30
4.0514
 70
192
 0
VERTEX
 8
23
 10
38.7
 20
-5.3894
 30
4.8383
 70
192
 0
VERTEX
 8
23
 10
53.2
 20
-11.8209
 30
12.5709
 70
192
 0
VERTEX
 8
23
 10
53.2
 20
-10.1826
 30
13.6656
 70
192
 0
VERTEX
 8
23
 10
53.2
 20
-8.25
 30
14.05
 70
192
 0
VERTEX
 8
23
 10
53.2
 20
-6.3175
 30
13.6656
 70
192
 0
VERTEX
 8
23
 10
53.2
 20
-4.6791
 30
12.5709
 70
192
 0
VERTEX
 8
23
 10
53.2
 20
-3.5844
 30
10.9325
 70
192
 0
VERTEX
 8
23
 10
38.7
 20
-13.2875
 30
9.3553
 70
192
 0
VERTEX
 8
23
 10
59.5
 20
0.75
 30
-54
 70
192
 0
VERTEX
 8
23
 10
59.5
 20
0.75
 30
-54
 70
192
 0
VERTEX
 8
23
 10
59.5
 20
0.75
 30
-54
 70
192
 0
VERTEX
 8
23
 10
59.5
 20
0.2064
 30
-57.0795
 70
192
 0
VERTEX
 8
23
 10
59.5
 20
0.2064
 30
-57.0795
 70
192
 0
VERTEX
 8
23
 10
59.5
 20
-1.3553
 30
-59.7842
 70
192
 0
VERTEX
 8
23
 10
59.5
 20
-1.3553
 30
-59.7842
 70
192
 0
VERTEX
 8
23
 10
59.5
 20
-3.7497
 30
-61.794
 70
192
 0
VERTEX
 8
23
 10
59.5
 20
-3.7497
 30
-61.794
 70
192
 0
VERTEX
 8
23
 10
59.5
 20
-6.6878
 30
-62.8631
 70
192
 0
VERTEX
 8
23
 10
59.5
 20
-6.6878
 30
-62.8631
 70
192
 0
VERTEX
 8
23
 10
59.5
 20
-9.8122
 30
-62.8631
 70
192
 0
VERTEX
 8
23
 10
59.5
 20
-9.8122
 30
-62.8631
 70
192
 0
VERTEX
 8
23
 10
59.5
 20
-12.7503
 30
-61.794
 70
192
 0
VERTEX
 8
23
 10
59.5
 20
-12.7503
 30
-61.794
 70
192
 0
VERTEX
 8
23
 10
59.5
 20
-15.1447
 30
-59.7842
 70
192
 0
VERTEX
 8
23
 10
59.5
 20
-15.1447
 30
-59.7842
 70
192
 0
VERTEX
 8
23
 10
59.5
 20
-16.7064
 30
-57.0795
 70
192
 0
VERTEX
 8
23
 10
59.5
 20
-16.7064
 30
-57.0795
 70
192
 0
VERTEX
 8
23
 10
59.5
 20
-17.25
 30
-54
 70
192
 0
VERTEX
 8
23
 10
59.5
 20
-17.25
 30
-54
 70
192
 0
VERTEX
 8
23
 10
59.5
 20
-17.25
 30
-54
 70
192
 0
VERTEX
 8
23
 10
59.5
 20
-17.25
 30
9
 70
192
 0
VERTEX
 8
23
 10
59.5
 20
-17.25
 30
9
 70
192
 0
VERTEX
 8
23
 10
59.5
 20
-17.25
 30
9
 70
192
 0
VERTEX
 8
23
 10
59.5
 20
-16.7064
 30
12.0795
 70
192
 0
VERTEX
 8
23
 10
59.5
 20
-16.7064
 30
12.0795
 70
192
 0
VERTEX
 8
23
 10
59.5
 20
-15.1447
 30
14.7842
 70
192
 0
VERTEX
 8
23
 10
59.5
 20
-15.1447
 30
14.7842
 70
192
 0
VERTEX
 8
23
 10
59.5
 20
-12.7503
 30
16.794
 70
192
 0
VERTEX
 8
23
 10
59.5
 20
-12.7503
 30
16.794
 70
192
 0
VERTEX
 8
23
 10
59.5
 20
-9.8122
 30
17.8631
 70
192
 0
VERTEX
 8
23
 10
59.5
 20
-9.8122
 30
17.8631
 70
192
 0
VERTEX
 8
23
 10
59.5
 20
-6.6878
 30
17.8631
 70
192
 0
VERTEX
 8
23
 10
59.5
 20
-6.6878
 30
17.8631
 70
192
 0
VERTEX
 8
23
 10
59.5
 20
-3.7497
 30
16.794
 70
192
 0
VERTEX
 8
23
 10
59.5
 20
-3.7497
 30
16.794
 70
192
 0
VERTEX
 8
23
 10
59.5
 20
-1.3553
 30
14.7842
 70
192
 0
VERTEX
 8
23
 10
59.5
 20
-1.3553
 30
14.7842
 70
192
 0
VERTEX
 8
23
 10
59.5
 20
0.2064
 30
12.0795
 70
192
 0
VERTEX
 8
23
 10
59.5
 20
0.2064
 30
12.0795
 70
192
 0
VERTEX
 8
23
 10
59.5
 20
0.75
 30
9
 70
192
 0
VERTEX
 8
23
 10
59.5
 20
0.75
 30
9
 70
192
 0
VERTEX
 8
23
 10
59.5
 20
0.75
 30
9
 70
192
 0
VERTEX
 8
23
 10
-56.5
 20
0.75
 30
-54
 70
192
 0
VERTEX
 8
23
 10
-56.5
 20
0.75
 30
-54
 70
192
 0
VERTEX
 8
23
 10
-56.5
 20
0.75
 30
-54
 70
192
 0
VERTEX
 8
23
 10
-56.5
 20
0.2067
 30
-57.0792
 70
192
 0
VERTEX
 8
23
 10
-56.5
 20
0.2067
 30
-57.0792
 70
192
 0
VERTEX
 8
23
 10
-56.5
 20
-1.356
 30
-59.7851
 70
192
 0
VERTEX
 8
23
 10
-56.5
 20
-1.356
 30
-59.7851
 70
192
 0
VERTEX
 8
23
 10
-56.5
 20
-3.7494
 30
-61.7936
 70
192
 0
VERTEX
 8
23
 10
-56.5
 20
-3.7494
 30
-61.7936
 70
192
 0
VERTEX
 8
23
 10
-56.5
 20
-6.6863
 30
-62.8631
 70
192
 0
VERTEX
 8
23
 10
-56.5
 20
-6.6863
 30
-62.8631
 70
192
 0
VERTEX
 8
23
 10
-56.5
 20
-9.8137
 30
-62.8631
 70
192
 0
VERTEX
 8
23
 10
-56.5
 20
-9.8137
 30
-62.8631
 70
192
 0
VERTEX
 8
23
 10
-56.5
 20
-12.7506
 30
-61.7936
 70
192
 0
VERTEX
 8
23
 10
-56.5
 20
-12.7506
 30
-61.7936
 70
192
 0
VERTEX
 8
23
 10
-56.5
 20
-15.144
 30
-59.7851
 70
192
 0
VERTEX
 8
23
 10
-56.5
 20
-15.144
 30
-59.7851
 70
192
 0
VERTEX
 8
23
 10
-56.5
 20
-16.7067
 30
-57.0792
 70
192
 0
VERTEX
 8
23
 10
-56.5
 20
-16.7067
 30
-57.0792
 70
192
 0
VERTEX
 8
23
 10
-56.5
 20
-17.25
 30
-54
 70
192
 0
VERTEX
 8
23
 10
-56.5
 20
-17.25
 30
-54
 70
192
 0
VERTEX
 8
23
 10
-56.5
 20
-17.25
 30
-54
 70
192
 0
VERTEX
 8
23
 10
56.5
 20
-17.25
 30
-54
 70
192
 0
VERTEX
 8
23
 10
56.5
 20
-17.25
 30
-54
 70
192
 0
VERTEX
 8
23
 10
56.5
 20
-17.25
 30
-54
 70
192
 0
VERTEX
 8
23
 10
56.5
 20
-17.25
 30
-54
 70
192
 0
VERTEX
 8
23
 10
56.5
 20
0.75
 30
-54
 70
192
 0
VERTEX
 8
23
 10
56.5
 20
0.75
 30
-54
 70
192
 0
VERTEX
 8
23
 10
56.5
 20
0.75
 30
-54
 70
192
 0
VERTEX
 8
23
 10
56.5
 20
0.75
 30
-54
 70
192
 0
VERTEX
 8
23
 10
56.5
 20
-17.25
 30
9
 70
192
 0
VERTEX
 8
23
 10
56.5
 20
-17.25
 30
9
 70
192
 0
VERTEX
 8
23
 10
56.5
 20
-17.25
 30
9
 70
192
 0
VERTEX
 8
23
 10
56.5
 20
-16.7064
 30
12.0795
 70
192
 0
VERTEX
 8
23
 10
56.5
 20
-16.7064
 30
12.0795
 70
192
 0
VERTEX
 8
23
 10
56.5
 20
-15.1447
 30
14.7842
 70
192
 0
VERTEX
 8
23
 10
56.5
 20
-15.1447
 30
14.7842
 70
192
 0
VERTEX
 8
23
 10
56.5
 20
-12.7503
 30
16.794
 70
192
 0
VERTEX
 8
23
 10
56.5
 20
-12.7503
 30
16.794
 70
192
 0
VERTEX
 8
23
 10
56.5
 20
-9.8122
 30
17.8631
 70
192
 0
VERTEX
 8
23
 10
56.5
 20
-9.8122
 30
17.8631
 70
192
 0
VERTEX
 8
23
 10
56.5
 20
-6.6878
 30
17.8631
 70
192
 0
VERTEX
 8
23
 10
56.5
 20
-6.6878
 30
17.8631
 70
192
 0
VERTEX
 8
23
 10
56.5
 20
-3.7497
 30
16.794
 70
192
 0
VERTEX
 8
23
 10
56.5
 20
-3.7497
 30
16.794
 70
192
 0
VERTEX
 8
23
 10
56.5
 20
-1.3553
 30
14.7842
 70
192
 0
VERTEX
 8
23
 10
56.5
 20
-1.3553
 30
14.7842
 70
192
 0
VERTEX
 8
23
 10
56.5
 20
0.2064
 30
12.0795
 70
192
 0
VERTEX
 8
23
 10
56.5
 20
0.2064
 30
12.0795
 70
192
 0
VERTEX
 8
23
 10
56.5
 20
0.75
 30
9
 70
192
 0
VERTEX
 8
23
 10
56.5
 20
0.75
 30
9
 70
192
 0
VERTEX
 8
23
 10
56.5
 20
0.75
 30
9
 70
192
 0
VERTEX
 8
23
 10
54.7
 20
-20.6941
 30
-11.8084
 70
192
 0
VERTEX
 8
23
 10
54.7
 20
-20.6941
 30
-11.8084
 70
192
 0
VERTEX
 8
23
 10
54.7
 20
-20.6941
 30
-11.8084
 70
192
 0
VERTEX
 8
23
 10
54.7
 20
-20.6941
 30
-11.8084
 70
192
 0
VERTEX
 8
23
 10
54.7
 20
-19.4153
 30
-10.6928
 70
192
 0
VERTEX
 8
23
 10
54.7
 20
-19.4153
 30
-10.6928
 70
192
 0
VERTEX
 8
23
 10
54.7
 20
-19.4153
 30
-10.6928
 70
192
 0
VERTEX
 8
23
 10
54.7
 20
-20.7479
 30
-30.2408
 70
192
 0
VERTEX
 8
23
 10
54.7
 20
-20.7479
 30
-30.2408
 70
192
 0
VERTEX
 8
23
 10
54.7
 20
-20.7479
 30
-30.2408
 70
192
 0
VERTEX
 8
23
 10
54.7
 20
-20.7185
 30
-39.7385
 70
192
 0
VERTEX
 8
23
 10
54.7
 20
-20.7185
 30
-39.7385
 70
192
 0
VERTEX
 8
23
 10
54.7
 20
-19.342
 30
-49.1379
 70
192
 0
VERTEX
 8
23
 10
54.7
 20
-19.342
 30
-49.1379
 70
192
 0
VERTEX
 8
23
 10
54.7
 20
-16.6457
 30
-58.248
 70
192
 0
VERTEX
 8
23
 10
54.7
 20
-16.6457
 30
-58.248
 70
192
 0
VERTEX
 8
23
 10
54.7
 20
-12.6842
 30
-66.8839
 70
192
 0
VERTEX
 8
23
 10
54.7
 20
-12.6842
 30
-66.8839
 70
192
 0
VERTEX
 8
23
 10
54.7
 20
-7.5379
 30
-74.8701
 70
192
 0
VERTEX
 8
23
 10
54.7
 20
-7.5379
 30
-74.8701
 70
192
 0
VERTEX
 8
23
 10
54.7
 20
-1.3115
 30
-82.0446
 70
192
 0
VERTEX
 8
23
 10
54.7
 20
-1.3115
 30
-82.0446
 70
192
 0
VERTEX
 8
23
 10
54.7
 20
5.8682
 30
-88.2623
 70
192
 0
VERTEX
 8
23
 10
54.7
 20
5.8682
 30
-88.2623
 70
192
 0
VERTEX
 8
23
 10
54.7
 20
5.8682
 30
-88.2623
 70
192
 0
VERTEX
 8
23
 10
54.7
 20
5.2212
 30
-89.2769
 70
192
 0
VERTEX
 8
23
 10
54.7
 20
5.2212
 30
-89.2769
 70
192
 0
VERTEX
 8
23
 10
54.7
 20
5.2212
 30
-89.2769
 70
192
 0
VERTEX
 8
23
 10
54.7
 20
-2.1047
 30
-82.9484
 70
192
 0
VERTEX
 8
23
 10
54.7
 20
-2.1047
 30
-82.9484
 70
192
 0
VERTEX
 8
23
 10
54.7
 20
-8.459
 30
-75.6419
 70
192
 0
VERTEX
 8
23
 10
54.7
 20
-8.459
 30
-75.6419
 70
192
 0
VERTEX
 8
23
 10
54.7
 20
-13.7118
 30
-67.5057
 70
192
 0
VERTEX
 8
23
 10
54.7
 20
-13.7118
 30
-67.5057
 70
192
 0
VERTEX
 8
23
 10
54.7
 20
-17.7557
 30
-58.7055
 70
192
 0
VERTEX
 8
23
 10
54.7
 20
-17.7557
 30
-58.7055
 70
192
 0
VERTEX
 8
23
 10
54.7
 20
-20.5085
 30
-49.4206
 70
192
 0
VERTEX
 8
23
 10
54.7
 20
-20.5085
 30
-49.4206
 70
192
 0
VERTEX
 8
23
 10
54.7
 20
-21.9143
 30
-39.84
 70
192
 0
VERTEX
 8
23
 10
54.7
 20
-21.9143
 30
-39.84
 70
192
 0
VERTEX
 8
23
 10
54.7
 20
-21.9451
 30
-30.1592
 70
192
 0
VERTEX
 8
23
 10
54.7
 20
-21.9451
 30
-30.1592
 70
192
 0
VERTEX
 8
23
 10
54.7
 20
-21.9451
 30
-30.1592
 70
192
 0
VERTEX
 8
23
 10
-54.7
 20
-19.4153
 30
-10.6928
 70
192
 0
VERTEX
 8
23
 10
-54.7
 20
-19.4153
 30
-10.6928
 70
192
 0
VERTEX
 8
23
 10
-54.7
 20
-19.4153
 30
-10.6928
 70
192
 0
VERTEX
 8
23
 10
-54.7
 20
-20.6941
 30
-11.8084
 70
192
 0
VERTEX
 8
23
 10
-54.7
 20
-20.6941
 30
-11.8084
 70
192
 0
VERTEX
 8
23
 10
-54.7
 20
-20.6941
 30
-11.8084
 70
192
 0
VERTEX
 8
23
 10
-54.7
 20
-20.6941
 30
-11.8084
 70
192
 0
VERTEX
 8
23
 10
-54.7
 20
-21.9451
 30
-30.1592
 70
192
 0
VERTEX
 8
23
 10
-54.7
 20
-21.9451
 30
-30.1592
 70
192
 0
VERTEX
 8
23
 10
-54.7
 20
-21.9451
 30
-30.1592
 70
192
 0
VERTEX
 8
23
 10
-54.7
 20
-21.9143
 30
-39.84
 70
192
 0
VERTEX
 8
23
 10
-54.7
 20
-21.9143
 30
-39.84
 70
192
 0
VERTEX
 8
23
 10
-54.7
 20
-20.5085
 30
-49.4206
 70
192
 0
VERTEX
 8
23
 10
-54.7
 20
-20.5085
 30
-49.4206
 70
192
 0
VERTEX
 8
23
 10
-54.7
 20
-17.7557
 30
-58.7055
 70
192
 0
VERTEX
 8
23
 10
-54.7
 20
-17.7557
 30
-58.7055
 70
192
 0
VERTEX
 8
23
 10
-54.7
 20
-13.7118
 30
-67.5057
 70
192
 0
VERTEX
 8
23
 10
-54.7
 20
-13.7118
 30
-67.5057
 70
192
 0
VERTEX
 8
23
 10
-54.7
 20
-8.459
 30
-75.6419
 70
192
 0
VERTEX
 8
23
 10
-54.7
 20
-8.459
 30
-75.6419
 70
192
 0
VERTEX
 8
23
 10
-54.7
 20
-2.1047
 30
-82.9484
 70
192
 0
VERTEX
 8
23
 10
-54.7
 20
-2.1047
 30
-82.9484
 70
192
 0
VERTEX
 8
23
 10
-54.7
 20
5.2212
 30
-89.2769
 70
192
 0
VERTEX
 8
23
 10
-54.7
 20
5.2212
 30
-89.2769
 70
192
 0
VERTEX
 8
23
 10
-54.7
 20
5.2212
 30
-89.2769
 70
192
 0
VERTEX
 8
23
 10
-54.7
 20
5.8682
 30
-88.2623
 70
192
 0
VERTEX
 8
23
 10
-54.7
 20
5.8682
 30
-88.2623
 70
192
 0
VERTEX
 8
23
 10
-54.7
 20
5.8682
 30
-88.2623
 70
192
 0
VERTEX
 8
23
 10
-54.7
 20
-1.3115
 30
-82.0446
 70
192
 0
VERTEX
 8
23
 10
-54.7
 20
-1.3115
 30
-82.0446
 70
192
 0
VERTEX
 8
23
 10
-54.7
 20
-7.5379
 30
-74.8701
 70
192
 0
VERTEX
 8
23
 10
-54.7
 20
-7.5379
 30
-74.8701
 70
192
 0
VERTEX
 8
23
 10
-54.7
 20
-12.6842
 30
-66.8839
 70
192
 0
VERTEX
 8
23
 10
-54.7
 20
-12.6842
 30
-66.8839
 70
192
 0
VERTEX
 8
23
 10
-54.7
 20
-16.6457
 30
-58.248
 70
192
 0
VERTEX
 8
23
 10
-54.7
 20
-16.6457
 30
-58.248
 70
192
 0
VERTEX
 8
23
 10
-54.7
 20
-19.342
 30
-49.1379
 70
192
 0
VERTEX
 8
23
 10
-54.7
 20
-19.342
 30
-49.1379
 70
192
 0
VERTEX
 8
23
 10
-54.7
 20
-20.7185
 30
-39.7385
 70
192
 0
VERTEX
 8
23
 10
-54.7
 20
-20.7185
 30
-39.7385
 70
192
 0
VERTEX
 8
23
 10
-54.7
 20
-20.7479
 30
-30.2408
 70
192
 0
VERTEX
 8
23
 10
-54.7
 20
-20.7479
 30
-30.2408
 70
192
 0
VERTEX
 8
23
 10
-54.7
 20
-20.7479
 30
-30.2408
 70
192
 0
VERTEX
 8
23
 10
54.7199
 20
-19.4019
 30
-10.4969
 70
192
 0
VERTEX
 8
23
 10
54.7199
 20
-19.4019
 30
-10.4969
 70
192
 0
VERTEX
 8
23
 10
54.7731
 20
-19.3902
 30
-10.3256
 70
192
 0
VERTEX
 8
23
 10
54.7731
 20
-19.3902
 30
-10.3256
 70
192
 0
VERTEX
 8
23
 10
54.9578
 20
-19.3732
 30
-10.0758
 70
192
 0
VERTEX
 8
23
 10
54.9578
 20
-19.3732
 30
-10.0758
 70
192
 0
VERTEX
 8
23
 10
55.2
 20
-19.3672
 30
-9.9873
 70
192
 0
VERTEX
 8
23
 10
55.2
 20
-19.3672
 30
-9.9873
 70
192
 0
VERTEX
 8
23
 10
55.2
 20
-19.3672
 30
-9.9873
 70
192
 0
VERTEX
 8
23
 10
54.5
 20
-19.3672
 30
-9.9873
 70
192
 0
VERTEX
 8
23
 10
54.5
 20
-19.3672
 30
-9.9873
 70
192
 0
VERTEX
 8
23
 10
54.5
 20
-19.3672
 30
-9.9873
 70
192
 0
VERTEX
 8
23
 10
54.5
 20
-18.2994
 30
5.6758
 70
192
 0
VERTEX
 8
23
 10
54.5
 20
-18.2994
 30
5.6758
 70
192
 0
VERTEX
 8
23
 10
54.5
 20
-18.2994
 30
5.6758
 70
192
 0
VERTEX
 8
23
 10
-54.5
 20
-18.2994
 30
5.6758
 70
192
 0
VERTEX
 8
23
 10
-54.5
 20
-18.2994
 30
5.6758
 70
192
 0
VERTEX
 8
23
 10
-54.5
 20
-18.2994
 30
5.6758
 70
192
 0
VERTEX
 8
23
 10
-54.5
 20
-19.3672
 30
-9.9873
 70
192
 0
VERTEX
 8
23
 10
-54.5
 20
-19.3672
 30
-9.9873
 70
192
 0
VERTEX
 8
23
 10
-54.5
 20
-19.3672
 30
-9.9873
 70
192
 0
VERTEX
 8
23
 10
-55.2
 20
-19.3672
 30
-9.9873
 70
192
 0
VERTEX
 8
23
 10
-55.2
 20
-19.3672
 30
-9.9873
 70
192
 0
VERTEX
 8
23
 10
-55.2
 20
-19.3672
 30
-9.9873
 70
192
 0
VERTEX
 8
23
 10
-54.9578
 20
-19.3732
 30
-10.0758
 70
192
 0
VERTEX
 8
23
 10
-54.9578
 20
-19.3732
 30
-10.0758
 70
192
 0
VERTEX
 8
23
 10
-54.7731
 20
-19.3902
 30
-10.3256
 70
192
 0
VERTEX
 8
23
 10
-54.7731
 20
-19.3902
 30
-10.3256
 70
192
 0
VERTEX
 8
23
 10
-54.7199
 20
-19.4019
 30
-10.4969
 70
192
 0
VERTEX
 8
23
 10
-54.7199
 20
-19.4019
 30
-10.4969
 70
192
 0
VERTEX
 8
23
 10
-54.3194
 20
7.4188
 30
-89.3886
 70
192
 0
VERTEX
 8
23
 10
-54.3194
 20
7.4188
 30
-89.3886
 70
192
 0
VERTEX
 8
23
 10
-53.2371
 20
8.7555
 30
-90.3065
 70
192
 0
VERTEX
 8
23
 10
-53.2371
 20
8.7555
 30
-90.3065
 70
192
 0
VERTEX
 8
23
 10
-51.6157
 20
9.662
 30
-90.9023
 70
192
 0
VERTEX
 8
23
 10
-51.6157
 20
9.662
 30
-90.9023
 70
192
 0
VERTEX
 8
23
 10
-49.7
 20
9.9833
 30
-91.1085
 70
192
 0
VERTEX
 8
23
 10
-49.7
 20
9.9833
 30
-91.1085
 70
192
 0
VERTEX
 8
23
 10
-49.7
 20
9.9833
 30
-91.1085
 70
192
 0
VERTEX
 8
23
 10
49.7
 20
9.9833
 30
-91.1085
 70
192
 0
VERTEX
 8
23
 10
49.7
 20
9.9833
 30
-91.1085
 70
192
 0
VERTEX
 8
23
 10
49.7
 20
9.9833
 30
-91.1085
 70
192
 0
VERTEX
 8
23
 10
51.6157
 20
9.662
 30
-90.9023
 70
192
 0
VERTEX
 8
23
 10
51.6157
 20
9.662
 30
-90.9023
 70
192
 0
VERTEX
 8
23
 10
53.2371
 20
8.7555
 30
-90.3065
 70
192
 0
VERTEX
 8
23
 10
53.2371
 20
8.7555
 30
-90.3065
 70
192
 0
VERTEX
 8
23
 10
54.3194
 20
7.4188
 30
-89.3886
 70
192
 0
VERTEX
 8
23
 10
54.3194
 20
7.4188
 30
-89.3886
 70
192
 0
VERTEX
 8
23
 10
49.7
 20
9.3382
 30
-92.1203
 70
192
 0
VERTEX
 8
23
 10
49.7
 20
9.3382
 30
-92.1203
 70
192
 0
VERTEX
 8
23
 10
49.7
 20
9.3382
 30
-92.1203
 70
192
 0
VERTEX
 8
23
 10
-49.7
 20
9.3382
 30
-92.1203
 70
192
 0
VERTEX
 8
23
 10
-49.7
 20
9.3382
 30
-92.1203
 70
192
 0
VERTEX
 8
23
 10
-49.7
 20
9.3382
 30
-92.1203
 70
192
 0
VERTEX
 8
23
 10
-51.6157
 20
9.0169
 30
-91.9142
 70
192
 0
VERTEX
 8
23
 10
-51.6157
 20
9.0169
 30
-91.9142
 70
192
 0
VERTEX
 8
23
 10
-53.237
 20
8.1103
 30
-91.3186
 70
192
 0
VERTEX
 8
23
 10
-53.237
 20
8.1103
 30
-91.3186
 70
192
 0
VERTEX
 8
23
 10
-54.3194
 20
6.773
 30
-90.4015
 70
192
 0
VERTEX
 8
23
 10
-54.3194
 20
6.773
 30
-90.4015
 70
192
 0
VERTEX
 8
23
 10
54.3194
 20
6.773
 30
-90.4015
 70
192
 0
VERTEX
 8
23
 10
54.3194
 20
6.773
 30
-90.4015
 70
192
 0
VERTEX
 8
23
 10
53.237
 20
8.1102
 30
-91.3186
 70
192
 0
VERTEX
 8
23
 10
53.237
 20
8.1102
 30
-91.3186
 70
192
 0
VERTEX
 8
23
 10
51.6157
 20
9.0169
 30
-91.9142
 70
192
 0
VERTEX
 8
23
 10
51.6157
 20
9.0169
 30
-91.9142
 70
192
 0
VERTEX
 8
23
 10
-54.7
 20
-19.4966
 30
5.7574
 70
192
 0
VERTEX
 8
23
 10
-54.7
 20
-19.4966
 30
5.7574
 70
192
 0
VERTEX
 8
23
 10
-54.7
 20
-19.4966
 30
5.7574
 70
192
 0
VERTEX
 8
23
 10
54.7
 20
-19.4966
 30
5.7574
 70
192
 0
VERTEX
 8
23
 10
54.7
 20
-19.4966
 30
5.7574
 70
192
 0
VERTEX
 8
23
 10
54.7
 20
-19.4966
 30
5.7574
 70
192
 0
VERTEX
 8
23
 10
54.7
 20
-20.0953
 30
-3.0254
 70
192
 0
VERTEX
 8
23
 10
54.7
 20
-20.0953
 30
-3.0254
 70
192
 0
VERTEX
 8
23
 10
-54.7
 20
-20.0953
 30
-3.0254
 70
192
 0
VERTEX
 8
23
 10
-54.7
 20
-20.0953
 30
-3.0254
 70
192
 0
VERTEX
 8
23
 10
-55.7
 20
-18.4989
 30
5.6894
 70
192
 0
VERTEX
 8
23
 10
-55.7
 20
-18.4989
 30
5.6894
 70
192
 0
VERTEX
 8
23
 10
-55.7
 20
-18.4989
 30
5.6894
 70
192
 0
VERTEX
 8
23
 10
-55.7
 20
-15.5058
 30
5.4854
 70
192
 0
VERTEX
 8
23
 10
-55.7
 20
-15.5058
 30
5.4854
 70
192
 0
VERTEX
 8
23
 10
-55.7
 20
-15.5058
 30
5.4854
 70
192
 0
VERTEX
 8
23
 10
-54.5
 20
-15.5058
 30
5.4854
 70
192
 0
VERTEX
 8
23
 10
-54.5
 20
-15.5058
 30
5.4854
 70
192
 0
VERTEX
 8
23
 10
-54.5
 20
-15.5058
 30
5.4854
 70
192
 0
VERTEX
 8
23
 10
54.5
 20
-15.5059
 30
5.4854
 70
192
 0
VERTEX
 8
23
 10
54.5
 20
-15.5059
 30
5.4854
 70
192
 0
VERTEX
 8
23
 10
54.5
 20
-15.5059
 30
5.4854
 70
192
 0
VERTEX
 8
23
 10
55.7
 20
-15.5059
 30
5.4854
 70
192
 0
VERTEX
 8
23
 10
55.7
 20
-15.5059
 30
5.4854
 70
192
 0
VERTEX
 8
23
 10
55.7
 20
-15.5059
 30
5.4854
 70
192
 0
VERTEX
 8
23
 10
55.7
 20
-18.4989
 30
5.6894
 70
192
 0
VERTEX
 8
23
 10
55.7
 20
-18.4989
 30
5.6894
 70
192
 0
VERTEX
 8
23
 10
55.7
 20
-18.4989
 30
5.6894
 70
192
 0
VERTEX
 8
23
 10
55.5657
 20
-18.998
 30
5.7234
 70
192
 0
VERTEX
 8
23
 10
55.5657
 20
-18.998
 30
5.7234
 70
192
 0
VERTEX
 8
23
 10
55.2002
 20
-19.3626
 30
5.7483
 70
192
 0
VERTEX
 8
23
 10
55.2002
 20
-19.3626
 30
5.7483
 70
192
 0
VERTEX
 8
23
 10
-55.2002
 20
-19.3626
 30
5.7483
 70
192
 0
VERTEX
 8
23
 10
-55.2002
 20
-19.3626
 30
5.7483
 70
192
 0
VERTEX
 8
23
 10
-55.5657
 20
-18.998
 30
5.7234
 70
192
 0
VERTEX
 8
23
 10
-55.5657
 20
-18.998
 30
5.7234
 70
192
 0
VERTEX
 8
23
 10
54.5
 20
-3.6484
 30
3.7251
 70
192
 0
VERTEX
 8
23
 10
54.5
 20
-3.6484
 30
3.7251
 70
192
 0
VERTEX
 8
23
 10
54.5
 20
-3.6484
 30
3.7251
 70
192
 0
VERTEX
 8
23
 10
54.5
 20
-2.0949
 30
5.6668
 70
192
 0
VERTEX
 8
23
 10
54.5
 20
-2.0949
 30
5.6668
 70
192
 0
VERTEX
 8
23
 10
54.5
 20
-1.3183
 30
8.0262
 70
192
 0
VERTEX
 8
23
 10
54.5
 20
-1.3183
 30
8.0262
 70
192
 0
VERTEX
 8
23
 10
54.5
 20
-1.4153
 30
10.5118
 70
192
 0
VERTEX
 8
23
 10
54.5
 20
-1.4153
 30
10.5118
 70
192
 0
VERTEX
 8
23
 10
54.5
 20
-2.3745
 30
12.8043
 70
192
 0
VERTEX
 8
23
 10
54.5
 20
-2.3745
 30
12.8043
 70
192
 0
VERTEX
 8
23
 10
54.5
 20
-4.073
 30
14.617
 70
192
 0
VERTEX
 8
23
 10
54.5
 20
-4.073
 30
14.617
 70
192
 0
VERTEX
 8
23
 10
54.5
 20
-6.3013
 30
15.7232
 70
192
 0
VERTEX
 8
23
 10
54.5
 20
-6.3013
 30
15.7232
 70
192
 0
VERTEX
 8
23
 10
54.5
 20
-8.7721
 30
15.9801
 70
192
 0
VERTEX
 8
23
 10
54.5
 20
-8.7721
 30
15.9801
 70
192
 0
VERTEX
 8
23
 10
54.5
 20
-11.1781
 30
15.3581
 70
192
 0
VERTEX
 8
23
 10
54.5
 20
-11.1781
 30
15.3581
 70
192
 0
VERTEX
 8
23
 10
54.5
 20
-13.2166
 30
13.9325
 70
192
 0
VERTEX
 8
23
 10
54.5
 20
-13.2166
 30
13.9325
 70
192
 0
VERTEX
 8
23
 10
54.5
 20
-14.6264
 30
11.8875
 70
192
 0
VERTEX
 8
23
 10
54.5
 20
-14.6264
 30
11.8875
 70
192
 0
VERTEX
 8
23
 10
54.5
 20
-15.2338
 30
9.4761
 70
192
 0
VERTEX
 8
23
 10
54.5
 20
-15.2338
 30
9.4761
 70
192
 0
VERTEX
 8
23
 10
54.5
 20
-15.2338
 30
9.4761
 70
192
 0
VERTEX
 8
23
 10
55.7
 20
-15.2338
 30
9.4761
 70
192
 0
VERTEX
 8
23
 10
55.7
 20
-15.2338
 30
9.4761
 70
192
 0
VERTEX
 8
23
 10
55.7
 20
-15.2338
 30
9.4761
 70
192
 0
VERTEX
 8
23
 10
55.7
 20
-14.6264
 30
11.8875
 70
192
 0
VERTEX
 8
23
 10
55.7
 20
-14.6264
 30
11.8875
 70
192
 0
VERTEX
 8
23
 10
55.7
 20
-13.2166
 30
13.9325
 70
192
 0
VERTEX
 8
23
 10
55.7
 20
-13.2166
 30
13.9325
 70
192
 0
VERTEX
 8
23
 10
55.7
 20
-11.1781
 30
15.3581
 70
192
 0
VERTEX
 8
23
 10
55.7
 20
-11.1781
 30
15.3581
 70
192
 0
VERTEX
 8
23
 10
55.7
 20
-8.7721
 30
15.9801
 70
192
 0
VERTEX
 8
23
 10
55.7
 20
-8.7721
 30
15.9801
 70
192
 0
VERTEX
 8
23
 10
55.7
 20
-6.3013
 30
15.7232
 70
192
 0
VERTEX
 8
23
 10
55.7
 20
-6.3013
 30
15.7232
 70
192
 0
VERTEX
 8
23
 10
55.7
 20
-4.073
 30
14.617
 70
192
 0
VERTEX
 8
23
 10
55.7
 20
-4.073
 30
14.617
 70
192
 0
VERTEX
 8
23
 10
55.7
 20
-2.3745
 30
12.8043
 70
192
 0
VERTEX
 8
23
 10
55.7
 20
-2.3745
 30
12.8043
 70
192
 0
VERTEX
 8
23
 10
55.7
 20
-1.4153
 30
10.5118
 70
192
 0
VERTEX
 8
23
 10
55.7
 20
-1.4153
 30
10.5118
 70
192
 0
VERTEX
 8
23
 10
55.7
 20
-1.3183
 30
8.0262
 70
192
 0
VERTEX
 8
23
 10
55.7
 20
-1.3183
 30
8.0262
 70
192
 0
VERTEX
 8
23
 10
55.7
 20
-2.0949
 30
5.6668
 70
192
 0
VERTEX
 8
23
 10
55.7
 20
-2.0949
 30
5.6668
 70
192
 0
VERTEX
 8
23
 10
55.7
 20
-3.6484
 30
3.7251
 70
192
 0
VERTEX
 8
23
 10
55.7
 20
-3.6484
 30
3.7251
 70
192
 0
VERTEX
 8
23
 10
55.7
 20
-3.6484
 30
3.7251
 70
192
 0
VERTEX
 8
23
 10
55.7
 20
-19.5803
 30
-10.1733
 70
192
 0
VERTEX
 8
23
 10
55.7
 20
-19.5803
 30
-10.1733
 70
192
 0
VERTEX
 8
23
 10
55.7
 20
-19.5803
 30
-10.1733
 70
192
 0
VERTEX
 8
23
 10
55.2
 20
-20.5032
 30
-10.9784
 70
192
 0
VERTEX
 8
23
 10
55.2
 20
-20.5032
 30
-10.9784
 70
192
 0
VERTEX
 8
23
 10
55.2
 20
-20.5032
 30
-10.9784
 70
192
 0
VERTEX
 8
23
 10
55.5556
 20
-20.132
 30
-10.6546
 70
192
 0
VERTEX
 8
23
 10
55.5556
 20
-20.132
 30
-10.6546
 70
192
 0
VERTEX
 8
23
 10
55.6608
 20
-19.8758
 30
-10.431
 70
192
 0
VERTEX
 8
23
 10
55.6608
 20
-19.8758
 30
-10.431
 70
192
 0
VERTEX
 8
23
 10
55.0105
 20
-20.5969
 30
-11.1096
 70
192
 0
VERTEX
 8
23
 10
55.0105
 20
-20.5969
 30
-11.1096
 70
192
 0
VERTEX
 8
23
 10
54.8491
 20
-20.6479
 30
-11.2954
 70
192
 0
VERTEX
 8
23
 10
54.8491
 20
-20.6479
 30
-11.2954
 70
192
 0
VERTEX
 8
23
 10
54.7394
 20
-20.6746
 30
-11.533
 70
192
 0
VERTEX
 8
23
 10
54.7394
 20
-20.6746
 30
-11.533
 70
192
 0
VERTEX
 8
23
 10
-54.5
 20
-3.6484
 30
3.7251
 70
192
 0
VERTEX
 8
23
 10
-54.5
 20
-3.6484
 30
3.7251
 70
192
 0
VERTEX
 8
23
 10
-54.5
 20
-3.6484
 30
3.7251
 70
192
 0
VERTEX
 8
23
 10
-54.5
 20
-15.2338
 30
9.4761
 70
192
 0
VERTEX
 8
23
 10
-54.5
 20
-15.2338
 30
9.4761
 70
192
 0
VERTEX
 8
23
 10
-54.5
 20
-15.2338
 30
9.4761
 70
192
 0
VERTEX
 8
23
 10
-54.5
 20
-14.6264
 30
11.8875
 70
192
 0
VERTEX
 8
23
 10
-54.5
 20
-14.6264
 30
11.8875
 70
192
 0
VERTEX
 8
23
 10
-54.5
 20
-13.2166
 30
13.9325
 70
192
 0
VERTEX
 8
23
 10
-54.5
 20
-13.2166
 30
13.9325
 70
192
 0
VERTEX
 8
23
 10
-54.5
 20
-11.178
 30
15.3581
 70
192
 0
VERTEX
 8
23
 10
-54.5
 20
-11.178
 30
15.3581
 70
192
 0
VERTEX
 8
23
 10
-54.5
 20
-8.7721
 30
15.9801
 70
192
 0
VERTEX
 8
23
 10
-54.5
 20
-8.7721
 30
15.9801
 70
192
 0
VERTEX
 8
23
 10
-54.5
 20
-6.3013
 30
15.7232
 70
192
 0
VERTEX
 8
23
 10
-54.5
 20
-6.3013
 30
15.7232
 70
192
 0
VERTEX
 8
23
 10
-54.5
 20
-4.073
 30
14.617
 70
192
 0
VERTEX
 8
23
 10
-54.5
 20
-4.073
 30
14.617
 70
192
 0
VERTEX
 8
23
 10
-54.5
 20
-2.3744
 30
12.8043
 70
192
 0
VERTEX
 8
23
 10
-54.5
 20
-2.3744
 30
12.8043
 70
192
 0
VERTEX
 8
23
 10
-54.5
 20
-1.4152
 30
10.5118
 70
192
 0
VERTEX
 8
23
 10
-54.5
 20
-1.4152
 30
10.5118
 70
192
 0
VERTEX
 8
23
 10
-54.5
 20
-1.3183
 30
8.0262
 70
192
 0
VERTEX
 8
23
 10
-54.5
 20
-1.3183
 30
8.0262
 70
192
 0
VERTEX
 8
23
 10
-54.5
 20
-2.0949
 30
5.6668
 70
192
 0
VERTEX
 8
23
 10
-54.5
 20
-2.0949
 30
5.6668
 70
192
 0
VERTEX
 8
23
 10
-54.5
 20
-13.2
 30
9
 70
192
 0
VERTEX
 8
23
 10
-54.5
 20
-13.2
 30
9
 70
192
 0
VERTEX
 8
23
 10
-54.5
 20
-13.2
 30
9
 70
192
 0
VERTEX
 8
23
 10
-54.5
 20
-12.8226
 30
7.1052
 70
192
 0
VERTEX
 8
23
 10
-54.5
 20
-12.8226
 30
7.1052
 70
192
 0
VERTEX
 8
23
 10
-54.5
 20
-11.7508
 30
5.5008
 70
192
 0
VERTEX
 8
23
 10
-54.5
 20
-11.7508
 30
5.5008
 70
192
 0
VERTEX
 8
23
 10
-54.5
 20
-10.1434
 30
4.4265
 70
192
 0
VERTEX
 8
23
 10
-54.5
 20
-10.1434
 30
4.4265
 70
192
 0
VERTEX
 8
23
 10
-54.5
 20
-8.25
 30
4.0504
 70
192
 0
VERTEX
 8
23
 10
-54.5
 20
-8.25
 30
4.0504
 70
192
 0
VERTEX
 8
23
 10
-54.5
 20
-6.3566
 30
4.4265
 70
192
 0
VERTEX
 8
23
 10
-54.5
 20
-6.3566
 30
4.4265
 70
192
 0
VERTEX
 8
23
 10
-54.5
 20
-4.7492
 30
5.5008
 70
192
 0
VERTEX
 8
23
 10
-54.5
 20
-4.7492
 30
5.5008
 70
192
 0
VERTEX
 8
23
 10
-54.5
 20
-3.6774
 30
7.1052
 70
192
 0
VERTEX
 8
23
 10
-54.5
 20
-3.6774
 30
7.1052
 70
192
 0
VERTEX
 8
23
 10
-54.5
 20
-3.3
 30
9
 70
192
 0
VERTEX
 8
23
 10
-54.5
 20
-3.3
 30
9
 70
192
 0
VERTEX
 8
23
 10
-54.5
 20
-3.3
 30
9
 70
192
 0
VERTEX
 8
23
 10
-54.5
 20
-3.6774
 30
10.8948
 70
192
 0
VERTEX
 8
23
 10
-54.5
 20
-3.6774
 30
10.8948
 70
192
 0
VERTEX
 8
23
 10
-54.5
 20
-4.7492
 30
12.4992
 70
192
 0
VERTEX
 8
23
 10
-54.5
 20
-4.7492
 30
12.4992
 70
192
 0
VERTEX
 8
23
 10
-54.5
 20
-6.3566
 30
13.5735
 70
192
 0
VERTEX
 8
23
 10
-54.5
 20
-6.3566
 30
13.5735
 70
192
 0
VERTEX
 8
23
 10
-54.5
 20
-8.25
 30
13.9496
 70
192
 0
VERTEX
 8
23
 10
-54.5
 20
-8.25
 30
13.9496
 70
192
 0
VERTEX
 8
23
 10
-54.5
 20
-10.1434
 30
13.5735
 70
192
 0
VERTEX
 8
23
 10
-54.5
 20
-10.1434
 30
13.5735
 70
192
 0
VERTEX
 8
23
 10
-54.5
 20
-11.7508
 30
12.4992
 70
192
 0
VERTEX
 8
23
 10
-54.5
 20
-11.7508
 30
12.4992
 70
192
 0
VERTEX
 8
23
 10
-54.5
 20
-12.8226
 30
10.8948
 70
192
 0
VERTEX
 8
23
 10
-54.5
 20
-12.8226
 30
10.8948
 70
192
 0
VERTEX
 8
23
 10
-55.7
 20
-19.5803
 30
-10.1733
 70
192
 0
VERTEX
 8
23
 10
-55.7
 20
-19.5803
 30
-10.1733
 70
192
 0
VERTEX
 8
23
 10
-55.7
 20
-19.5803
 30
-10.1733
 70
192
 0
VERTEX
 8
23
 10
-55.7
 20
-3.6484
 30
3.7251
 70
192
 0
VERTEX
 8
23
 10
-55.7
 20
-3.6484
 30
3.7251
 70
192
 0
VERTEX
 8
23
 10
-55.7
 20
-3.6484
 30
3.7251
 70
192
 0
VERTEX
 8
23
 10
-55.7
 20
-2.0949
 30
5.6668
 70
192
 0
VERTEX
 8
23
 10
-55.7
 20
-2.0949
 30
5.6668
 70
192
 0
VERTEX
 8
23
 10
-55.7
 20
-1.3183
 30
8.0262
 70
192
 0
VERTEX
 8
23
 10
-55.7
 20
-1.3183
 30
8.0262
 70
192
 0
VERTEX
 8
23
 10
-55.7
 20
-1.4152
 30
10.5118
 70
192
 0
VERTEX
 8
23
 10
-55.7
 20
-1.4152
 30
10.5118
 70
192
 0
VERTEX
 8
23
 10
-55.7
 20
-2.3744
 30
12.8043
 70
192
 0
VERTEX
 8
23
 10
-55.7
 20
-2.3744
 30
12.8043
 70
192
 0
VERTEX
 8
23
 10
-55.7
 20
-4.073
 30
14.617
 70
192
 0
VERTEX
 8
23
 10
-55.7
 20
-4.073
 30
14.617
 70
192
 0
VERTEX
 8
23
 10
-55.7
 20
-6.3013
 30
15.7232
 70
192
 0
VERTEX
 8
23
 10
-55.7
 20
-6.3013
 30
15.7232
 70
192
 0
VERTEX
 8
23
 10
-55.7
 20
-8.7721
 30
15.9801
 70
192
 0
VERTEX
 8
23
 10
-55.7
 20
-8.7721
 30
15.9801
 70
192
 0
VERTEX
 8
23
 10
-55.7
 20
-11.178
 30
15.3581
 70
192
 0
VERTEX
 8
23
 10
-55.7
 20
-11.178
 30
15.3581
 70
192
 0
VERTEX
 8
23
 10
-55.7
 20
-13.2166
 30
13.9325
 70
192
 0
VERTEX
 8
23
 10
-55.7
 20
-13.2166
 30
13.9325
 70
192
 0
VERTEX
 8
23
 10
-55.7
 20
-14.6264
 30
11.8875
 70
192
 0
VERTEX
 8
23
 10
-55.7
 20
-14.6264
 30
11.8875
 70
192
 0
VERTEX
 8
23
 10
-55.7
 20
-15.2338
 30
9.4761
 70
192
 0
VERTEX
 8
23
 10
-55.7
 20
-15.2338
 30
9.4761
 70
192
 0
VERTEX
 8
23
 10
-55.7
 20
-15.2338
 30
9.4761
 70
192
 0
VERTEX
 8
23
 10
-55.7
 20
-13.2
 30
9
 70
192
 0
VERTEX
 8
23
 10
-55.7
 20
-13.2
 30
9
 70
192
 0
VERTEX
 8
23
 10
-55.7
 20
-13.2
 30
9
 70
192
 0
VERTEX
 8
23
 10
-55.7
 20
-12.8226
 30
10.8948
 70
192
 0
VERTEX
 8
23
 10
-55.7
 20
-12.8226
 30
10.8948
 70
192
 0
VERTEX
 8
23
 10
-55.7
 20
-11.7508
 30
12.4992
 70
192
 0
VERTEX
 8
23
 10
-55.7
 20
-11.7508
 30
12.4992
 70
192
 0
VERTEX
 8
23
 10
-55.7
 20
-10.1434
 30
13.5735
 70
192
 0
VERTEX
 8
23
 10
-55.7
 20
-10.1434
 30
13.5735
 70
192
 0
VERTEX
 8
23
 10
-55.7
 20
-8.25
 30
13.9496
 70
192
 0
VERTEX
 8
23
 10
-55.7
 20
-8.25
 30
13.9496
 70
192
 0
VERTEX
 8
23
 10
-55.7
 20
-6.3566
 30
13.5735
 70
192
 0
VERTEX
 8
23
 10
-55.7
 20
-6.3566
 30
13.5735
 70
192
 0
VERTEX
 8
23
 10
-55.7
 20
-4.7492
 30
12.4992
 70
192
 0
VERTEX
 8
23
 10
-55.7
 20
-4.7492
 30
12.4992
 70
192
 0
VERTEX
 8
23
 10
-55.7
 20
-3.6774
 30
10.8948
 70
192
 0
VERTEX
 8
23
 10
-55.7
 20
-3.6774
 30
10.8948
 70
192
 0
VERTEX
 8
23
 10
-55.7
 20
-3.3
 30
9
 70
192
 0
VERTEX
 8
23
 10
-55.7
 20
-3.3
 30
9
 70
192
 0
VERTEX
 8
23
 10
-55.7
 20
-3.3
 30
9
 70
192
 0
VERTEX
 8
23
 10
-55.7
 20
-3.6774
 30
7.1052
 70
192
 0
VERTEX
 8
23
 10
-55.7
 20
-3.6774
 30
7.1052
 70
192
 0
VERTEX
 8
23
 10
-55.7
 20
-4.7492
 30
5.5008
 70
192
 0
VERTEX
 8
23
 10
-55.7
 20
-4.7492
 30
5.5008
 70
192
 0
VERTEX
 8
23
 10
-55.7
 20
-6.3566
 30
4.4265
 70
192
 0
VERTEX
 8
23
 10
-55.7
 20
-6.3566
 30
4.4265
 70
192
 0
VERTEX
 8
23
 10
-55.7
 20
-8.25
 30
4.0504
 70
192
 0
VERTEX
 8
23
 10
-55.7
 20
-8.25
 30
4.0504
 70
192
 0
VERTEX
 8
23
 10
-55.7
 20
-10.1434
 30
4.4265
 70
192
 0
VERTEX
 8
23
 10
-55.7
 20
-10.1434
 30
4.4265
 70
192
 0
VERTEX
 8
23
 10
-55.7
 20
-11.7508
 30
5.5008
 70
192
 0
VERTEX
 8
23
 10
-55.7
 20
-11.7508
 30
5.5008
 70
192
 0
VERTEX
 8
23
 10
-55.7
 20
-12.8226
 30
7.1052
 70
192
 0
VERTEX
 8
23
 10
-55.7
 20
-12.8226
 30
7.1052
 70
192
 0
VERTEX
 8
23
 10
-55.6608
 20
-19.8758
 30
-10.431
 70
192
 0
VERTEX
 8
23
 10
-55.6608
 20
-19.8758
 30
-10.431
 70
192
 0
VERTEX
 8
23
 10
-55.5556
 20
-20.132
 30
-10.6546
 70
192
 0
VERTEX
 8
23
 10
-55.5556
 20
-20.132
 30
-10.6546
 70
192
 0
VERTEX
 8
23
 10
-55.2
 20
-20.5032
 30
-10.9784
 70
192
 0
VERTEX
 8
23
 10
-55.2
 20
-20.5032
 30
-10.9784
 70
192
 0
VERTEX
 8
23
 10
-55.2
 20
-20.5032
 30
-10.9784
 70
192
 0
VERTEX
 8
23
 10
-54.7394
 20
-20.6745
 30
-11.533
 70
192
 0
VERTEX
 8
23
 10
-54.7394
 20
-20.6745
 30
-11.533
 70
192
 0
VERTEX
 8
23
 10
-54.8491
 20
-20.6479
 30
-11.2954
 70
192
 0
VERTEX
 8
23
 10
-54.8491
 20
-20.6479
 30
-11.2954
 70
192
 0
VERTEX
 8
23
 10
-55.0105
 20
-20.5969
 30
-11.1096
 70
192
 0
VERTEX
 8
23
 10
-55.0105
 20
-20.5969
 30
-11.1096
 70
192
 0
VERTEX
 8
23
 10
-59.5
 20
-17
 30
9
 70
192
 0
VERTEX
 8
23
 10
-59.5
 20
-17
 30
9
 70
192
 0
VERTEX
 8
23
 10
-59.5
 20
-17
 30
9
 70
192
 0
VERTEX
 8
23
 10
-59.5
 20
-16.4849
 30
6.0425
 70
192
 0
VERTEX
 8
23
 10
-59.5
 20
-16.4849
 30
6.0425
 70
192
 0
VERTEX
 8
23
 10
-59.5
 20
-14.9678
 30
3.3938
 70
192
 0
VERTEX
 8
23
 10
-59.5
 20
-14.9678
 30
3.3938
 70
192
 0
VERTEX
 8
23
 10
-59.5
 20
-12.64
 30
1.4313
 70
192
 0
VERTEX
 8
23
 10
-59.5
 20
-12.64
 30
1.4313
 70
192
 0
VERTEX
 8
23
 10
-59.5
 20
-9.775
 30
0.384
 70
192
 0
VERTEX
 8
23
 10
-59.5
 20
-9.775
 30
0.384
 70
192
 0
VERTEX
 8
23
 10
-59.5
 20
-6.7249
 30
0.384
 70
192
 0
VERTEX
 8
23
 10
-59.5
 20
-6.7249
 30
0.384
 70
192
 0
VERTEX
 8
23
 10
-59.5
 20
-3.8599
 30
1.4314
 70
192
 0
VERTEX
 8
23
 10
-59.5
 20
-3.8599
 30
1.4314
 70
192
 0
VERTEX
 8
23
 10
-59.5
 20
-1.5322
 30
3.3939
 70
192
 0
VERTEX
 8
23
 10
-59.5
 20
-1.5322
 30
3.3939
 70
192
 0
VERTEX
 8
23
 10
-59.5
 20
-0.0151
 30
6.0426
 70
192
 0
VERTEX
 8
23
 10
-59.5
 20
-0.0151
 30
6.0426
 70
192
 0
VERTEX
 8
23
 10
-59.5
 20
0.5
 30
9
 70
192
 0
VERTEX
 8
23
 10
-59.5
 20
0.5
 30
9
 70
192
 0
VERTEX
 8
23
 10
-59.5
 20
0.5
 30
9
 70
192
 0
VERTEX
 8
23
 10
-59.5
 20
-0.0151
 30
11.9575
 70
192
 0
VERTEX
 8
23
 10
-59.5
 20
-0.0151
 30
11.9575
 70
192
 0
VERTEX
 8
23
 10
-59.5
 20
-1.5322
 30
14.6062
 70
192
 0
VERTEX
 8
23
 10
-59.5
 20
-1.5322
 30
14.6062
 70
192
 0
VERTEX
 8
23
 10
-59.5
 20
-3.86
 30
16.5687
 70
192
 0
VERTEX
 8
23
 10
-59.5
 20
-3.86
 30
16.5687
 70
192
 0
VERTEX
 8
23
 10
-59.5
 20
-6.725
 30
17.616
 70
192
 0
VERTEX
 8
23
 10
-59.5
 20
-6.725
 30
17.616
 70
192
 0
VERTEX
 8
23
 10
-59.5
 20
-9.7751
 30
17.616
 70
192
 0
VERTEX
 8
23
 10
-59.5
 20
-9.7751
 30
17.616
 70
192
 0
VERTEX
 8
23
 10
-59.5
 20
-12.6401
 30
16.5686
 70
192
 0
VERTEX
 8
23
 10
-59.5
 20
-12.6401
 30
16.5686
 70
192
 0
VERTEX
 8
23
 10
-59.5
 20
-14.9678
 30
14.6061
 70
192
 0
VERTEX
 8
23
 10
-59.5
 20
-14.9678
 30
14.6061
 70
192
 0
VERTEX
 8
23
 10
-59.5
 20
-16.4849
 30
11.9574
 70
192
 0
VERTEX
 8
23
 10
-59.5
 20
-16.4849
 30
11.9574
 70
192
 0
VERTEX
 8
23
 10
-59.25
 20
0.75
 30
9
 70
192
 0
VERTEX
 8
23
 10
-59.25
 20
0.75
 30
9
 70
192
 0
VERTEX
 8
23
 10
-59.25
 20
0.75
 30
9
 70
192
 0
VERTEX
 8
23
 10
-59.25
 20
0.75
 30
9
 70
192
 0
VERTEX
 8
23
 10
-56.5
 20
0.75
 30
9
 70
192
 0
VERTEX
 8
23
 10
-56.5
 20
0.75
 30
9
 70
192
 0
VERTEX
 8
23
 10
-56.5
 20
0.75
 30
9
 70
192
 0
VERTEX
 8
23
 10
-56.5
 20
0.2071
 30
12.0781
 70
192
 0
VERTEX
 8
23
 10
-56.5
 20
0.2071
 30
12.0781
 70
192
 0
VERTEX
 8
23
 10
-56.5
 20
-1.3557
 30
14.785
 70
192
 0
VERTEX
 8
23
 10
-56.5
 20
-1.3557
 30
14.785
 70
192
 0
VERTEX
 8
23
 10
-56.5
 20
-3.75
 30
16.7942
 70
192
 0
VERTEX
 8
23
 10
-56.5
 20
-3.75
 30
16.7942
 70
192
 0
VERTEX
 8
23
 10
-56.5
 20
-6.6872
 30
17.8631
 70
192
 0
VERTEX
 8
23
 10
-56.5
 20
-6.6872
 30
17.8631
 70
192
 0
VERTEX
 8
23
 10
-56.5
 20
-9.8128
 30
17.8631
 70
192
 0
VERTEX
 8
23
 10
-56.5
 20
-9.8128
 30
17.8631
 70
192
 0
VERTEX
 8
23
 10
-56.5
 20
-12.75
 30
16.7942
 70
192
 0
VERTEX
 8
23
 10
-56.5
 20
-12.75
 30
16.7942
 70
192
 0
VERTEX
 8
23
 10
-56.5
 20
-15.1442
 30
14.785
 70
192
 0
VERTEX
 8
23
 10
-56.5
 20
-15.1442
 30
14.785
 70
192
 0
VERTEX
 8
23
 10
-56.5
 20
-16.7071
 30
12.0781
 70
192
 0
VERTEX
 8
23
 10
-56.5
 20
-16.7071
 30
12.0781
 70
192
 0
VERTEX
 8
23
 10
-56.5
 20
-17.25
 30
9
 70
192
 0
VERTEX
 8
23
 10
-56.5
 20
-17.25
 30
9
 70
192
 0
VERTEX
 8
23
 10
-56.5
 20
-17.25
 30
9
 70
192
 0
VERTEX
 8
23
 10
-59.25
 20
-17.25
 30
9
 70
192
 0
VERTEX
 8
23
 10
-59.25
 20
-17.25
 30
9
 70
192
 0
VERTEX
 8
23
 10
-59.25
 20
-17.25
 30
9
 70
192
 0
VERTEX
 8
23
 10
-59.25
 20
-17.25
 30
9
 70
192
 0
VERTEX
 8
23
 10
-59.25
 20
-16.7072
 30
12.0782
 70
192
 0
VERTEX
 8
23
 10
-59.25
 20
-16.7072
 30
12.0782
 70
192
 0
VERTEX
 8
23
 10
-59.25
 20
-15.1444
 30
14.7851
 70
192
 0
VERTEX
 8
23
 10
-59.25
 20
-15.1444
 30
14.7851
 70
192
 0
VERTEX
 8
23
 10
-59.25
 20
-12.75
 30
16.7942
 70
192
 0
VERTEX
 8
23
 10
-59.25
 20
-12.75
 30
16.7942
 70
192
 0
VERTEX
 8
23
 10
-59.25
 20
-9.8128
 30
17.8633
 70
192
 0
VERTEX
 8
23
 10
-59.25
 20
-9.8128
 30
17.8633
 70
192
 0
VERTEX
 8
23
 10
-59.25
 20
-6.6872
 30
17.8633
 70
192
 0
VERTEX
 8
23
 10
-59.25
 20
-6.6872
 30
17.8633
 70
192
 0
VERTEX
 8
23
 10
-59.25
 20
-3.75
 30
16.7942
 70
192
 0
VERTEX
 8
23
 10
-59.25
 20
-3.75
 30
16.7942
 70
192
 0
VERTEX
 8
23
 10
-59.25
 20
-1.3556
 30
14.7851
 70
192
 0
VERTEX
 8
23
 10
-59.25
 20
-1.3556
 30
14.7851
 70
192
 0
VERTEX
 8
23
 10
-59.25
 20
0.2072
 30
12.0782
 70
192
 0
VERTEX
 8
23
 10
-59.25
 20
0.2072
 30
12.0782
 70
192
 0
VERTEX
 8
23
 10
-56.5
 20
0.2071
 30
5.9219
 70
192
 0
VERTEX
 8
23
 10
-56.5
 20
0.2071
 30
5.9219
 70
192
 0
VERTEX
 8
23
 10
-56.5
 20
-1.3557
 30
3.215
 70
192
 0
VERTEX
 8
23
 10
-56.5
 20
-1.3557
 30
3.215
 70
192
 0
VERTEX
 8
23
 10
-56.5
 20
-3.75
 30
1.2058
 70
192
 0
VERTEX
 8
23
 10
-56.5
 20
-3.75
 30
1.2058
 70
192
 0
VERTEX
 8
23
 10
-56.5
 20
-6.6872
 30
0.1369
 70
192
 0
VERTEX
 8
23
 10
-56.5
 20
-6.6872
 30
0.1369
 70
192
 0
VERTEX
 8
23
 10
-56.5
 20
-9.8128
 30
0.1369
 70
192
 0
VERTEX
 8
23
 10
-56.5
 20
-9.8128
 30
0.1369
 70
192
 0
VERTEX
 8
23
 10
-56.5
 20
-12.75
 30
1.2058
 70
192
 0
VERTEX
 8
23
 10
-56.5
 20
-12.75
 30
1.2058
 70
192
 0
VERTEX
 8
23
 10
-56.5
 20
-15.1442
 30
3.215
 70
192
 0
VERTEX
 8
23
 10
-56.5
 20
-15.1442
 30
3.215
 70
192
 0
VERTEX
 8
23
 10
-56.5
 20
-16.7071
 30
5.9219
 70
192
 0
VERTEX
 8
23
 10
-56.5
 20
-16.7071
 30
5.9219
 70
192
 0
VERTEX
 8
23
 10
-56.5
 20
-13.2
 30
9
 70
192
 0
VERTEX
 8
23
 10
-56.5
 20
-13.2
 30
9
 70
192
 0
VERTEX
 8
23
 10
-56.5
 20
-13.2
 30
9
 70
192
 0
VERTEX
 8
23
 10
-56.5
 20
-12.823
 30
7.1059
 70
192
 0
VERTEX
 8
23
 10
-56.5
 20
-12.823
 30
7.1059
 70
192
 0
VERTEX
 8
23
 10
-56.5
 20
-11.7505
 30
5.5002
 70
192
 0
VERTEX
 8
23
 10
-56.5
 20
-11.7505
 30
5.5002
 70
192
 0
VERTEX
 8
23
 10
-56.5
 20
-10.142
 30
4.4261
 70
192
 0
VERTEX
 8
23
 10
-56.5
 20
-10.142
 30
4.4261
 70
192
 0
VERTEX
 8
23
 10
-56.5
 20
-8.25
 30
4.0507
 70
192
 0
VERTEX
 8
23
 10
-56.5
 20
-8.25
 30
4.0507
 70
192
 0
VERTEX
 8
23
 10
-56.5
 20
-6.358
 30
4.4261
 70
192
 0
VERTEX
 8
23
 10
-56.5
 20
-6.358
 30
4.4261
 70
192
 0
VERTEX
 8
23
 10
-56.5
 20
-4.7495
 30
5.5002
 70
192
 0
VERTEX
 8
23
 10
-56.5
 20
-4.7495
 30
5.5002
 70
192
 0
VERTEX
 8
23
 10
-56.5
 20
-3.677
 30
7.1059
 70
192
 0
VERTEX
 8
23
 10
-56.5
 20
-3.677
 30
7.1059
 70
192
 0
VERTEX
 8
23
 10
-56.5
 20
-3.3
 30
9
 70
192
 0
VERTEX
 8
23
 10
-56.5
 20
-3.3
 30
9
 70
192
 0
VERTEX
 8
23
 10
-56.5
 20
-3.3
 30
9
 70
192
 0
VERTEX
 8
23
 10
-56.5
 20
-3.677
 30
10.8941
 70
192
 0
VERTEX
 8
23
 10
-56.5
 20
-3.677
 30
10.8941
 70
192
 0
VERTEX
 8
23
 10
-56.5
 20
-4.7495
 30
12.4998
 70
192
 0
VERTEX
 8
23
 10
-56.5
 20
-4.7495
 30
12.4998
 70
192
 0
VERTEX
 8
23
 10
-56.5
 20
-6.358
 30
13.5739
 70
192
 0
VERTEX
 8
23
 10
-56.5
 20
-6.358
 30
13.5739
 70
192
 0
VERTEX
 8
23
 10
-56.5
 20
-8.25
 30
13.9493
 70
192
 0
VERTEX
 8
23
 10
-56.5
 20
-8.25
 30
13.9493
 70
192
 0
VERTEX
 8
23
 10
-56.5
 20
-10.142
 30
13.5739
 70
192
 0
VERTEX
 8
23
 10
-56.5
 20
-10.142
 30
13.5739
 70
192
 0
VERTEX
 8
23
 10
-56.5
 20
-11.7505
 30
12.4998
 70
192
 0
VERTEX
 8
23
 10
-56.5
 20
-11.7505
 30
12.4998
 70
192
 0
VERTEX
 8
23
 10
-56.5
 20
-12.823
 30
10.8941
 70
192
 0
VERTEX
 8
23
 10
-56.5
 20
-12.823
 30
10.8941
 70
192
 0
VERTEX
 8
23
 10
-59.25
 20
0.2072
 30
5.9218
 70
192
 0
VERTEX
 8
23
 10
-59.25
 20
0.2072
 30
5.9218
 70
192
 0
VERTEX
 8
23
 10
-59.25
 20
-1.3556
 30
3.2149
 70
192
 0
VERTEX
 8
23
 10
-59.25
 20
-1.3556
 30
3.2149
 70
192
 0
VERTEX
 8
23
 10
-59.25
 20
-3.75
 30
1.2058
 70
192
 0
VERTEX
 8
23
 10
-59.25
 20
-3.75
 30
1.2058
 70
192
 0
VERTEX
 8
23
 10
-59.25
 20
-6.6872
 30
0.1367
 70
192
 0
VERTEX
 8
23
 10
-59.25
 20
-6.6872
 30
0.1367
 70
192
 0
VERTEX
 8
23
 10
-59.25
 20
-9.8128
 30
0.1367
 70
192
 0
VERTEX
 8
23
 10
-59.25
 20
-9.8128
 30
0.1367
 70
192
 0
VERTEX
 8
23
 10
-59.25
 20
-12.75
 30
1.2058
 70
192
 0
VERTEX
 8
23
 10
-59.25
 20
-12.75
 30
1.2058
 70
192
 0
VERTEX
 8
23
 10
-59.25
 20
-15.1444
 30
3.2149
 70
192
 0
VERTEX
 8
23
 10
-59.25
 20
-15.1444
 30
3.2149
 70
192
 0
VERTEX
 8
23
 10
-59.25
 20
-16.7072
 30
5.9218
 70
192
 0
VERTEX
 8
23
 10
-59.25
 20
-16.7072
 30
5.9218
 70
192
 0
VERTEX
 8
23
 10
-59.4268
 20
-17.1768
 30
9
 70
192
 0
VERTEX
 8
23
 10
-59.4268
 20
-17.1768
 30
9
 70
192
 0
VERTEX
 8
23
 10
-59.4268
 20
-16.6384
 30
12.0531
 70
192
 0
VERTEX
 8
23
 10
-59.4268
 20
-15.0883
 30
14.738
 70
192
 0
VERTEX
 8
23
 10
-59.4268
 20
-12.7134
 30
16.7308
 70
192
 0
VERTEX
 8
23
 10
-59.4268
 20
-9.8001
 30
17.7912
 70
192
 0
VERTEX
 8
23
 10
-59.4268
 20
-6.6999
 30
17.7912
 70
192
 0
VERTEX
 8
23
 10
-59.4268
 20
-3.7866
 30
16.7308
 70
192
 0
VERTEX
 8
23
 10
-59.4268
 20
-1.4117
 30
14.738
 70
192
 0
VERTEX
 8
23
 10
-59.4268
 20
0.1384
 30
12.0531
 70
192
 0
VERTEX
 8
23
 10
-59.4268
 20
0.6768
 30
9
 70
192
 0
VERTEX
 8
23
 10
-59.4268
 20
0.6768
 30
9
 70
192
 0
VERTEX
 8
23
 10
-59.4268
 20
0.1384
 30
5.9469
 70
192
 0
VERTEX
 8
23
 10
-59.4268
 20
-1.4117
 30
3.262
 70
192
 0
VERTEX
 8
23
 10
-59.4268
 20
-3.7866
 30
1.2692
 70
192
 0
VERTEX
 8
23
 10
-59.4268
 20
-6.6999
 30
0.2088
 70
192
 0
VERTEX
 8
23
 10
-59.4268
 20
-9.8001
 30
0.2088
 70
192
 0
VERTEX
 8
23
 10
-59.4268
 20
-12.7134
 30
1.2692
 70
192
 0
VERTEX
 8
23
 10
-59.4268
 20
-15.0883
 30
3.262
 70
192
 0
VERTEX
 8
23
 10
-59.4268
 20
-16.6384
 30
5.9469
 70
192
 0
VERTEX
 8
23
 10
-49.15
 20
-3.3
 30
9
 70
192
 0
VERTEX
 8
23
 10
-49.15
 20
-3.3
 30
9
 70
192
 0
VERTEX
 8
23
 10
-49.15
 20
-3.3
 30
9
 70
192
 0
VERTEX
 8
23
 10
-49.15
 20
-3.3
 30
9
 70
192
 0
VERTEX
 8
23
 10
-49.15
 20
-3.6768
 30
10.8942
 70
192
 0
VERTEX
 8
23
 10
-49.15
 20
-3.6768
 30
10.8942
 70
192
 0
VERTEX
 8
23
 10
-49.15
 20
-4.7496
 30
12.5
 70
192
 0
VERTEX
 8
23
 10
-49.15
 20
-4.7496
 30
12.5
 70
192
 0
VERTEX
 8
23
 10
-49.15
 20
-6.3557
 30
13.5732
 70
192
 0
VERTEX
 8
23
 10
-49.15
 20
-6.3557
 30
13.5732
 70
192
 0
VERTEX
 8
23
 10
-49.15
 20
-8.25
 30
13.95
 70
192
 0
VERTEX
 8
23
 10
-49.15
 20
-8.25
 30
13.95
 70
192
 0
VERTEX
 8
23
 10
-49.15
 20
-10.1443
 30
13.5732
 70
192
 0
VERTEX
 8
23
 10
-49.15
 20
-10.1443
 30
13.5732
 70
192
 0
VERTEX
 8
23
 10
-49.15
 20
-11.7503
 30
12.5
 70
192
 0
VERTEX
 8
23
 10
-49.15
 20
-11.7503
 30
12.5
 70
192
 0
VERTEX
 8
23
 10
-49.15
 20
-12.8232
 30
10.8942
 70
192
 0
VERTEX
 8
23
 10
-49.15
 20
-12.8232
 30
10.8942
 70
192
 0
VERTEX
 8
23
 10
-49.15
 20
-13.2
 30
9
 70
192
 0
VERTEX
 8
23
 10
-49.15
 20
-13.2
 30
9
 70
192
 0
VERTEX
 8
23
 10
-49.15
 20
-13.2
 30
9
 70
192
 0
VERTEX
 8
23
 10
-49.15
 20
-13.2
 30
9
 70
192
 0
VERTEX
 8
23
 10
-46.85
 20
-4.6
 30
9
 70
192
 0
VERTEX
 8
23
 10
-46.85
 20
-4.6
 30
9
 70
192
 0
VERTEX
 8
23
 10
-46.85
 20
-4.6
 30
9
 70
192
 0
VERTEX
 8
23
 10
-46.85
 20
-4.6
 30
9
 70
192
 0
VERTEX
 8
23
 10
-46.85
 20
-4.6917
 30
9.8129
 70
192
 0
VERTEX
 8
23
 10
-46.85
 20
-4.6917
 30
9.8129
 70
192
 0
VERTEX
 8
23
 10
-46.85
 20
-4.9613
 30
10.5833
 70
192
 0
VERTEX
 8
23
 10
-46.85
 20
-4.9613
 30
10.5833
 70
192
 0
VERTEX
 8
23
 10
-46.85
 20
-5.3961
 30
11.2754
 70
192
 0
VERTEX
 8
23
 10
-46.85
 20
-5.3961
 30
11.2754
 70
192
 0
VERTEX
 8
23
 10
-46.85
 20
-5.9746
 30
11.8539
 70
192
 0
VERTEX
 8
23
 10
-46.85
 20
-5.9746
 30
11.8539
 70
192
 0
VERTEX
 8
23
 10
-46.85
 20
-6.6667
 30
12.2887
 70
192
 0
VERTEX
 8
23
 10
-46.85
 20
-6.6667
 30
12.2887
 70
192
 0
VERTEX
 8
23
 10
-46.85
 20
-7.4371
 30
12.5583
 70
192
 0
VERTEX
 8
23
 10
-46.85
 20
-7.4371
 30
12.5583
 70
192
 0
VERTEX
 8
23
 10
-46.85
 20
-8.25
 30
12.65
 70
192
 0
VERTEX
 8
23
 10
-46.85
 20
-8.25
 30
12.65
 70
192
 0
VERTEX
 8
23
 10
-46.85
 20
-9.0629
 30
12.5583
 70
192
 0
VERTEX
 8
23
 10
-46.85
 20
-9.0629
 30
12.5583
 70
192
 0
VERTEX
 8
23
 10
-46.85
 20
-9.8333
 30
12.2887
 70
192
 0
VERTEX
 8
23
 10
-46.85
 20
-9.8333
 30
12.2887
 70
192
 0
VERTEX
 8
23
 10
-46.85
 20
-10.5254
 30
11.8539
 70
192
 0
VERTEX
 8
23
 10
-46.85
 20
-10.5254
 30
11.8539
 70
192
 0
VERTEX
 8
23
 10
-46.85
 20
-11.1039
 30
11.2754
 70
192
 0
VERTEX
 8
23
 10
-46.85
 20
-11.1039
 30
11.2754
 70
192
 0
VERTEX
 8
23
 10
-46.85
 20
-11.5387
 30
10.5833
 70
192
 0
VERTEX
 8
23
 10
-46.85
 20
-11.5387
 30
10.5833
 70
192
 0
VERTEX
 8
23
 10
-46.85
 20
-11.8083
 30
9.8129
 70
192
 0
VERTEX
 8
23
 10
-46.85
 20
-11.8083
 30
9.8129
 70
192
 0
VERTEX
 8
23
 10
-46.85
 20
-11.9
 30
9
 70
192
 0
VERTEX
 8
23
 10
-46.85
 20
-11.9
 30
9
 70
192
 0
VERTEX
 8
23
 10
-46.85
 20
-11.9
 30
9
 70
192
 0
VERTEX
 8
23
 10
-46.85
 20
-11.9
 30
9
 70
192
 0
VERTEX
 8
23
 10
-47.85
 20
-11.9
 30
9
 70
192
 0
VERTEX
 8
23
 10
-47.85
 20
-11.9
 30
9
 70
192
 0
VERTEX
 8
23
 10
-47.85
 20
-11.9
 30
9
 70
192
 0
VERTEX
 8
23
 10
-47.85
 20
-11.9
 30
9
 70
192
 0
VERTEX
 8
23
 10
-47.85
 20
-11.8083
 30
9.8129
 70
192
 0
VERTEX
 8
23
 10
-47.85
 20
-11.8083
 30
9.8129
 70
192
 0
VERTEX
 8
23
 10
-47.85
 20
-11.5387
 30
10.5833
 70
192
 0
VERTEX
 8
23
 10
-47.85
 20
-11.5387
 30
10.5833
 70
192
 0
VERTEX
 8
23
 10
-47.85
 20
-11.1039
 30
11.2754
 70
192
 0
VERTEX
 8
23
 10
-47.85
 20
-11.1039
 30
11.2754
 70
192
 0
VERTEX
 8
23
 10
-47.85
 20
-10.5254
 30
11.8539
 70
192
 0
VERTEX
 8
23
 10
-47.85
 20
-10.5254
 30
11.8539
 70
192
 0
VERTEX
 8
23
 10
-47.85
 20
-9.8333
 30
12.2887
 70
192
 0
VERTEX
 8
23
 10
-47.85
 20
-9.8333
 30
12.2887
 70
192
 0
VERTEX
 8
23
 10
-47.85
 20
-9.0629
 30
12.5583
 70
192
 0
VERTEX
 8
23
 10
-47.85
 20
-9.0629
 30
12.5583
 70
192
 0
VERTEX
 8
23
 10
-47.85
 20
-8.25
 30
12.65
 70
192
 0
VERTEX
 8
23
 10
-47.85
 20
-8.25
 30
12.65
 70
192
 0
VERTEX
 8
23
 10
-47.85
 20
-7.4371
 30
12.5583
 70
192
 0
VERTEX
 8
23
 10
-47.85
 20
-7.4371
 30
12.5583
 70
192
 0
VERTEX
 8
23
 10
-47.85
 20
-6.6667
 30
12.2887
 70
192
 0
VERTEX
 8
23
 10
-47.85
 20
-6.6667
 30
12.2887
 70
192
 0
VERTEX
 8
23
 10
-47.85
 20
-5.9746
 30
11.8539
 70
192
 0
VERTEX
 8
23
 10
-47.85
 20
-5.9746
 30
11.8539
 70
192
 0
VERTEX
 8
23
 10
-47.85
 20
-5.3961
 30
11.2754
 70
192
 0
VERTEX
 8
23
 10
-47.85
 20
-5.3961
 30
11.2754
 70
192
 0
VERTEX
 8
23
 10
-47.85
 20
-4.9613
 30
10.5833
 70
192
 0
VERTEX
 8
23
 10
-47.85
 20
-4.9613
 30
10.5833
 70
192
 0
VERTEX
 8
23
 10
-47.85
 20
-4.6917
 30
9.8129
 70
192
 0
VERTEX
 8
23
 10
-47.85
 20
-4.6917
 30
9.8129
 70
192
 0
VERTEX
 8
23
 10
-47.85
 20
-4.6
 30
9
 70
192
 0
VERTEX
 8
23
 10
-47.85
 20
-4.6
 30
9
 70
192
 0
VERTEX
 8
23
 10
-47.85
 20
-4.6
 30
9
 70
192
 0
VERTEX
 8
23
 10
-47.85
 20
-4.6
 30
9
 70
192
 0
VERTEX
 8
23
 10
-41.75
 20
-3.3
 30
9
 70
192
 0
VERTEX
 8
23
 10
-41.75
 20
-3.3
 30
9
 70
192
 0
VERTEX
 8
23
 10
-41.75
 20
-3.3
 30
9
 70
192
 0
VERTEX
 8
23
 10
-41.75
 20
-3.3
 30
9
 70
192
 0
VERTEX
 8
23
 10
-41.75
 20
-3.6768
 30
10.8942
 70
192
 0
VERTEX
 8
23
 10
-41.75
 20
-3.6768
 30
10.8942
 70
192
 0
VERTEX
 8
23
 10
-41.75
 20
-4.7496
 30
12.5
 70
192
 0
VERTEX
 8
23
 10
-41.75
 20
-4.7496
 30
12.5
 70
192
 0
VERTEX
 8
23
 10
-41.75
 20
-6.3557
 30
13.5732
 70
192
 0
VERTEX
 8
23
 10
-41.75
 20
-6.3557
 30
13.5732
 70
192
 0
VERTEX
 8
23
 10
-41.75
 20
-8.25
 30
13.95
 70
192
 0
VERTEX
 8
23
 10
-41.75
 20
-8.25
 30
13.95
 70
192
 0
VERTEX
 8
23
 10
-41.75
 20
-10.1443
 30
13.5732
 70
192
 0
VERTEX
 8
23
 10
-41.75
 20
-10.1443
 30
13.5732
 70
192
 0
VERTEX
 8
23
 10
-41.75
 20
-11.7503
 30
12.5
 70
192
 0
VERTEX
 8
23
 10
-41.75
 20
-11.7503
 30
12.5
 70
192
 0
VERTEX
 8
23
 10
-41.75
 20
-12.8232
 30
10.8942
 70
192
 0
VERTEX
 8
23
 10
-41.75
 20
-12.8232
 30
10.8942
 70
192
 0
VERTEX
 8
23
 10
-41.75
 20
-13.2
 30
9
 70
192
 0
VERTEX
 8
23
 10
-41.75
 20
-13.2
 30
9
 70
192
 0
VERTEX
 8
23
 10
-41.75
 20
-13.2
 30
9
 70
192
 0
VERTEX
 8
23
 10
-41.75
 20
-13.2
 30
9
 70
192
 0
VERTEX
 8
23
 10
-45.55
 20
-13.2
 30
9
 70
192
 0
VERTEX
 8
23
 10
-45.55
 20
-13.2
 30
9
 70
192
 0
VERTEX
 8
23
 10
-45.55
 20
-13.2
 30
9
 70
192
 0
VERTEX
 8
23
 10
-45.55
 20
-13.2
 30
9
 70
192
 0
VERTEX
 8
23
 10
-45.55
 20
-12.8232
 30
10.8942
 70
192
 0
VERTEX
 8
23
 10
-45.55
 20
-12.8232
 30
10.8942
 70
192
 0
VERTEX
 8
23
 10
-45.55
 20
-11.7503
 30
12.5
 70
192
 0
VERTEX
 8
23
 10
-45.55
 20
-11.7503
 30
12.5
 70
192
 0
VERTEX
 8
23
 10
-45.55
 20
-10.1443
 30
13.5732
 70
192
 0
VERTEX
 8
23
 10
-45.55
 20
-10.1443
 30
13.5732
 70
192
 0
VERTEX
 8
23
 10
-45.55
 20
-8.25
 30
13.95
 70
192
 0
VERTEX
 8
23
 10
-45.55
 20
-8.25
 30
13.95
 70
192
 0
VERTEX
 8
23
 10
-45.55
 20
-6.3557
 30
13.5732
 70
192
 0
VERTEX
 8
23
 10
-45.55
 20
-6.3557
 30
13.5732
 70
192
 0
VERTEX
 8
23
 10
-45.55
 20
-4.7496
 30
12.5
 70
192
 0
VERTEX
 8
23
 10
-45.55
 20
-4.7496
 30
12.5
 70
192
 0
VERTEX
 8
23
 10
-45.55
 20
-3.6768
 30
10.8942
 70
192
 0
VERTEX
 8
23
 10
-45.55
 20
-3.6768
 30
10.8942
 70
192
 0
VERTEX
 8
23
 10
-45.55
 20
-3.3
 30
9
 70
192
 0
VERTEX
 8
23
 10
-45.55
 20
-3.3
 30
9
 70
192
 0
VERTEX
 8
23
 10
-45.55
 20
-3.3
 30
9
 70
192
 0
VERTEX
 8
23
 10
-45.55
 20
-3.3
 30
9
 70
192
 0
VERTEX
 8
23
 10
-41.5
 20
-12.95
 30
9
 70
192
 0
VERTEX
 8
23
 10
-41.5
 20
-12.95
 30
9
 70
192
 0
VERTEX
 8
23
 10
-41.5
 20
-12.95
 30
9
 70
192
 0
VERTEX
 8
23
 10
-41.5
 20
-12.5917
 30
10.7991
 70
192
 0
VERTEX
 8
23
 10
-41.5
 20
-12.5917
 30
10.7991
 70
192
 0
VERTEX
 8
23
 10
-41.5
 20
-11.5741
 30
12.3223
 70
192
 0
VERTEX
 8
23
 10
-41.5
 20
-11.5741
 30
12.3223
 70
192
 0
VERTEX
 8
23
 10
-41.5
 20
-10.0478
 30
13.3425
 70
192
 0
VERTEX
 8
23
 10
-41.5
 20
-10.0478
 30
13.3425
 70
192
 0
VERTEX
 8
23
 10
-41.5
 20
-8.25
 30
13.6995
 70
192
 0
VERTEX
 8
23
 10
-41.5
 20
-8.25
 30
13.6995
 70
192
 0
VERTEX
 8
23
 10
-41.5
 20
-6.4522
 30
13.3425
 70
192
 0
VERTEX
 8
23
 10
-41.5
 20
-6.4522
 30
13.3425
 70
192
 0
VERTEX
 8
23
 10
-41.5
 20
-4.9259
 30
12.3223
 70
192
 0
VERTEX
 8
23
 10
-41.5
 20
-4.9259
 30
12.3223
 70
192
 0
VERTEX
 8
23
 10
-41.5
 20
-3.9082
 30
10.7991
 70
192
 0
VERTEX
 8
23
 10
-41.5
 20
-3.9082
 30
10.7991
 70
192
 0
VERTEX
 8
23
 10
-41.5
 20
-3.55
 30
9
 70
192
 0
VERTEX
 8
23
 10
-41.5
 20
-3.55
 30
9
 70
192
 0
VERTEX
 8
23
 10
-41.5
 20
-3.55
 30
9
 70
192
 0
VERTEX
 8
23
 10
-41.5
 20
-3.9082
 30
7.2009
 70
192
 0
VERTEX
 8
23
 10
-41.5
 20
-3.9082
 30
7.2009
 70
192
 0
VERTEX
 8
23
 10
-41.5
 20
-4.9259
 30
5.6777
 70
192
 0
VERTEX
 8
23
 10
-41.5
 20
-4.9259
 30
5.6777
 70
192
 0
VERTEX
 8
23
 10
-41.5
 20
-6.4522
 30
4.6575
 70
192
 0
VERTEX
 8
23
 10
-41.5
 20
-6.4522
 30
4.6575
 70
192
 0
VERTEX
 8
23
 10
-41.5
 20
-8.25
 30
4.3005
 70
192
 0
VERTEX
 8
23
 10
-41.5
 20
-8.25
 30
4.3005
 70
192
 0
VERTEX
 8
23
 10
-41.5
 20
-10.0478
 30
4.6575
 70
192
 0
VERTEX
 8
23
 10
-41.5
 20
-10.0478
 30
4.6575
 70
192
 0
VERTEX
 8
23
 10
-41.5
 20
-11.5741
 30
5.6777
 70
192
 0
VERTEX
 8
23
 10
-41.5
 20
-11.5741
 30
5.6777
 70
192
 0
VERTEX
 8
23
 10
-41.5
 20
-12.5917
 30
7.2009
 70
192
 0
VERTEX
 8
23
 10
-41.5
 20
-12.5917
 30
7.2009
 70
192
 0
VERTEX
 8
23
 10
-49.15
 20
-12.8232
 30
7.1057
 70
192
 0
VERTEX
 8
23
 10
-49.15
 20
-12.8232
 30
7.1057
 70
192
 0
VERTEX
 8
23
 10
-49.15
 20
-11.7503
 30
5.5
 70
192
 0
VERTEX
 8
23
 10
-49.15
 20
-11.7503
 30
5.5
 70
192
 0
VERTEX
 8
23
 10
-49.15
 20
-10.1443
 30
4.4268
 70
192
 0
VERTEX
 8
23
 10
-49.15
 20
-10.1443
 30
4.4268
 70
192
 0
VERTEX
 8
23
 10
-49.15
 20
-8.25
 30
4.05
 70
192
 0
VERTEX
 8
23
 10
-49.15
 20
-8.25
 30
4.05
 70
192
 0
VERTEX
 8
23
 10
-49.15
 20
-6.3557
 30
4.4268
 70
192
 0
VERTEX
 8
23
 10
-49.15
 20
-6.3557
 30
4.4268
 70
192
 0
VERTEX
 8
23
 10
-49.15
 20
-4.7496
 30
5.5
 70
192
 0
VERTEX
 8
23
 10
-49.15
 20
-4.7496
 30
5.5
 70
192
 0
VERTEX
 8
23
 10
-49.15
 20
-3.6768
 30
7.1058
 70
192
 0
VERTEX
 8
23
 10
-49.15
 20
-3.6768
 30
7.1058
 70
192
 0
VERTEX
 8
23
 10
-46.85
 20
-11.8083
 30
8.1871
 70
192
 0
VERTEX
 8
23
 10
-46.85
 20
-11.8083
 30
8.1871
 70
192
 0
VERTEX
 8
23
 10
-46.85
 20
-11.5387
 30
7.4167
 70
192
 0
VERTEX
 8
23
 10
-46.85
 20
-11.5387
 30
7.4167
 70
192
 0
VERTEX
 8
23
 10
-46.85
 20
-11.1039
 30
6.7246
 70
192
 0
VERTEX
 8
23
 10
-46.85
 20
-11.1039
 30
6.7246
 70
192
 0
VERTEX
 8
23
 10
-46.85
 20
-10.5254
 30
6.1461
 70
192
 0
VERTEX
 8
23
 10
-46.85
 20
-10.5254
 30
6.1461
 70
192
 0
VERTEX
 8
23
 10
-46.85
 20
-9.8333
 30
5.7113
 70
192
 0
VERTEX
 8
23
 10
-46.85
 20
-9.8333
 30
5.7113
 70
192
 0
VERTEX
 8
23
 10
-46.85
 20
-9.0629
 30
5.4417
 70
192
 0
VERTEX
 8
23
 10
-46.85
 20
-9.0629
 30
5.4417
 70
192
 0
VERTEX
 8
23
 10
-46.85
 20
-8.25
 30
5.35
 70
192
 0
VERTEX
 8
23
 10
-46.85
 20
-8.25
 30
5.35
 70
192
 0
VERTEX
 8
23
 10
-46.85
 20
-7.4371
 30
5.4417
 70
192
 0
VERTEX
 8
23
 10
-46.85
 20
-7.4371
 30
5.4417
 70
192
 0
VERTEX
 8
23
 10
-46.85
 20
-6.6667
 30
5.7113
 70
192
 0
VERTEX
 8
23
 10
-46.85
 20
-6.6667
 30
5.7113
 70
192
 0
VERTEX
 8
23
 10
-46.85
 20
-5.9746
 30
6.1461
 70
192
 0
VERTEX
 8
23
 10
-46.85
 20
-5.9746
 30
6.1461
 70
192
 0
VERTEX
 8
23
 10
-46.85
 20
-5.3961
 30
6.7246
 70
192
 0
VERTEX
 8
23
 10
-46.85
 20
-5.3961
 30
6.7246
 70
192
 0
VERTEX
 8
23
 10
-46.85
 20
-4.9613
 30
7.4167
 70
192
 0
VERTEX
 8
23
 10
-46.85
 20
-4.9613
 30
7.4167
 70
192
 0
VERTEX
 8
23
 10
-46.85
 20
-4.6917
 30
8.1871
 70
192
 0
VERTEX
 8
23
 10
-46.85
 20
-4.6917
 30
8.1871
 70
192
 0
VERTEX
 8
23
 10
-47.85
 20
-4.6917
 30
8.1871
 70
192
 0
VERTEX
 8
23
 10
-47.85
 20
-4.6917
 30
8.1871
 70
192
 0
VERTEX
 8
23
 10
-47.85
 20
-4.9613
 30
7.4167
 70
192
 0
VERTEX
 8
23
 10
-47.85
 20
-4.9613
 30
7.4167
 70
192
 0
VERTEX
 8
23
 10
-47.85
 20
-5.3961
 30
6.7246
 70
192
 0
VERTEX
 8
23
 10
-47.85
 20
-5.3961
 30
6.7246
 70
192
 0
VERTEX
 8
23
 10
-47.85
 20
-5.9746
 30
6.1461
 70
192
 0
VERTEX
 8
23
 10
-47.85
 20
-5.9746
 30
6.1461
 70
192
 0
VERTEX
 8
23
 10
-47.85
 20
-6.6667
 30
5.7113
 70
192
 0
VERTEX
 8
23
 10
-47.85
 20
-6.6667
 30
5.7113
 70
192
 0
VERTEX
 8
23
 10
-47.85
 20
-7.4371
 30
5.4417
 70
192
 0
VERTEX
 8
23
 10
-47.85
 20
-7.4371
 30
5.4417
 70
192
 0
VERTEX
 8
23
 10
-47.85
 20
-8.25
 30
5.35
 70
192
 0
VERTEX
 8
23
 10
-47.85
 20
-8.25
 30
5.35
 70
192
 0
VERTEX
 8
23
 10
-47.85
 20
-9.0629
 30
5.4417
 70
192
 0
VERTEX
 8
23
 10
-47.85
 20
-9.0629
 30
5.4417
 70
192
 0
VERTEX
 8
23
 10
-47.85
 20
-9.8333
 30
5.7113
 70
192
 0
VERTEX
 8
23
 10
-47.85
 20
-9.8333
 30
5.7113
 70
192
 0
VERTEX
 8
23
 10
-47.85
 20
-10.5254
 30
6.1461
 70
192
 0
VERTEX
 8
23
 10
-47.85
 20
-10.5254
 30
6.1461
 70
192
 0
VERTEX
 8
23
 10
-47.85
 20
-11.1039
 30
6.7246
 70
192
 0
VERTEX
 8
23
 10
-47.85
 20
-11.1039
 30
6.7246
 70
192
 0
VERTEX
 8
23
 10
-47.85
 20
-11.5387
 30
7.4167
 70
192
 0
VERTEX
 8
23
 10
-47.85
 20
-11.5387
 30
7.4167
 70
192
 0
VERTEX
 8
23
 10
-47.85
 20
-11.8083
 30
8.1871
 70
192
 0
VERTEX
 8
23
 10
-47.85
 20
-11.8083
 30
8.1871
 70
192
 0
VERTEX
 8
23
 10
-41.75
 20
-12.8232
 30
7.1058
 70
192
 0
VERTEX
 8
23
 10
-41.75
 20
-12.8232
 30
7.1058
 70
192
 0
VERTEX
 8
23
 10
-41.75
 20
-11.7503
 30
5.5
 70
192
 0
VERTEX
 8
23
 10
-41.75
 20
-11.7503
 30
5.5
 70
192
 0
VERTEX
 8
23
 10
-41.75
 20
-10.1443
 30
4.4268
 70
192
 0
VERTEX
 8
23
 10
-41.75
 20
-10.1443
 30
4.4268
 70
192
 0
VERTEX
 8
23
 10
-41.75
 20
-8.25
 30
4.05
 70
192
 0
VERTEX
 8
23
 10
-41.75
 20
-8.25
 30
4.05
 70
192
 0
VERTEX
 8
23
 10
-41.75
 20
-6.3557
 30
4.4268
 70
192
 0
VERTEX
 8
23
 10
-41.75
 20
-6.3557
 30
4.4268
 70
192
 0
VERTEX
 8
23
 10
-41.75
 20
-4.7496
 30
5.5
 70
192
 0
VERTEX
 8
23
 10
-41.75
 20
-4.7496
 30
5.5
 70
192
 0
VERTEX
 8
23
 10
-41.75
 20
-3.6768
 30
7.1058
 70
192
 0
VERTEX
 8
23
 10
-41.75
 20
-3.6768
 30
7.1058
 70
192
 0
VERTEX
 8
23
 10
-45.55
 20
-3.6768
 30
7.1058
 70
192
 0
VERTEX
 8
23
 10
-45.55
 20
-3.6768
 30
7.1058
 70
192
 0
VERTEX
 8
23
 10
-45.55
 20
-4.7496
 30
5.5
 70
192
 0
VERTEX
 8
23
 10
-45.55
 20
-4.7496
 30
5.5
 70
192
 0
VERTEX
 8
23
 10
-45.55
 20
-6.3557
 30
4.4268
 70
192
 0
VERTEX
 8
23
 10
-45.55
 20
-6.3557
 30
4.4268
 70
192
 0
VERTEX
 8
23
 10
-45.55
 20
-8.25
 30
4.05
 70
192
 0
VERTEX
 8
23
 10
-45.55
 20
-8.25
 30
4.05
 70
192
 0
VERTEX
 8
23
 10
-45.55
 20
-10.1443
 30
4.4268
 70
192
 0
VERTEX
 8
23
 10
-45.55
 20
-10.1443
 30
4.4268
 70
192
 0
VERTEX
 8
23
 10
-45.55
 20
-11.7503
 30
5.5
 70
192
 0
VERTEX
 8
23
 10
-45.55
 20
-11.7503
 30
5.5
 70
192
 0
VERTEX
 8
23
 10
-45.55
 20
-12.8232
 30
7.1057
 70
192
 0
VERTEX
 8
23
 10
-45.55
 20
-12.8232
 30
7.1057
 70
192
 0
VERTEX
 8
23
 10
56.5
 20
0.2067
 30
-50.9208
 70
192
 0
VERTEX
 8
23
 10
56.5
 20
0.2067
 30
-50.9208
 70
192
 0
VERTEX
 8
23
 10
56.5
 20
-1.356
 30
-48.2149
 70
192
 0
VERTEX
 8
23
 10
56.5
 20
-1.356
 30
-48.2149
 70
192
 0
VERTEX
 8
23
 10
56.5
 20
-3.7494
 30
-46.2064
 70
192
 0
VERTEX
 8
23
 10
56.5
 20
-3.7494
 30
-46.2064
 70
192
 0
VERTEX
 8
23
 10
56.5
 20
-6.6863
 30
-45.1369
 70
192
 0
VERTEX
 8
23
 10
56.5
 20
-6.6863
 30
-45.1369
 70
192
 0
VERTEX
 8
23
 10
56.5
 20
-9.8137
 30
-45.1369
 70
192
 0
VERTEX
 8
23
 10
56.5
 20
-9.8137
 30
-45.1369
 70
192
 0
VERTEX
 8
23
 10
56.5
 20
-12.7506
 30
-46.2064
 70
192
 0
VERTEX
 8
23
 10
56.5
 20
-12.7506
 30
-46.2064
 70
192
 0
VERTEX
 8
23
 10
56.5
 20
-15.144
 30
-48.2149
 70
192
 0
VERTEX
 8
23
 10
56.5
 20
-15.144
 30
-48.2149
 70
192
 0
VERTEX
 8
23
 10
56.5
 20
-16.7067
 30
-50.9208
 70
192
 0
VERTEX
 8
23
 10
56.5
 20
-16.7067
 30
-50.9208
 70
192
 0
VERTEX
 8
23
 10
-56.5
 20
-16.7067
 30
-50.9208
 70
192
 0
VERTEX
 8
23
 10
-56.5
 20
-16.7067
 30
-50.9208
 70
192
 0
VERTEX
 8
23
 10
-56.5
 20
-15.144
 30
-48.2149
 70
192
 0
VERTEX
 8
23
 10
-56.5
 20
-15.144
 30
-48.2149
 70
192
 0
VERTEX
 8
23
 10
-56.5
 20
-12.7506
 30
-46.2064
 70
192
 0
VERTEX
 8
23
 10
-56.5
 20
-12.7506
 30
-46.2064
 70
192
 0
VERTEX
 8
23
 10
-56.5
 20
-9.8137
 30
-45.1369
 70
192
 0
VERTEX
 8
23
 10
-56.5
 20
-9.8137
 30
-45.1369
 70
192
 0
VERTEX
 8
23
 10
-56.5
 20
-6.6863
 30
-45.1369
 70
192
 0
VERTEX
 8
23
 10
-56.5
 20
-6.6863
 30
-45.1369
 70
192
 0
VERTEX
 8
23
 10
-56.5
 20
-3.7494
 30
-46.2064
 70
192
 0
VERTEX
 8
23
 10
-56.5
 20
-3.7494
 30
-46.2064
 70
192
 0
VERTEX
 8
23
 10
-56.5
 20
-1.356
 30
-48.2149
 70
192
 0
VERTEX
 8
23
 10
-56.5
 20
-1.356
 30
-48.2149
 70
192
 0
VERTEX
 8
23
 10
-56.5
 20
0.2067
 30
-50.9208
 70
192
 0
VERTEX
 8
23
 10
-56.5
 20
0.2067
 30
-50.9208
 70
192
 0
VERTEX
 8
23
 10
-59.5
 20
-20.5
 30
-54
 70
192
 0
VERTEX
 8
23
 10
-59.5
 20
-20.5
 30
-54
 70
192
 0
VERTEX
 8
23
 10
-59.5
 20
-20.5
 30
-54
 70
192
 0
VERTEX
 8
23
 10
-59.5
 20
-19.91
 30
-57.7545
 70
192
 0
VERTEX
 8
23
 10
-59.5
 20
-19.91
 30
-57.7545
 70
192
 0
VERTEX
 8
23
 10
-59.5
 20
-18.1737
 30
-61.1817
 70
192
 0
VERTEX
 8
23
 10
-59.5
 20
-18.1737
 30
-61.1817
 70
192
 0
VERTEX
 8
23
 10
-59.5
 20
-15.4645
 30
-63.9001
 70
192
 0
VERTEX
 8
23
 10
-59.5
 20
-15.4645
 30
-63.9001
 70
192
 0
VERTEX
 8
23
 10
-59.5
 20
-12.0418
 30
-65.6482
 70
192
 0
VERTEX
 8
23
 10
-59.5
 20
-12.0418
 30
-65.6482
 70
192
 0
VERTEX
 8
23
 10
-59.5
 20
-8.25
 30
-66.2497
 70
192
 0
VERTEX
 8
23
 10
-59.5
 20
-8.25
 30
-66.2497
 70
192
 0
VERTEX
 8
23
 10
-59.5
 20
-4.4582
 30
-65.6482
 70
192
 0
VERTEX
 8
23
 10
-59.5
 20
-4.4582
 30
-65.6482
 70
192
 0
VERTEX
 8
23
 10
-59.5
 20
-1.0355
 30
-63.9001
 70
192
 0
VERTEX
 8
23
 10
-59.5
 20
-1.0355
 30
-63.9001
 70
192
 0
VERTEX
 8
23
 10
-59.5
 20
1.6738
 30
-61.1817
 70
192
 0
VERTEX
 8
23
 10
-59.5
 20
1.6738
 30
-61.1817
 70
192
 0
VERTEX
 8
23
 10
-59.5
 20
3.41
 30
-57.7545
 70
192
 0
VERTEX
 8
23
 10
-59.5
 20
3.41
 30
-57.7545
 70
192
 0
VERTEX
 8
23
 10
-59.5
 20
4
 30
-54
 70
192
 0
VERTEX
 8
23
 10
-59.5
 20
4
 30
-54
 70
192
 0
VERTEX
 8
23
 10
-59.5
 20
4
 30
-54
 70
192
 0
VERTEX
 8
23
 10
-59.5
 20
3.41
 30
-50.2455
 70
192
 0
VERTEX
 8
23
 10
-59.5
 20
3.41
 30
-50.2455
 70
192
 0
VERTEX
 8
23
 10
-59.5
 20
1.6738
 30
-46.8183
 70
192
 0
VERTEX
 8
23
 10
-59.5
 20
1.6738
 30
-46.8183
 70
192
 0
VERTEX
 8
23
 10
-59.5
 20
-1.0355
 30
-44.0999
 70
192
 0
VERTEX
 8
23
 10
-59.5
 20
-1.0355
 30
-44.0999
 70
192
 0
VERTEX
 8
23
 10
-59.5
 20
-4.4582
 30
-42.3518
 70
192
 0
VERTEX
 8
23
 10
-59.5
 20
-4.4582
 30
-42.3518
 70
192
 0
VERTEX
 8
23
 10
-59.5
 20
-8.25
 30
-41.7503
 70
192
 0
VERTEX
 8
23
 10
-59.5
 20
-8.25
 30
-41.7503
 70
192
 0
VERTEX
 8
23
 10
-59.5
 20
-12.0418
 30
-42.3518
 70
192
 0
VERTEX
 8
23
 10
-59.5
 20
-12.0418
 30
-42.3518
 70
192
 0
VERTEX
 8
23
 10
-59.5
 20
-15.4645
 30
-44.0999
 70
192
 0
VERTEX
 8
23
 10
-59.5
 20
-15.4645
 30
-44.0999
 70
192
 0
VERTEX
 8
23
 10
-59.5
 20
-18.1737
 30
-46.8183
 70
192
 0
VERTEX
 8
23
 10
-59.5
 20
-18.1737
 30
-46.8183
 70
192
 0
VERTEX
 8
23
 10
-59.5
 20
-19.91
 30
-50.2455
 70
192
 0
VERTEX
 8
23
 10
-59.5
 20
-19.91
 30
-50.2455
 70
192
 0
VERTEX
 8
23
 10
-59.25
 20
4.25
 30
-54
 70
192
 0
VERTEX
 8
23
 10
-59.25
 20
4.25
 30
-54
 70
192
 0
VERTEX
 8
23
 10
-59.25
 20
4.25
 30
-54
 70
192
 0
VERTEX
 8
23
 10
-59.25
 20
4.25
 30
-54
 70
192
 0
VERTEX
 8
23
 10
-56.5
 20
4.25
 30
-54
 70
192
 0
VERTEX
 8
23
 10
-56.5
 20
4.25
 30
-54
 70
192
 0
VERTEX
 8
23
 10
-56.5
 20
4.25
 30
-54
 70
192
 0
VERTEX
 8
23
 10
-56.5
 20
3.6379
 30
-50.1369
 70
192
 0
VERTEX
 8
23
 10
-56.5
 20
3.6379
 30
-50.1369
 70
192
 0
VERTEX
 8
23
 10
-56.5
 20
1.8624
 30
-46.6528
 70
192
 0
VERTEX
 8
23
 10
-56.5
 20
1.8624
 30
-46.6528
 70
192
 0
VERTEX
 8
23
 10
-56.5
 20
-0.9011
 30
-43.8885
 70
192
 0
VERTEX
 8
23
 10
-56.5
 20
-0.9011
 30
-43.8885
 70
192
 0
VERTEX
 8
23
 10
-56.5
 20
-4.3889
 30
-42.1114
 70
192
 0
VERTEX
 8
23
 10
-56.5
 20
-4.3889
 30
-42.1114
 70
192
 0
VERTEX
 8
23
 10
-56.5
 20
-8.25
 30
-41.5005
 70
192
 0
VERTEX
 8
23
 10
-56.5
 20
-8.25
 30
-41.5005
 70
192
 0
VERTEX
 8
23
 10
-56.5
 20
-12.1111
 30
-42.1114
 70
192
 0
VERTEX
 8
23
 10
-56.5
 20
-12.1111
 30
-42.1114
 70
192
 0
VERTEX
 8
23
 10
-56.5
 20
-15.5989
 30
-43.8885
 70
192
 0
VERTEX
 8
23
 10
-56.5
 20
-15.5989
 30
-43.8885
 70
192
 0
VERTEX
 8
23
 10
-56.5
 20
-18.3624
 30
-46.6528
 70
192
 0
VERTEX
 8
23
 10
-56.5
 20
-18.3624
 30
-46.6528
 70
192
 0
VERTEX
 8
23
 10
-56.5
 20
-20.1379
 30
-50.1369
 70
192
 0
VERTEX
 8
23
 10
-56.5
 20
-20.1379
 30
-50.1369
 70
192
 0
VERTEX
 8
23
 10
-56.5
 20
-20.75
 30
-54
 70
192
 0
VERTEX
 8
23
 10
-56.5
 20
-20.75
 30
-54
 70
192
 0
VERTEX
 8
23
 10
-56.5
 20
-20.75
 30
-54
 70
192
 0
VERTEX
 8
23
 10
-59.25
 20
-20.75
 30
-54
 70
192
 0
VERTEX
 8
23
 10
-59.25
 20
-20.75
 30
-54
 70
192
 0
VERTEX
 8
23
 10
-59.25
 20
-20.75
 30
-54
 70
192
 0
VERTEX
 8
23
 10
-59.25
 20
-20.75
 30
-54
 70
192
 0
VERTEX
 8
23
 10
-59.25
 20
-20.1382
 30
-50.1373
 70
192
 0
VERTEX
 8
23
 10
-59.25
 20
-20.1382
 30
-50.1373
 70
192
 0
VERTEX
 8
23
 10
-59.25
 20
-18.3627
 30
-46.6527
 70
192
 0
VERTEX
 8
23
 10
-59.25
 20
-18.3627
 30
-46.6527
 70
192
 0
VERTEX
 8
23
 10
-59.25
 20
-15.5973
 30
-43.8873
 70
192
 0
VERTEX
 8
23
 10
-59.25
 20
-15.5973
 30
-43.8873
 70
192
 0
VERTEX
 8
23
 10
-59.25
 20
-12.1127
 30
-42.1118
 70
192
 0
VERTEX
 8
23
 10
-59.25
 20
-12.1127
 30
-42.1118
 70
192
 0
VERTEX
 8
23
 10
-59.25
 20
-8.25
 30
-41.5
 70
192
 0
VERTEX
 8
23
 10
-59.25
 20
-8.25
 30
-41.5
 70
192
 0
VERTEX
 8
23
 10
-59.25
 20
-4.3873
 30
-42.1118
 70
192
 0
VERTEX
 8
23
 10
-59.25
 20
-4.3873
 30
-42.1118
 70
192
 0
VERTEX
 8
23
 10
-59.25
 20
-0.9027
 30
-43.8873
 70
192
 0
VERTEX
 8
23
 10
-59.25
 20
-0.9027
 30
-43.8873
 70
192
 0
VERTEX
 8
23
 10
-59.25
 20
1.8627
 30
-46.6527
 70
192
 0
VERTEX
 8
23
 10
-59.25
 20
1.8627
 30
-46.6527
 70
192
 0
VERTEX
 8
23
 10
-59.25
 20
3.6382
 30
-50.1373
 70
192
 0
VERTEX
 8
23
 10
-59.25
 20
3.6382
 30
-50.1373
 70
192
 0
VERTEX
 8
23
 10
-56.5
 20
3.6379
 30
-57.8631
 70
192
 0
VERTEX
 8
23
 10
-56.5
 20
3.6379
 30
-57.8631
 70
192
 0
VERTEX
 8
23
 10
-56.5
 20
1.8624
 30
-61.3472
 70
192
 0
VERTEX
 8
23
 10
-56.5
 20
1.8624
 30
-61.3472
 70
192
 0
VERTEX
 8
23
 10
-56.5
 20
-0.9011
 30
-64.1115
 70
192
 0
VERTEX
 8
23
 10
-56.5
 20
-0.9011
 30
-64.1115
 70
192
 0
VERTEX
 8
23
 10
-56.5
 20
-4.3889
 30
-65.8886
 70
192
 0
VERTEX
 8
23
 10
-56.5
 20
-4.3889
 30
-65.8886
 70
192
 0
VERTEX
 8
23
 10
-56.5
 20
-8.25
 30
-66.4995
 70
192
 0
VERTEX
 8
23
 10
-56.5
 20
-8.25
 30
-66.4995
 70
192
 0
VERTEX
 8
23
 10
-56.5
 20
-12.1111
 30
-65.8886
 70
192
 0
VERTEX
 8
23
 10
-56.5
 20
-12.1111
 30
-65.8886
 70
192
 0
VERTEX
 8
23
 10
-56.5
 20
-15.5989
 30
-64.1115
 70
192
 0
VERTEX
 8
23
 10
-56.5
 20
-15.5989
 30
-64.1115
 70
192
 0
VERTEX
 8
23
 10
-56.5
 20
-18.3624
 30
-61.3472
 70
192
 0
VERTEX
 8
23
 10
-56.5
 20
-18.3624
 30
-61.3472
 70
192
 0
VERTEX
 8
23
 10
-56.5
 20
-20.1379
 30
-57.8631
 70
192
 0
VERTEX
 8
23
 10
-56.5
 20
-20.1379
 30
-57.8631
 70
192
 0
VERTEX
 8
23
 10
-59.25
 20
3.6382
 30
-57.8627
 70
192
 0
VERTEX
 8
23
 10
-59.25
 20
3.6382
 30
-57.8627
 70
192
 0
VERTEX
 8
23
 10
-59.25
 20
1.8627
 30
-61.3473
 70
192
 0
VERTEX
 8
23
 10
-59.25
 20
1.8627
 30
-61.3473
 70
192
 0
VERTEX
 8
23
 10
-59.25
 20
-0.9027
 30
-64.1127
 70
192
 0
VERTEX
 8
23
 10
-59.25
 20
-0.9027
 30
-64.1127
 70
192
 0
VERTEX
 8
23
 10
-59.25
 20
-4.3873
 30
-65.8882
 70
192
 0
VERTEX
 8
23
 10
-59.25
 20
-4.3873
 30
-65.8882
 70
192
 0
VERTEX
 8
23
 10
-59.25
 20
-8.25
 30
-66.5
 70
192
 0
VERTEX
 8
23
 10
-59.25
 20
-8.25
 30
-66.5
 70
192
 0
VERTEX
 8
23
 10
-59.25
 20
-12.1127
 30
-65.8882
 70
192
 0
VERTEX
 8
23
 10
-59.25
 20
-12.1127
 30
-65.8882
 70
192
 0
VERTEX
 8
23
 10
-59.25
 20
-15.5973
 30
-64.1127
 70
192
 0
VERTEX
 8
23
 10
-59.25
 20
-15.5973
 30
-64.1127
 70
192
 0
VERTEX
 8
23
 10
-59.25
 20
-18.3627
 30
-61.3473
 70
192
 0
VERTEX
 8
23
 10
-59.25
 20
-18.3627
 30
-61.3473
 70
192
 0
VERTEX
 8
23
 10
-59.25
 20
-20.1382
 30
-57.8627
 70
192
 0
VERTEX
 8
23
 10
-59.25
 20
-20.1382
 30
-57.8627
 70
192
 0
VERTEX
 8
23
 10
-59.4268
 20
-20.6768
 30
-54
 70
192
 0
VERTEX
 8
23
 10
-59.4268
 20
-20.6768
 30
-54
 70
192
 0
VERTEX
 8
23
 10
-59.4268
 20
-20.1734
 30
-50.499
 70
192
 0
VERTEX
 8
23
 10
-59.4268
 20
-18.7041
 30
-47.2816
 70
192
 0
VERTEX
 8
23
 10
-59.4268
 20
-16.3878
 30
-44.6085
 70
192
 0
VERTEX
 8
23
 10
-59.4268
 20
-13.4123
 30
-42.6962
 70
192
 0
VERTEX
 8
23
 10
-59.4268
 20
-10.0185
 30
-41.6997
 70
192
 0
VERTEX
 8
23
 10
-59.4268
 20
-6.4815
 30
-41.6997
 70
192
 0
VERTEX
 8
23
 10
-59.4268
 20
-3.0877
 30
-42.6962
 70
192
 0
VERTEX
 8
23
 10
-59.4268
 20
-0.1122
 30
-44.6085
 70
192
 0
VERTEX
 8
23
 10
-59.4268
 20
2.2041
 30
-47.2816
 70
192
 0
VERTEX
 8
23
 10
-59.4268
 20
3.6734
 30
-50.499
 70
192
 0
VERTEX
 8
23
 10
-59.4268
 20
4.1768
 30
-54
 70
192
 0
VERTEX
 8
23
 10
-59.4268
 20
4.1768
 30
-54
 70
192
 0
VERTEX
 8
23
 10
-59.4268
 20
3.6734
 30
-57.501
 70
192
 0
VERTEX
 8
23
 10
-59.4268
 20
2.2041
 30
-60.7184
 70
192
 0
VERTEX
 8
23
 10
-59.4268
 20
-0.1122
 30
-63.3915
 70
192
 0
VERTEX
 8
23
 10
-59.4268
 20
-3.0877
 30
-65.3038
 70
192
 0
VERTEX
 8
23
 10
-59.4268
 20
-6.4815
 30
-66.3003
 70
192
 0
VERTEX
 8
23
 10
-59.4268
 20
-10.0185
 30
-66.3003
 70
192
 0
VERTEX
 8
23
 10
-59.4268
 20
-13.4123
 30
-65.3038
 70
192
 0
VERTEX
 8
23
 10
-59.4268
 20
-16.3878
 30
-63.3915
 70
192
 0
VERTEX
 8
23
 10
-59.4268
 20
-18.7041
 30
-60.7184
 70
192
 0
VERTEX
 8
23
 10
-59.4268
 20
-20.1734
 30
-57.501
 70
192
 0
VERTEX
 8
23
 10
0
 20
0
 30
0
 70
128
 71
1
 72
5
 73
38
 74
38
 0
VERTEX
 8
23
 10
0
 20
0
 30
0
 70
128
 71
6
 72
4
 73
70
 74
70
 0
VERTEX
 8
23
 10
0
 20
0
 30
0
 70
128
 71
1
 72
38
 73
39
 74
39
 0
VERTEX
 8
23
 10
0
 20
0
 30
0
 70
128
 71
2
 72
40
 73
61
 74
61
 0
VERTEX
 8
23
 10
0
 20
0
 30
0
 70
128
 71
3
 72
62
 73
81
 74
81
 0
VERTEX
 8
23
 10
0
 20
0
 30
0
 70
128
 71
69
 72
3
 73
81
 74
81
 0
VERTEX
 8
23
 10
0
 20
0
 30
0
 70
128
 71
5
 72
7
 73
38
 74
38
 0
VERTEX
 8
23
 10
0
 20
0
 30
0
 70
128
 71
8
 72
6
 73
83
 74
83
 0
VERTEX
 8
23
 10
0
 20
0
 30
0
 70
128
 71
6
 72
70
 73
83
 74
83
 0
VERTEX
 8
23
 10
0
 20
0
 30
0
 70
128
 71
7
 72
9
 73
37
 74
37
 0
VERTEX
 8
23
 10
0
 20
0
 30
0
 70
128
 71
10
 72
8
 73
83
 74
83
 0
VERTEX
 8
23
 10
0
 20
0
 30
0
 70
128
 71
7
 72
37
 73
38
 74
38
 0
VERTEX
 8
23
 10
0
 20
0
 30
0
 70
128
 71
9
 72
11
 73
37
 74
37
 0
VERTEX
 8
23
 10
0
 20
0
 30
0
 70
128
 71
12
 72
10
 73
83
 74
83
 0
VERTEX
 8
23
 10
0
 20
0
 30
0
 70
128
 71
11
 72
13
 73
36
 74
36
 0
VERTEX
 8
23
 10
0
 20
0
 30
0
 70
128
 71
14
 72
12
 73
85
 74
85
 0
VERTEX
 8
23
 10
0
 20
0
 30
0
 70
128
 71
11
 72
36
 73
37
 74
37
 0
VERTEX
 8
23
 10
0
 20
0
 30
0
 70
128
 71
12
 72
83
 73
85
 74
85
 0
VERTEX
 8
23
 10
0
 20
0
 30
0
 70
128
 71
13
 72
15
 73
36
 74
36
 0
VERTEX
 8
23
 10
0
 20
0
 30
0
 70
128
 71
16
 72
14
 73
85
 74
85
 0
VERTEX
 8
23
 10
0
 20
0
 30
0
 70
128
 71
15
 72
17
 73
35
 74
35
 0
VERTEX
 8
23
 10
0
 20
0
 30
0
 70
128
 71
18
 72
16
 73
87
 74
87
 0
VERTEX
 8
23
 10
0
 20
0
 30
0
 70
128
 71
15
 72
35
 73
36
 74
36
 0
VERTEX
 8
23
 10
0
 20
0
 30
0
 70
128
 71
16
 72
85
 73
87
 74
87
 0
VERTEX
 8
23
 10
0
 20
0
 30
0
 70
128
 71
17
 72
19
 73
34
 74
34
 0
VERTEX
 8
23
 10
0
 20
0
 30
0
 70
128
 71
20
 72
18
 73
89
 74
89
 0
VERTEX
 8
23
 10
0
 20
0
 30
0
 70
128
 71
17
 72
34
 73
35
 74
35
 0
VERTEX
 8
23
 10
0
 20
0
 30
0
 70
128
 71
18
 72
87
 73
89
 74
89
 0
VERTEX
 8
23
 10
0
 20
0
 30
0
 70
128
 71
19
 72
21
 73
34
 74
34
 0
VERTEX
 8
23
 10
0
 20
0
 30
0
 70
128
 71
22
 72
20
 73
89
 74
89
 0
VERTEX
 8
23
 10
0
 20
0
 30
0
 70
128
 71
21
 72
23
 73
33
 74
33
 0
VERTEX
 8
23
 10
0
 20
0
 30
0
 70
128
 71
24
 72
22
 73
89
 74
89
 0
VERTEX
 8
23
 10
0
 20
0
 30
0
 70
128
 71
21
 72
33
 73
34
 74
34
 0
VERTEX
 8
23
 10
0
 20
0
 30
0
 70
128
 71
23
 72
25
 73
33
 74
33
 0
VERTEX
 8
23
 10
0
 20
0
 30
0
 70
128
 71
26
 72
24
 73
90
 74
90
 0
VERTEX
 8
23
 10
0
 20
0
 30
0
 70
128
 71
24
 72
89
 73
90
 74
90
 0
VERTEX
 8
23
 10
0
 20
0
 30
0
 70
128
 71
25
 72
27
 73
31
 74
31
 0
VERTEX
 8
23
 10
0
 20
0
 30
0
 70
128
 71
30
 72
26
 73
90
 74
90
 0
VERTEX
 8
23
 10
0
 20
0
 30
0
 70
128
 71
25
 72
31
 73
33
 74
33
 0
VERTEX
 8
23
 10
0
 20
0
 30
0
 70
128
 71
32
 72
28
 73
68
 74
68
 0
VERTEX
 8
23
 10
0
 20
0
 30
0
 70
128
 71
28
 72
41
 73
68
 74
68
 0
VERTEX
 8
23
 10
0
 20
0
 30
0
 70
128
 71
42
 72
29
 73
73
 74
73
 0
VERTEX
 8
23
 10
0
 20
0
 30
0
 70
128
 71
74
 72
30
 73
90
 74
90
 0
VERTEX
 8
23
 10
0
 20
0
 30
0
 70
128
 71
61
 72
40
 73
63
 74
63
 0
VERTEX
 8
23
 10
0
 20
0
 30
0
 70
128
 71
41
 72
43
 73
68
 74
68
 0
VERTEX
 8
23
 10
0
 20
0
 30
0
 70
128
 71
44
 72
42
 73
75
 74
75
 0
VERTEX
 8
23
 10
0
 20
0
 30
0
 70
128
 71
42
 72
73
 73
75
 74
75
 0
VERTEX
 8
23
 10
0
 20
0
 30
0
 70
128
 71
43
 72
45
 73
67
 74
67
 0
VERTEX
 8
23
 10
0
 20
0
 30
0
 70
128
 71
46
 72
44
 73
75
 74
75
 0
VERTEX
 8
23
 10
0
 20
0
 30
0
 70
128
 71
43
 72
67
 73
68
 74
68
 0
VERTEX
 8
23
 10
0
 20
0
 30
0
 70
128
 71
45
 72
47
 73
67
 74
67
 0
VERTEX
 8
23
 10
0
 20
0
 30
0
 70
128
 71
48
 72
46
 73
75
 74
75
 0
VERTEX
 8
23
 10
0
 20
0
 30
0
 70
128
 71
47
 72
49
 73
66
 74
66
 0
VERTEX
 8
23
 10
0
 20
0
 30
0
 70
128
 71
50
 72
48
 73
76
 74
76
 0
VERTEX
 8
23
 10
0
 20
0
 30
0
 70
128
 71
47
 72
66
 73
67
 74
67
 0
VERTEX
 8
23
 10
0
 20
0
 30
0
 70
128
 71
48
 72
75
 73
76
 74
76
 0
VERTEX
 8
23
 10
0
 20
0
 30
0
 70
128
 71
49
 72
51
 73
66
 74
66
 0
VERTEX
 8
23
 10
0
 20
0
 30
0
 70
128
 71
52
 72
50
 73
76
 74
76
 0
VERTEX
 8
23
 10
0
 20
0
 30
0
 70
128
 71
51
 72
53
 73
65
 74
65
 0
VERTEX
 8
23
 10
0
 20
0
 30
0
 70
128
 71
54
 72
52
 73
77
 74
77
 0
VERTEX
 8
23
 10
0
 20
0
 30
0
 70
128
 71
51
 72
65
 73
66
 74
66
 0
VERTEX
 8
23
 10
0
 20
0
 30
0
 70
128
 71
52
 72
76
 73
77
 74
77
 0
VERTEX
 8
23
 10
0
 20
0
 30
0
 70
128
 71
53
 72
55
 73
64
 74
64
 0
VERTEX
 8
23
 10
0
 20
0
 30
0
 70
128
 71
56
 72
54
 73
79
 74
79
 0
VERTEX
 8
23
 10
0
 20
0
 30
0
 70
128
 71
53
 72
64
 73
65
 74
65
 0
VERTEX
 8
23
 10
0
 20
0
 30
0
 70
128
 71
54
 72
77
 73
79
 74
79
 0
VERTEX
 8
23
 10
0
 20
0
 30
0
 70
128
 71
55
 72
57
 73
64
 74
64
 0
VERTEX
 8
23
 10
0
 20
0
 30
0
 70
128
 71
58
 72
56
 73
79
 74
79
 0
VERTEX
 8
23
 10
0
 20
0
 30
0
 70
128
 71
57
 72
59
 73
63
 74
63
 0
VERTEX
 8
23
 10
0
 20
0
 30
0
 70
128
 71
60
 72
58
 73
79
 74
79
 0
VERTEX
 8
23
 10
0
 20
0
 30
0
 70
128
 71
57
 72
63
 73
64
 74
64
 0
VERTEX
 8
23
 10
0
 20
0
 30
0
 70
128
 71
59
 72
61
 73
63
 74
63
 0
VERTEX
 8
23
 10
0
 20
0
 30
0
 70
128
 71
62
 72
60
 73
81
 74
81
 0
VERTEX
 8
23
 10
0
 20
0
 30
0
 70
128
 71
60
 72
79
 73
81
 74
81
 0
VERTEX
 8
23
 10
0
 20
0
 30
0
 70
128
 71
72
 72
82
 73
118
 74
118
 0
VERTEX
 8
23
 10
0
 20
0
 30
0
 70
128
 71
84
 72
71
 73
95
 74
95
 0
VERTEX
 8
23
 10
0
 20
0
 30
0
 70
128
 71
96
 72
72
 73
118
 74
118
 0
VERTEX
 8
23
 10
0
 20
0
 30
0
 70
128
 71
80
 72
78
 73
118
 74
118
 0
VERTEX
 8
23
 10
0
 20
0
 30
0
 70
128
 71
82
 72
80
 73
118
 74
118
 0
VERTEX
 8
23
 10
0
 20
0
 30
0
 70
128
 71
86
 72
84
 73
95
 74
95
 0
VERTEX
 8
23
 10
0
 20
0
 30
0
 70
128
 71
88
 72
86
 73
95
 74
95
 0
VERTEX
 8
23
 10
0
 20
0
 30
0
 70
128
 71
88
 72
95
 73
97
 74
97
 0
VERTEX
 8
23
 10
0
 20
0
 30
0
 70
128
 71
92
 72
91
 73
114
 74
114
 0
VERTEX
 8
23
 10
0
 20
0
 30
0
 70
128
 71
91
 72
113
 73
114
 74
114
 0
VERTEX
 8
23
 10
0
 20
0
 30
0
 70
128
 71
93
 72
92
 73
115
 74
115
 0
VERTEX
 8
23
 10
0
 20
0
 30
0
 70
128
 71
92
 72
114
 73
115
 74
115
 0
VERTEX
 8
23
 10
0
 20
0
 30
0
 70
128
 71
94
 72
93
 73
116
 74
116
 0
VERTEX
 8
23
 10
0
 20
0
 30
0
 70
128
 71
93
 72
115
 73
116
 74
116
 0
VERTEX
 8
23
 10
0
 20
0
 30
0
 70
128
 71
94
 72
116
 73
117
 74
117
 0
VERTEX
 8
23
 10
0
 20
0
 30
0
 70
128
 71
98
 72
99
 73
112
 74
112
 0
VERTEX
 8
23
 10
0
 20
0
 30
0
 70
128
 71
99
 72
100
 73
111
 74
111
 0
VERTEX
 8
23
 10
0
 20
0
 30
0
 70
128
 71
99
 72
111
 73
112
 74
112
 0
VERTEX
 8
23
 10
0
 20
0
 30
0
 70
128
 71
100
 72
101
 73
110
 74
110
 0
VERTEX
 8
23
 10
0
 20
0
 30
0
 70
128
 71
100
 72
110
 73
111
 74
111
 0
VERTEX
 8
23
 10
0
 20
0
 30
0
 70
128
 71
101
 72
102
 73
109
 74
109
 0
VERTEX
 8
23
 10
0
 20
0
 30
0
 70
128
 71
101
 72
109
 73
110
 74
110
 0
VERTEX
 8
23
 10
0
 20
0
 30
0
 70
128
 71
103
 72
104
 73
106
 74
106
 0
VERTEX
 8
23
 10
0
 20
0
 30
0
 70
128
 71
103
 72
106
 73
108
 74
108
 0
VERTEX
 8
23
 10
0
 20
0
 30
0
 70
128
 71
107
 72
105
 73
119
 74
119
 0
VERTEX
 8
23
 10
0
 20
0
 30
0
 70
128
 71
120
 72
123
 73
137
 74
137
 0
VERTEX
 8
23
 10
0
 20
0
 30
0
 70
128
 71
124
 72
121
 73
190
 74
190
 0
VERTEX
 8
23
 10
0
 20
0
 30
0
 70
128
 71
120
 72
137
 73
139
 74
139
 0
VERTEX
 8
23
 10
0
 20
0
 30
0
 70
128
 71
120
 72
139
 73
161
 74
161
 0
VERTEX
 8
23
 10
0
 20
0
 30
0
 70
128
 71
122
 72
163
 73
214
 74
214
 0
VERTEX
 8
23
 10
0
 20
0
 30
0
 70
128
 71
191
 72
122
 73
214
 74
214
 0
VERTEX
 8
23
 10
0
 20
0
 30
0
 70
128
 71
123
 72
125
 73
135
 74
135
 0
VERTEX
 8
23
 10
0
 20
0
 30
0
 70
128
 71
126
 72
124
 73
169
 74
169
 0
VERTEX
 8
23
 10
0
 20
0
 30
0
 70
128
 71
123
 72
135
 73
137
 74
137
 0
VERTEX
 8
23
 10
0
 20
0
 30
0
 70
128
 71
124
 72
164
 73
167
 74
167
 0
VERTEX
 8
23
 10
0
 20
0
 30
0
 70
128
 71
164
 72
124
 73
190
 74
190
 0
VERTEX
 8
23
 10
0
 20
0
 30
0
 70
128
 71
124
 72
167
 73
169
 74
169
 0
VERTEX
 8
23
 10
0
 20
0
 30
0
 70
128
 71
125
 72
127
 73
133
 74
133
 0
VERTEX
 8
23
 10
0
 20
0
 30
0
 70
128
 71
128
 72
126
 73
169
 74
169
 0
VERTEX
 8
23
 10
0
 20
0
 30
0
 70
128
 71
125
 72
133
 73
135
 74
135
 0
VERTEX
 8
23
 10
0
 20
0
 30
0
 70
128
 71
127
 72
129
 73
131
 74
131
 0
VERTEX
 8
23
 10
0
 20
0
 30
0
 70
128
 71
130
 72
128
 73
171
 74
171
 0
VERTEX
 8
23
 10
0
 20
0
 30
0
 70
128
 71
127
 72
131
 73
133
 74
133
 0
VERTEX
 8
23
 10
0
 20
0
 30
0
 70
128
 71
128
 72
169
 73
171
 74
171
 0
VERTEX
 8
23
 10
0
 20
0
 30
0
 70
128
 71
132
 72
130
 73
173
 74
173
 0
VERTEX
 8
23
 10
0
 20
0
 30
0
 70
128
 71
130
 72
171
 73
173
 74
173
 0
VERTEX
 8
23
 10
0
 20
0
 30
0
 70
128
 71
134
 72
132
 73
177
 74
177
 0
VERTEX
 8
23
 10
0
 20
0
 30
0
 70
128
 71
132
 72
173
 73
175
 74
175
 0
VERTEX
 8
23
 10
0
 20
0
 30
0
 70
128
 71
132
 72
175
 73
177
 74
177
 0
VERTEX
 8
23
 10
0
 20
0
 30
0
 70
128
 71
136
 72
134
 73
177
 74
177
 0
VERTEX
 8
23
 10
0
 20
0
 30
0
 70
128
 71
138
 72
136
 73
179
 74
179
 0
VERTEX
 8
23
 10
0
 20
0
 30
0
 70
128
 71
136
 72
177
 73
179
 74
179
 0
VERTEX
 8
23
 10
0
 20
0
 30
0
 70
128
 71
140
 72
138
 73
181
 74
181
 0
VERTEX
 8
23
 10
0
 20
0
 30
0
 70
128
 71
138
 72
179
 73
181
 74
181
 0
VERTEX
 8
23
 10
0
 20
0
 30
0
 70
128
 71
139
 72
142
 73
161
 74
161
 0
VERTEX
 8
23
 10
0
 20
0
 30
0
 70
128
 71
143
 72
141
 73
187
 74
187
 0
VERTEX
 8
23
 10
0
 20
0
 30
0
 70
128
 71
140
 72
181
 73
186
 74
186
 0
VERTEX
 8
23
 10
0
 20
0
 30
0
 70
128
 71
142
 72
145
 73
159
 74
159
 0
VERTEX
 8
23
 10
0
 20
0
 30
0
 70
128
 71
146
 72
144
 73
195
 74
195
 0
VERTEX
 8
23
 10
0
 20
0
 30
0
 70
128
 71
142
 72
159
 73
161
 74
161
 0
VERTEX
 8
23
 10
0
 20
0
 30
0
 70
128
 71
143
 72
187
 73
194
 74
194
 0
VERTEX
 8
23
 10
0
 20
0
 30
0
 70
128
 71
145
 72
147
 73
157
 74
157
 0
VERTEX
 8
23
 10
0
 20
0
 30
0
 70
128
 71
148
 72
146
 73
197
 74
197
 0
VERTEX
 8
23
 10
0
 20
0
 30
0
 70
128
 71
145
 72
157
 73
159
 74
159
 0
VERTEX
 8
23
 10
0
 20
0
 30
0
 70
128
 71
146
 72
195
 73
197
 74
197
 0
VERTEX
 8
23
 10
0
 20
0
 30
0
 70
128
 71
147
 72
149
 73
155
 74
155
 0
VERTEX
 8
23
 10
0
 20
0
 30
0
 70
128
 71
150
 72
148
 73
199
 74
199
 0
VERTEX
 8
23
 10
0
 20
0
 30
0
 70
128
 71
147
 72
155
 73
157
 74
157
 0
VERTEX
 8
23
 10
0
 20
0
 30
0
 70
128
 71
148
 72
197
 73
199
 74
199
 0
VERTEX
 8
23
 10
0
 20
0
 30
0
 70
128
 71
149
 72
151
 73
153
 74
153
 0
VERTEX
 8
23
 10
0
 20
0
 30
0
 70
128
 71
152
 72
150
 73
201
 74
201
 0
VERTEX
 8
23
 10
0
 20
0
 30
0
 70
128
 71
149
 72
153
 73
155
 74
155
 0
VERTEX
 8
23
 10
0
 20
0
 30
0
 70
128
 71
150
 72
199
 73
201
 74
201
 0
VERTEX
 8
23
 10
0
 20
0
 30
0
 70
128
 71
154
 72
152
 73
203
 74
203
 0
VERTEX
 8
23
 10
0
 20
0
 30
0
 70
128
 71
152
 72
201
 73
203
 74
203
 0
VERTEX
 8
23
 10
0
 20
0
 30
0
 70
128
 71
156
 72
154
 73
205
 74
205
 0
VERTEX
 8
23
 10
0
 20
0
 30
0
 70
128
 71
154
 72
203
 73
205
 74
205
 0
VERTEX
 8
23
 10
0
 20
0
 30
0
 70
128
 71
158
 72
156
 73
207
 74
207
 0
VERTEX
 8
23
 10
0
 20
0
 30
0
 70
128
 71
156
 72
205
 73
207
 74
207
 0
VERTEX
 8
23
 10
0
 20
0
 30
0
 70
128
 71
160
 72
158
 73
209
 74
209
 0
VERTEX
 8
23
 10
0
 20
0
 30
0
 70
128
 71
158
 72
207
 73
209
 74
209
 0
VERTEX
 8
23
 10
0
 20
0
 30
0
 70
128
 71
162
 72
160
 73
211
 74
211
 0
VERTEX
 8
23
 10
0
 20
0
 30
0
 70
128
 71
160
 72
209
 73
211
 74
211
 0
VERTEX
 8
23
 10
0
 20
0
 30
0
 70
128
 71
162
 72
211
 73
213
 74
213
 0
VERTEX
 8
23
 10
0
 20
0
 30
0
 70
128
 71
168
 72
166
 73
1119
 74
1119
 0
VERTEX
 8
23
 10
0
 20
0
 30
0
 70
128
 71
165
 72
192
 73
1070
 74
1070
 0
VERTEX
 8
23
 10
0
 20
0
 30
0
 70
128
 71
166
 72
1071
 73
1122
 74
1122
 0
VERTEX
 8
23
 10
0
 20
0
 30
0
 70
128
 71
1119
 72
166
 73
1122
 74
1122
 0
VERTEX
 8
23
 10
0
 20
0
 30
0
 70
128
 71
170
 72
168
 73
1164
 74
1164
 0
VERTEX
 8
23
 10
0
 20
0
 30
0
 70
128
 71
168
 72
1119
 73
1164
 74
1164
 0
VERTEX
 8
23
 10
0
 20
0
 30
0
 70
128
 71
172
 72
170
 73
1166
 74
1166
 0
VERTEX
 8
23
 10
0
 20
0
 30
0
 70
128
 71
170
 72
1164
 73
1166
 74
1166
 0
VERTEX
 8
23
 10
0
 20
0
 30
0
 70
128
 71
174
 72
172
 73
1166
 74
1166
 0
VERTEX
 8
23
 10
0
 20
0
 30
0
 70
128
 71
176
 72
174
 73
1176
 74
1176
 0
VERTEX
 8
23
 10
0
 20
0
 30
0
 70
128
 71
174
 72
1166
 73
1168
 74
1168
 0
VERTEX
 8
23
 10
0
 20
0
 30
0
 70
128
 71
174
 72
1168
 73
1176
 74
1176
 0
VERTEX
 8
23
 10
0
 20
0
 30
0
 70
128
 71
178
 72
176
 73
1176
 74
1176
 0
VERTEX
 8
23
 10
0
 20
0
 30
0
 70
128
 71
180
 72
178
 73
1178
 74
1178
 0
VERTEX
 8
23
 10
0
 20
0
 30
0
 70
128
 71
178
 72
1176
 73
1178
 74
1178
 0
VERTEX
 8
23
 10
0
 20
0
 30
0
 70
128
 71
182
 72
180
 73
1180
 74
1180
 0
VERTEX
 8
23
 10
0
 20
0
 30
0
 70
128
 71
180
 72
1178
 73
1180
 74
1180
 0
VERTEX
 8
23
 10
0
 20
0
 30
0
 70
128
 71
181
 72
183
 73
186
 74
186
 0
VERTEX
 8
23
 10
0
 20
0
 30
0
 70
128
 71
185
 72
182
 73
1180
 74
1180
 0
VERTEX
 8
23
 10
0
 20
0
 30
0
 70
128
 71
188
 72
184
 73
1054
 74
1054
 0
VERTEX
 8
23
 10
0
 20
0
 30
0
 70
128
 71
1054
 72
184
 73
1056
 74
1056
 0
VERTEX
 8
23
 10
0
 20
0
 30
0
 70
128
 71
1057
 72
185
 73
1140
 74
1140
 0
VERTEX
 8
23
 10
0
 20
0
 30
0
 70
128
 71
1140
 72
185
 73
1180
 74
1180
 0
VERTEX
 8
23
 10
0
 20
0
 30
0
 70
128
 71
196
 72
189
 73
1055
 74
1055
 0
VERTEX
 8
23
 10
0
 20
0
 30
0
 70
128
 71
193
 72
215
 73
1041
 74
1041
 0
VERTEX
 8
23
 10
0
 20
0
 30
0
 70
128
 71
192
 72
1040
 73
1070
 74
1070
 0
VERTEX
 8
23
 10
0
 20
0
 30
0
 70
128
 71
198
 72
196
 73
215
 74
215
 0
VERTEX
 8
23
 10
0
 20
0
 30
0
 70
128
 71
215
 72
196
 73
1041
 74
1041
 0
VERTEX
 8
23
 10
0
 20
0
 30
0
 70
128
 71
1041
 72
196
 73
1043
 74
1043
 0
VERTEX
 8
23
 10
0
 20
0
 30
0
 70
128
 71
1043
 72
196
 73
1045
 74
1045
 0
VERTEX
 8
23
 10
0
 20
0
 30
0
 70
128
 71
1045
 72
196
 73
1047
 74
1047
 0
VERTEX
 8
23
 10
0
 20
0
 30
0
 70
128
 71
1047
 72
196
 73
1049
 74
1049
 0
VERTEX
 8
23
 10
0
 20
0
 30
0
 70
128
 71
1049
 72
196
 73
1051
 74
1051
 0
VERTEX
 8
23
 10
0
 20
0
 30
0
 70
128
 71
1051
 72
196
 73
1053
 74
1053
 0
VERTEX
 8
23
 10
0
 20
0
 30
0
 70
128
 71
1053
 72
196
 73
1055
 74
1055
 0
VERTEX
 8
23
 10
0
 20
0
 30
0
 70
128
 71
200
 72
198
 73
212
 74
212
 0
VERTEX
 8
23
 10
0
 20
0
 30
0
 70
128
 71
212
 72
198
 73
215
 74
215
 0
VERTEX
 8
23
 10
0
 20
0
 30
0
 70
128
 71
202
 72
200
 73
210
 74
210
 0
VERTEX
 8
23
 10
0
 20
0
 30
0
 70
128
 71
210
 72
200
 73
212
 74
212
 0
VERTEX
 8
23
 10
0
 20
0
 30
0
 70
128
 71
204
 72
202
 73
208
 74
208
 0
VERTEX
 8
23
 10
0
 20
0
 30
0
 70
128
 71
208
 72
202
 73
210
 74
210
 0
VERTEX
 8
23
 10
0
 20
0
 30
0
 70
128
 71
206
 72
204
 73
208
 74
208
 0
VERTEX
 8
23
 10
0
 20
0
 30
0
 70
128
 71
216
 72
220
 73
256
 74
256
 0
VERTEX
 8
23
 10
0
 20
0
 30
0
 70
128
 71
222
 72
219
 73
303
 74
303
 0
VERTEX
 8
23
 10
0
 20
0
 30
0
 70
128
 71
217
 72
258
 73
368
 74
368
 0
VERTEX
 8
23
 10
0
 20
0
 30
0
 70
128
 71
303
 72
219
 73
471
 74
471
 0
VERTEX
 8
23
 10
0
 20
0
 30
0
 70
128
 71
217
 72
368
 73
374
 74
374
 0
VERTEX
 8
23
 10
0
 20
0
 30
0
 70
128
 71
218
 72
375
 73
470
 74
470
 0
VERTEX
 8
23
 10
0
 20
0
 30
0
 70
128
 71
220
 72
223
 73
256
 74
256
 0
VERTEX
 8
23
 10
0
 20
0
 30
0
 70
128
 71
224
 72
221
 73
300
 74
300
 0
VERTEX
 8
23
 10
0
 20
0
 30
0
 70
128
 71
300
 72
221
 73
311
 74
311
 0
VERTEX
 8
23
 10
0
 20
0
 30
0
 70
128
 71
221
 72
302
 73
311
 74
311
 0
VERTEX
 8
23
 10
0
 20
0
 30
0
 70
128
 71
223
 72
226
 73
254
 74
254
 0
VERTEX
 8
23
 10
0
 20
0
 30
0
 70
128
 71
227
 72
225
 73
301
 74
301
 0
VERTEX
 8
23
 10
0
 20
0
 30
0
 70
128
 71
223
 72
254
 73
256
 74
256
 0
VERTEX
 8
23
 10
0
 20
0
 30
0
 70
128
 71
226
 72
228
 73
254
 74
254
 0
VERTEX
 8
23
 10
0
 20
0
 30
0
 70
128
 71
229
 72
227
 73
298
 74
298
 0
VERTEX
 8
23
 10
0
 20
0
 30
0
 70
128
 71
298
 72
227
 73
301
 74
301
 0
VERTEX
 8
23
 10
0
 20
0
 30
0
 70
128
 71
228
 72
230
 73
252
 74
252
 0
VERTEX
 8
23
 10
0
 20
0
 30
0
 70
128
 71
231
 72
229
 73
296
 74
296
 0
VERTEX
 8
23
 10
0
 20
0
 30
0
 70
128
 71
228
 72
252
 73
254
 74
254
 0
VERTEX
 8
23
 10
0
 20
0
 30
0
 70
128
 71
296
 72
229
 73
298
 74
298
 0
VERTEX
 8
23
 10
0
 20
0
 30
0
 70
128
 71
230
 72
232
 73
250
 74
250
 0
VERTEX
 8
23
 10
0
 20
0
 30
0
 70
128
 71
233
 72
231
 73
294
 74
294
 0
VERTEX
 8
23
 10
0
 20
0
 30
0
 70
128
 71
230
 72
250
 73
252
 74
252
 0
VERTEX
 8
23
 10
0
 20
0
 30
0
 70
128
 71
294
 72
231
 73
296
 74
296
 0
VERTEX
 8
23
 10
0
 20
0
 30
0
 70
128
 71
232
 72
234
 73
248
 74
248
 0
VERTEX
 8
23
 10
0
 20
0
 30
0
 70
128
 71
235
 72
233
 73
292
 74
292
 0
VERTEX
 8
23
 10
0
 20
0
 30
0
 70
128
 71
232
 72
248
 73
250
 74
250
 0
VERTEX
 8
23
 10
0
 20
0
 30
0
 70
128
 71
292
 72
233
 73
294
 74
294
 0
VERTEX
 8
23
 10
0
 20
0
 30
0
 70
128
 71
234
 72
236
 73
246
 74
246
 0
VERTEX
 8
23
 10
0
 20
0
 30
0
 70
128
 71
237
 72
235
 73
290
 74
290
 0
VERTEX
 8
23
 10
0
 20
0
 30
0
 70
128
 71
234
 72
246
 73
248
 74
248
 0
VERTEX
 8
23
 10
0
 20
0
 30
0
 70
128
 71
290
 72
235
 73
292
 74
292
 0
VERTEX
 8
23
 10
0
 20
0
 30
0
 70
128
 71
236
 72
238
 73
244
 74
244
 0
VERTEX
 8
23
 10
0
 20
0
 30
0
 70
128
 71
239
 72
237
 73
288
 74
288
 0
VERTEX
 8
23
 10
0
 20
0
 30
0
 70
128
 71
236
 72
244
 73
246
 74
246
 0
VERTEX
 8
23
 10
0
 20
0
 30
0
 70
128
 71
288
 72
237
 73
290
 74
290
 0
VERTEX
 8
23
 10
0
 20
0
 30
0
 70
128
 71
238
 72
241
 73
244
 74
244
 0
VERTEX
 8
23
 10
0
 20
0
 30
0
 70
128
 71
243
 72
240
 73
363
 74
363
 0
VERTEX
 8
23
 10
0
 20
0
 30
0
 70
128
 71
285
 72
239
 73
288
 74
288
 0
VERTEX
 8
23
 10
0
 20
0
 30
0
 70
128
 71
239
 72
285
 73
348
 74
348
 0
VERTEX
 8
23
 10
0
 20
0
 30
0
 70
128
 71
240
 72
349
 73
363
 74
363
 0
VERTEX
 8
23
 10
0
 20
0
 30
0
 70
128
 71
245
 72
242
 73
282
 74
282
 0
VERTEX
 8
23
 10
0
 20
0
 30
0
 70
128
 71
282
 72
242
 73
360
 74
360
 0
VERTEX
 8
23
 10
0
 20
0
 30
0
 70
128
 71
360
 72
242
 73
362
 74
362
 0
VERTEX
 8
23
 10
0
 20
0
 30
0
 70
128
 71
247
 72
245
 73
280
 74
280
 0
VERTEX
 8
23
 10
0
 20
0
 30
0
 70
128
 71
280
 72
245
 73
282
 74
282
 0
VERTEX
 8
23
 10
0
 20
0
 30
0
 70
128
 71
249
 72
247
 73
278
 74
278
 0
VERTEX
 8
23
 10
0
 20
0
 30
0
 70
128
 71
278
 72
247
 73
280
 74
280
 0
VERTEX
 8
23
 10
0
 20
0
 30
0
 70
128
 71
251
 72
249
 73
276
 74
276
 0
VERTEX
 8
23
 10
0
 20
0
 30
0
 70
128
 71
276
 72
249
 73
278
 74
278
 0
VERTEX
 8
23
 10
0
 20
0
 30
0
 70
128
 71
253
 72
251
 73
274
 74
274
 0
VERTEX
 8
23
 10
0
 20
0
 30
0
 70
128
 71
274
 72
251
 73
276
 74
276
 0
VERTEX
 8
23
 10
0
 20
0
 30
0
 70
128
 71
255
 72
253
 73
272
 74
272
 0
VERTEX
 8
23
 10
0
 20
0
 30
0
 70
128
 71
272
 72
253
 73
274
 74
274
 0
VERTEX
 8
23
 10
0
 20
0
 30
0
 70
128
 71
257
 72
255
 73
270
 74
270
 0
VERTEX
 8
23
 10
0
 20
0
 30
0
 70
128
 71
270
 72
255
 73
272
 74
272
 0
VERTEX
 8
23
 10
0
 20
0
 30
0
 70
128
 71
263
 72
258
 73
268
 74
268
 0
VERTEX
 8
23
 10
0
 20
0
 30
0
 70
128
 71
258
 72
263
 73
376
 74
376
 0
VERTEX
 8
23
 10
0
 20
0
 30
0
 70
128
 71
267
 72
257
 73
270
 74
270
 0
VERTEX
 8
23
 10
0
 20
0
 30
0
 70
128
 71
368
 72
258
 73
376
 74
376
 0
VERTEX
 8
23
 10
0
 20
0
 30
0
 70
128
 71
259
 72
262
 73
299
 74
299
 0
VERTEX
 8
23
 10
0
 20
0
 30
0
 70
128
 71
265
 72
261
 73
603
 74
603
 0
VERTEX
 8
23
 10
0
 20
0
 30
0
 70
128
 71
260
 72
300
 73
320
 74
320
 0
VERTEX
 8
23
 10
0
 20
0
 30
0
 70
128
 71
260
 72
320
 73
330
 74
330
 0
VERTEX
 8
23
 10
0
 20
0
 30
0
 70
128
 71
261
 72
331
 73
603
 74
603
 0
VERTEX
 8
23
 10
0
 20
0
 30
0
 70
128
 71
262
 72
266
 73
299
 74
299
 0
VERTEX
 8
23
 10
0
 20
0
 30
0
 70
128
 71
377
 72
264
 73
401
 74
401
 0
VERTEX
 8
23
 10
0
 20
0
 30
0
 70
128
 71
401
 72
264
 73
602
 74
602
 0
VERTEX
 8
23
 10
0
 20
0
 30
0
 70
128
 71
266
 72
269
 73
297
 74
297
 0
VERTEX
 8
23
 10
0
 20
0
 30
0
 70
128
 71
266
 72
297
 73
299
 74
299
 0
VERTEX
 8
23
 10
0
 20
0
 30
0
 70
128
 71
269
 72
271
 73
295
 74
295
 0
VERTEX
 8
23
 10
0
 20
0
 30
0
 70
128
 71
269
 72
295
 73
297
 74
297
 0
VERTEX
 8
23
 10
0
 20
0
 30
0
 70
128
 71
271
 72
273
 73
293
 74
293
 0
VERTEX
 8
23
 10
0
 20
0
 30
0
 70
128
 71
271
 72
293
 73
295
 74
295
 0
VERTEX
 8
23
 10
0
 20
0
 30
0
 70
128
 71
273
 72
275
 73
291
 74
291
 0
VERTEX
 8
23
 10
0
 20
0
 30
0
 70
128
 71
273
 72
291
 73
293
 74
293
 0
VERTEX
 8
23
 10
0
 20
0
 30
0
 70
128
 71
275
 72
277
 73
289
 74
289
 0
VERTEX
 8
23
 10
0
 20
0
 30
0
 70
128
 71
275
 72
289
 73
291
 74
291
 0
VERTEX
 8
23
 10
0
 20
0
 30
0
 70
128
 71
277
 72
279
 73
287
 74
287
 0
VERTEX
 8
23
 10
0
 20
0
 30
0
 70
128
 71
277
 72
287
 73
289
 74
289
 0
VERTEX
 8
23
 10
0
 20
0
 30
0
 70
128
 71
279
 72
281
 73
284
 74
284
 0
VERTEX
 8
23
 10
0
 20
0
 30
0
 70
128
 71
279
 72
284
 73
287
 74
287
 0
VERTEX
 8
23
 10
0
 20
0
 30
0
 70
128
 71
286
 72
283
 73
333
 74
333
 0
VERTEX
 8
23
 10
0
 20
0
 30
0
 70
128
 71
333
 72
283
 73
361
 74
361
 0
VERTEX
 8
23
 10
0
 20
0
 30
0
 70
128
 71
285
 72
332
 73
348
 74
348
 0
VERTEX
 8
23
 10
0
 20
0
 30
0
 70
128
 71
300
 72
311
 73
314
 74
314
 0
VERTEX
 8
23
 10
0
 20
0
 30
0
 70
128
 71
300
 72
314
 73
320
 74
320
 0
VERTEX
 8
23
 10
0
 20
0
 30
0
 70
128
 71
302
 72
304
 73
311
 74
311
 0
VERTEX
 8
23
 10
0
 20
0
 30
0
 70
128
 71
305
 72
303
 73
471
 74
471
 0
VERTEX
 8
23
 10
0
 20
0
 30
0
 70
128
 71
304
 72
306
 73
311
 74
311
 0
VERTEX
 8
23
 10
0
 20
0
 30
0
 70
128
 71
307
 72
305
 73
469
 74
469
 0
VERTEX
 8
23
 10
0
 20
0
 30
0
 70
128
 71
469
 72
305
 73
471
 74
471
 0
VERTEX
 8
23
 10
0
 20
0
 30
0
 70
128
 71
306
 72
308
 73
311
 74
311
 0
VERTEX
 8
23
 10
0
 20
0
 30
0
 70
128
 71
310
 72
307
 73
467
 74
467
 0
VERTEX
 8
23
 10
0
 20
0
 30
0
 70
128
 71
467
 72
307
 73
469
 74
469
 0
VERTEX
 8
23
 10
0
 20
0
 30
0
 70
128
 71
313
 72
309
 73
405
 74
405
 0
VERTEX
 8
23
 10
0
 20
0
 30
0
 70
128
 71
405
 72
309
 73
457
 74
457
 0
VERTEX
 8
23
 10
0
 20
0
 30
0
 70
128
 71
457
 72
309
 73
464
 74
464
 0
VERTEX
 8
23
 10
0
 20
0
 30
0
 70
128
 71
309
 72
459
 73
462
 74
462
 0
VERTEX
 8
23
 10
0
 20
0
 30
0
 70
128
 71
461
 72
310
 73
467
 74
467
 0
VERTEX
 8
23
 10
0
 20
0
 30
0
 70
128
 71
309
 72
462
 73
464
 74
464
 0
VERTEX
 8
23
 10
0
 20
0
 30
0
 70
128
 71
316
 72
312
 73
404
 74
404
 0
VERTEX
 8
23
 10
0
 20
0
 30
0
 70
128
 71
314
 72
317
 73
320
 74
320
 0
VERTEX
 8
23
 10
0
 20
0
 30
0
 70
128
 71
318
 72
315
 73
372
 74
372
 0
VERTEX
 8
23
 10
0
 20
0
 30
0
 70
128
 71
372
 72
315
 73
387
 74
387
 0
VERTEX
 8
23
 10
0
 20
0
 30
0
 70
128
 71
388
 72
316
 73
404
 74
404
 0
VERTEX
 8
23
 10
0
 20
0
 30
0
 70
128
 71
321
 72
319
 73
385
 74
385
 0
VERTEX
 8
23
 10
0
 20
0
 30
0
 70
128
 71
369
 72
318
 73
372
 74
372
 0
VERTEX
 8
23
 10
0
 20
0
 30
0
 70
128
 71
318
 72
369
 73
381
 74
381
 0
VERTEX
 8
23
 10
0
 20
0
 30
0
 70
128
 71
318
 72
381
 73
384
 74
384
 0
VERTEX
 8
23
 10
0
 20
0
 30
0
 70
128
 71
320
 72
323
 73
326
 74
326
 0
VERTEX
 8
23
 10
0
 20
0
 30
0
 70
128
 71
324
 72
322
 73
536
 74
536
 0
VERTEX
 8
23
 10
0
 20
0
 30
0
 70
128
 71
320
 72
326
 73
328
 74
328
 0
VERTEX
 8
23
 10
0
 20
0
 30
0
 70
128
 71
320
 72
328
 73
330
 74
330
 0
VERTEX
 8
23
 10
0
 20
0
 30
0
 70
128
 71
321
 72
385
 73
505
 74
505
 0
VERTEX
 8
23
 10
0
 20
0
 30
0
 70
128
 71
472
 72
321
 73
507
 74
507
 0
VERTEX
 8
23
 10
0
 20
0
 30
0
 70
128
 71
322
 72
473
 73
536
 74
536
 0
VERTEX
 8
23
 10
0
 20
0
 30
0
 70
128
 71
321
 72
505
 73
507
 74
507
 0
VERTEX
 8
23
 10
0
 20
0
 30
0
 70
128
 71
327
 72
325
 73
601
 74
601
 0
VERTEX
 8
23
 10
0
 20
0
 30
0
 70
128
 71
533
 72
324
 73
536
 74
536
 0
VERTEX
 8
23
 10
0
 20
0
 30
0
 70
128
 71
324
 72
533
 73
599
 74
599
 0
VERTEX
 8
23
 10
0
 20
0
 30
0
 70
128
 71
329
 72
327
 73
605
 74
605
 0
VERTEX
 8
23
 10
0
 20
0
 30
0
 70
128
 71
327
 72
601
 73
607
 74
607
 0
VERTEX
 8
23
 10
0
 20
0
 30
0
 70
128
 71
605
 72
327
 73
607
 74
607
 0
VERTEX
 8
23
 10
0
 20
0
 30
0
 70
128
 71
331
 72
329
 73
603
 74
603
 0
VERTEX
 8
23
 10
0
 20
0
 30
0
 70
128
 71
603
 72
329
 73
605
 74
605
 0
VERTEX
 8
23
 10
0
 20
0
 30
0
 70
128
 71
332
 72
334
 73
346
 74
346
 0
VERTEX
 8
23
 10
0
 20
0
 30
0
 70
128
 71
335
 72
333
 73
361
 74
361
 0
VERTEX
 8
23
 10
0
 20
0
 30
0
 70
128
 71
332
 72
346
 73
348
 74
348
 0
VERTEX
 8
23
 10
0
 20
0
 30
0
 70
128
 71
334
 72
336
 73
344
 74
344
 0
VERTEX
 8
23
 10
0
 20
0
 30
0
 70
128
 71
337
 72
335
 73
359
 74
359
 0
VERTEX
 8
23
 10
0
 20
0
 30
0
 70
128
 71
334
 72
344
 73
346
 74
346
 0
VERTEX
 8
23
 10
0
 20
0
 30
0
 70
128
 71
359
 72
335
 73
361
 74
361
 0
VERTEX
 8
23
 10
0
 20
0
 30
0
 70
128
 71
336
 72
338
 73
341
 74
341
 0
VERTEX
 8
23
 10
0
 20
0
 30
0
 70
128
 71
340
 72
337
 73
357
 74
357
 0
VERTEX
 8
23
 10
0
 20
0
 30
0
 70
128
 71
336
 72
341
 73
344
 74
344
 0
VERTEX
 8
23
 10
0
 20
0
 30
0
 70
128
 71
357
 72
337
 73
359
 74
359
 0
VERTEX
 8
23
 10
0
 20
0
 30
0
 70
128
 71
342
 72
339
 73
353
 74
353
 0
VERTEX
 8
23
 10
0
 20
0
 30
0
 70
128
 71
355
 72
340
 73
357
 74
357
 0
VERTEX
 8
23
 10
0
 20
0
 30
0
 70
128
 71
345
 72
343
 73
352
 74
352
 0
VERTEX
 8
23
 10
0
 20
0
 30
0
 70
128
 71
350
 72
342
 73
353
 74
353
 0
VERTEX
 8
23
 10
0
 20
0
 30
0
 70
128
 71
347
 72
345
 73
365
 74
365
 0
VERTEX
 8
23
 10
0
 20
0
 30
0
 70
128
 71
345
 72
352
 73
367
 74
367
 0
VERTEX
 8
23
 10
0
 20
0
 30
0
 70
128
 71
365
 72
345
 73
367
 74
367
 0
VERTEX
 8
23
 10
0
 20
0
 30
0
 70
128
 71
349
 72
347
 73
363
 74
363
 0
VERTEX
 8
23
 10
0
 20
0
 30
0
 70
128
 71
363
 72
347
 73
365
 74
365
 0
VERTEX
 8
23
 10
0
 20
0
 30
0
 70
128
 71
351
 72
354
 73
366
 74
366
 0
VERTEX
 8
23
 10
0
 20
0
 30
0
 70
128
 71
354
 72
356
 73
366
 74
366
 0
VERTEX
 8
23
 10
0
 20
0
 30
0
 70
128
 71
356
 72
358
 73
364
 74
364
 0
VERTEX
 8
23
 10
0
 20
0
 30
0
 70
128
 71
356
 72
364
 73
366
 74
366
 0
VERTEX
 8
23
 10
0
 20
0
 30
0
 70
128
 71
358
 72
360
 73
362
 74
362
 0
VERTEX
 8
23
 10
0
 20
0
 30
0
 70
128
 71
358
 72
362
 73
364
 74
364
 0
VERTEX
 8
23
 10
0
 20
0
 30
0
 70
128
 71
368
 72
371
 73
374
 74
374
 0
VERTEX
 8
23
 10
0
 20
0
 30
0
 70
128
 71
370
 72
377
 73
401
 74
401
 0
VERTEX
 8
23
 10
0
 20
0
 30
0
 70
128
 71
381
 72
369
 73
400
 74
400
 0
VERTEX
 8
23
 10
0
 20
0
 30
0
 70
128
 71
375
 72
373
 73
470
 74
470
 0
VERTEX
 8
23
 10
0
 20
0
 30
0
 70
128
 71
372
 72
387
 73
398
 74
398
 0
VERTEX
 8
23
 10
0
 20
0
 30
0
 70
128
 71
373
 72
399
 73
460
 74
460
 0
VERTEX
 8
23
 10
0
 20
0
 30
0
 70
128
 71
373
 72
460
 73
466
 74
466
 0
VERTEX
 8
23
 10
0
 20
0
 30
0
 70
128
 71
373
 72
466
 73
468
 74
468
 0
VERTEX
 8
23
 10
0
 20
0
 30
0
 70
128
 71
373
 72
468
 73
470
 74
470
 0
VERTEX
 8
23
 10
0
 20
0
 30
0
 70
128
 71
378
 72
381
 73
402
 74
402
 0
VERTEX
 8
23
 10
0
 20
0
 30
0
 70
128
 71
382
 72
379
 73
589
 74
589
 0
VERTEX
 8
23
 10
0
 20
0
 30
0
 70
128
 71
380
 72
403
 73
596
 74
596
 0
VERTEX
 8
23
 10
0
 20
0
 30
0
 70
128
 71
379
 72
532
 73
587
 74
587
 0
VERTEX
 8
23
 10
0
 20
0
 30
0
 70
128
 71
534
 72
380
 73
596
 74
596
 0
VERTEX
 8
23
 10
0
 20
0
 30
0
 70
128
 71
379
 72
587
 73
589
 74
589
 0
VERTEX
 8
23
 10
0
 20
0
 30
0
 70
128
 71
386
 72
383
 73
477
 74
477
 0
VERTEX
 8
23
 10
0
 20
0
 30
0
 70
128
 71
381
 72
400
 73
402
 74
402
 0
VERTEX
 8
23
 10
0
 20
0
 30
0
 70
128
 71
477
 72
383
 73
560
 74
560
 0
VERTEX
 8
23
 10
0
 20
0
 30
0
 70
128
 71
558
 72
382
 73
591
 74
591
 0
VERTEX
 8
23
 10
0
 20
0
 30
0
 70
128
 71
382
 72
589
 73
591
 74
591
 0
VERTEX
 8
23
 10
0
 20
0
 30
0
 70
128
 71
385
 72
475
 73
498
 74
498
 0
VERTEX
 8
23
 10
0
 20
0
 30
0
 70
128
 71
385
 72
498
 73
501
 74
501
 0
VERTEX
 8
23
 10
0
 20
0
 30
0
 70
128
 71
385
 72
501
 73
503
 74
503
 0
VERTEX
 8
23
 10
0
 20
0
 30
0
 70
128
 71
385
 72
503
 73
505
 74
505
 0
VERTEX
 8
23
 10
0
 20
0
 30
0
 70
128
 71
387
 72
390
 73
393
 74
393
 0
VERTEX
 8
23
 10
0
 20
0
 30
0
 70
128
 71
392
 72
389
 73
432
 74
432
 0
VERTEX
 8
23
 10
0
 20
0
 30
0
 70
128
 71
387
 72
393
 73
396
 74
396
 0
VERTEX
 8
23
 10
0
 20
0
 30
0
 70
128
 71
387
 72
396
 73
398
 74
398
 0
VERTEX
 8
23
 10
0
 20
0
 30
0
 70
128
 71
388
 72
404
 73
407
 74
407
 0
VERTEX
 8
23
 10
0
 20
0
 30
0
 70
128
 71
388
 72
407
 73
427
 74
427
 0
VERTEX
 8
23
 10
0
 20
0
 30
0
 70
128
 71
389
 72
429
 73
432
 74
432
 0
VERTEX
 8
23
 10
0
 20
0
 30
0
 70
128
 71
394
 72
391
 73
456
 74
456
 0
VERTEX
 8
23
 10
0
 20
0
 30
0
 70
128
 71
391
 72
430
 73
449
 74
449
 0
VERTEX
 8
23
 10
0
 20
0
 30
0
 70
128
 71
391
 72
449
 73
451
 74
451
 0
VERTEX
 8
23
 10
0
 20
0
 30
0
 70
128
 71
391
 72
451
 73
453
 74
453
 0
VERTEX
 8
23
 10
0
 20
0
 30
0
 70
128
 71
391
 72
453
 73
456
 74
456
 0
VERTEX
 8
23
 10
0
 20
0
 30
0
 70
128
 71
397
 72
395
 73
458
 74
458
 0
VERTEX
 8
23
 10
0
 20
0
 30
0
 70
128
 71
399
 72
397
 73
463
 74
463
 0
VERTEX
 8
23
 10
0
 20
0
 30
0
 70
128
 71
397
 72
458
 73
465
 74
465
 0
VERTEX
 8
23
 10
0
 20
0
 30
0
 70
128
 71
463
 72
397
 73
465
 74
465
 0
VERTEX
 8
23
 10
0
 20
0
 30
0
 70
128
 71
460
 72
399
 73
463
 74
463
 0
VERTEX
 8
23
 10
0
 20
0
 30
0
 70
128
 71
403
 72
401
 73
600
 74
600
 0
VERTEX
 8
23
 10
0
 20
0
 30
0
 70
128
 71
600
 72
401
 73
606
 74
606
 0
VERTEX
 8
23
 10
0
 20
0
 30
0
 70
128
 71
401
 72
602
 73
604
 74
604
 0
VERTEX
 8
23
 10
0
 20
0
 30
0
 70
128
 71
401
 72
604
 73
606
 74
606
 0
VERTEX
 8
23
 10
0
 20
0
 30
0
 70
128
 71
596
 72
403
 73
598
 74
598
 0
VERTEX
 8
23
 10
0
 20
0
 30
0
 70
128
 71
598
 72
403
 73
600
 74
600
 0
VERTEX
 8
23
 10
0
 20
0
 30
0
 70
128
 71
408
 72
406
 73
455
 74
455
 0
VERTEX
 8
23
 10
0
 20
0
 30
0
 70
128
 71
454
 72
405
 73
457
 74
457
 0
VERTEX
 8
23
 10
0
 20
0
 30
0
 70
128
 71
407
 72
409
 73
427
 74
427
 0
VERTEX
 8
23
 10
0
 20
0
 30
0
 70
128
 71
410
 72
408
 73
452
 74
452
 0
VERTEX
 8
23
 10
0
 20
0
 30
0
 70
128
 71
452
 72
408
 73
455
 74
455
 0
VERTEX
 8
23
 10
0
 20
0
 30
0
 70
128
 71
409
 72
411
 73
427
 74
427
 0
VERTEX
 8
23
 10
0
 20
0
 30
0
 70
128
 71
412
 72
410
 73
450
 74
450
 0
VERTEX
 8
23
 10
0
 20
0
 30
0
 70
128
 71
450
 72
410
 73
452
 74
452
 0
VERTEX
 8
23
 10
0
 20
0
 30
0
 70
128
 71
411
 72
413
 73
425
 74
425
 0
VERTEX
 8
23
 10
0
 20
0
 30
0
 70
128
 71
414
 72
412
 73
448
 74
448
 0
VERTEX
 8
23
 10
0
 20
0
 30
0
 70
128
 71
411
 72
425
 73
427
 74
427
 0
VERTEX
 8
23
 10
0
 20
0
 30
0
 70
128
 71
448
 72
412
 73
450
 74
450
 0
VERTEX
 8
23
 10
0
 20
0
 30
0
 70
128
 71
413
 72
415
 73
423
 74
423
 0
VERTEX
 8
23
 10
0
 20
0
 30
0
 70
128
 71
416
 72
414
 73
446
 74
446
 0
VERTEX
 8
23
 10
0
 20
0
 30
0
 70
128
 71
413
 72
423
 73
425
 74
425
 0
VERTEX
 8
23
 10
0
 20
0
 30
0
 70
128
 71
446
 72
414
 73
448
 74
448
 0
VERTEX
 8
23
 10
0
 20
0
 30
0
 70
128
 71
415
 72
417
 73
421
 74
421
 0
VERTEX
 8
23
 10
0
 20
0
 30
0
 70
128
 71
418
 72
416
 73
444
 74
444
 0
VERTEX
 8
23
 10
0
 20
0
 30
0
 70
128
 71
415
 72
421
 73
423
 74
423
 0
VERTEX
 8
23
 10
0
 20
0
 30
0
 70
128
 71
444
 72
416
 73
446
 74
446
 0
VERTEX
 8
23
 10
0
 20
0
 30
0
 70
128
 71
417
 72
419
 73
421
 74
421
 0
VERTEX
 8
23
 10
0
 20
0
 30
0
 70
128
 71
420
 72
418
 73
442
 74
442
 0
VERTEX
 8
23
 10
0
 20
0
 30
0
 70
128
 71
442
 72
418
 73
444
 74
444
 0
VERTEX
 8
23
 10
0
 20
0
 30
0
 70
128
 71
422
 72
420
 73
440
 74
440
 0
VERTEX
 8
23
 10
0
 20
0
 30
0
 70
128
 71
440
 72
420
 73
442
 74
442
 0
VERTEX
 8
23
 10
0
 20
0
 30
0
 70
128
 71
424
 72
422
 73
438
 74
438
 0
VERTEX
 8
23
 10
0
 20
0
 30
0
 70
128
 71
438
 72
422
 73
440
 74
440
 0
VERTEX
 8
23
 10
0
 20
0
 30
0
 70
128
 71
426
 72
424
 73
436
 74
436
 0
VERTEX
 8
23
 10
0
 20
0
 30
0
 70
128
 71
436
 72
424
 73
438
 74
438
 0
VERTEX
 8
23
 10
0
 20
0
 30
0
 70
128
 71
428
 72
426
 73
434
 74
434
 0
VERTEX
 8
23
 10
0
 20
0
 30
0
 70
128
 71
434
 72
426
 73
436
 74
436
 0
VERTEX
 8
23
 10
0
 20
0
 30
0
 70
128
 71
431
 72
428
 73
434
 74
434
 0
VERTEX
 8
23
 10
0
 20
0
 30
0
 70
128
 71
430
 72
433
 73
447
 74
447
 0
VERTEX
 8
23
 10
0
 20
0
 30
0
 70
128
 71
430
 72
447
 73
449
 74
449
 0
VERTEX
 8
23
 10
0
 20
0
 30
0
 70
128
 71
433
 72
435
 73
445
 74
445
 0
VERTEX
 8
23
 10
0
 20
0
 30
0
 70
128
 71
433
 72
445
 73
447
 74
447
 0
VERTEX
 8
23
 10
0
 20
0
 30
0
 70
128
 71
435
 72
437
 73
443
 74
443
 0
VERTEX
 8
23
 10
0
 20
0
 30
0
 70
128
 71
435
 72
443
 73
445
 74
445
 0
VERTEX
 8
23
 10
0
 20
0
 30
0
 70
128
 71
437
 72
439
 73
441
 74
441
 0
VERTEX
 8
23
 10
0
 20
0
 30
0
 70
128
 71
437
 72
441
 73
443
 74
443
 0
VERTEX
 8
23
 10
0
 20
0
 30
0
 70
128
 71
496
 72
472
 73
509
 74
509
 0
VERTEX
 8
23
 10
0
 20
0
 30
0
 70
128
 71
474
 72
497
 73
539
 74
539
 0
VERTEX
 8
23
 10
0
 20
0
 30
0
 70
128
 71
472
 72
507
 73
509
 74
509
 0
VERTEX
 8
23
 10
0
 20
0
 30
0
 70
128
 71
537
 72
474
 73
539
 74
539
 0
VERTEX
 8
23
 10
0
 20
0
 30
0
 70
128
 71
475
 72
478
 73
530
 74
530
 0
VERTEX
 8
23
 10
0
 20
0
 30
0
 70
128
 71
479
 72
476
 73
559
 74
559
 0
VERTEX
 8
23
 10
0
 20
0
 30
0
 70
128
 71
498
 72
475
 73
530
 74
530
 0
VERTEX
 8
23
 10
0
 20
0
 30
0
 70
128
 71
478
 72
480
 73
526
 74
526
 0
VERTEX
 8
23
 10
0
 20
0
 30
0
 70
128
 71
481
 72
479
 73
557
 74
557
 0
VERTEX
 8
23
 10
0
 20
0
 30
0
 70
128
 71
478
 72
526
 73
528
 74
528
 0
VERTEX
 8
23
 10
0
 20
0
 30
0
 70
128
 71
478
 72
528
 73
530
 74
530
 0
VERTEX
 8
23
 10
0
 20
0
 30
0
 70
128
 71
557
 72
479
 73
559
 74
559
 0
VERTEX
 8
23
 10
0
 20
0
 30
0
 70
128
 71
480
 72
482
 73
488
 74
488
 0
VERTEX
 8
23
 10
0
 20
0
 30
0
 70
128
 71
483
 72
481
 73
555
 74
555
 0
VERTEX
 8
23
 10
0
 20
0
 30
0
 70
128
 71
480
 72
488
 73
524
 74
524
 0
VERTEX
 8
23
 10
0
 20
0
 30
0
 70
128
 71
480
 72
524
 73
526
 74
526
 0
VERTEX
 8
23
 10
0
 20
0
 30
0
 70
128
 71
555
 72
481
 73
557
 74
557
 0
VERTEX
 8
23
 10
0
 20
0
 30
0
 70
128
 71
482
 72
484
 73
486
 74
486
 0
VERTEX
 8
23
 10
0
 20
0
 30
0
 70
128
 71
485
 72
483
 73
553
 74
553
 0
VERTEX
 8
23
 10
0
 20
0
 30
0
 70
128
 71
482
 72
486
 73
488
 74
488
 0
VERTEX
 8
23
 10
0
 20
0
 30
0
 70
128
 71
553
 72
483
 73
555
 74
555
 0
VERTEX
 8
23
 10
0
 20
0
 30
0
 70
128
 71
487
 72
485
 73
551
 74
551
 0
VERTEX
 8
23
 10
0
 20
0
 30
0
 70
128
 71
551
 72
485
 73
553
 74
553
 0
VERTEX
 8
23
 10
0
 20
0
 30
0
 70
128
 71
489
 72
487
 73
549
 74
549
 0
VERTEX
 8
23
 10
0
 20
0
 30
0
 70
128
 71
549
 72
487
 73
551
 74
551
 0
VERTEX
 8
23
 10
0
 20
0
 30
0
 70
128
 71
488
 72
490
 73
522
 74
522
 0
VERTEX
 8
23
 10
0
 20
0
 30
0
 70
128
 71
491
 72
489
 73
547
 74
547
 0
VERTEX
 8
23
 10
0
 20
0
 30
0
 70
128
 71
488
 72
522
 73
524
 74
524
 0
VERTEX
 8
23
 10
0
 20
0
 30
0
 70
128
 71
547
 72
489
 73
549
 74
549
 0
VERTEX
 8
23
 10
0
 20
0
 30
0
 70
128
 71
490
 72
492
 73
518
 74
518
 0
VERTEX
 8
23
 10
0
 20
0
 30
0
 70
128
 71
493
 72
491
 73
545
 74
545
 0
VERTEX
 8
23
 10
0
 20
0
 30
0
 70
128
 71
490
 72
518
 73
520
 74
520
 0
VERTEX
 8
23
 10
0
 20
0
 30
0
 70
128
 71
490
 72
520
 73
522
 74
522
 0
VERTEX
 8
23
 10
0
 20
0
 30
0
 70
128
 71
545
 72
491
 73
547
 74
547
 0
VERTEX
 8
23
 10
0
 20
0
 30
0
 70
128
 71
492
 72
494
 73
515
 74
515
 0
VERTEX
 8
23
 10
0
 20
0
 30
0
 70
128
 71
495
 72
493
 73
543
 74
543
 0
VERTEX
 8
23
 10
0
 20
0
 30
0
 70
128
 71
492
 72
515
 73
518
 74
518
 0
VERTEX
 8
23
 10
0
 20
0
 30
0
 70
128
 71
543
 72
493
 73
545
 74
545
 0
VERTEX
 8
23
 10
0
 20
0
 30
0
 70
128
 71
494
 72
496
 73
513
 74
513
 0
VERTEX
 8
23
 10
0
 20
0
 30
0
 70
128
 71
497
 72
495
 73
541
 74
541
 0
VERTEX
 8
23
 10
0
 20
0
 30
0
 70
128
 71
494
 72
513
 73
515
 74
515
 0
VERTEX
 8
23
 10
0
 20
0
 30
0
 70
128
 71
541
 72
495
 73
543
 74
543
 0
VERTEX
 8
23
 10
0
 20
0
 30
0
 70
128
 71
496
 72
509
 73
511
 74
511
 0
VERTEX
 8
23
 10
0
 20
0
 30
0
 70
128
 71
496
 72
511
 73
513
 74
513
 0
VERTEX
 8
23
 10
0
 20
0
 30
0
 70
128
 71
539
 72
497
 73
541
 74
541
 0
VERTEX
 8
23
 10
0
 20
0
 30
0
 70
128
 71
502
 72
500
 73
797
 74
797
 0
VERTEX
 8
23
 10
0
 20
0
 30
0
 70
128
 71
499
 72
531
 73
794
 74
794
 0
VERTEX
 8
23
 10
0
 20
0
 30
0
 70
128
 71
499
 72
794
 73
796
 74
796
 0
VERTEX
 8
23
 10
0
 20
0
 30
0
 70
128
 71
504
 72
502
 73
948
 74
948
 0
VERTEX
 8
23
 10
0
 20
0
 30
0
 70
128
 71
502
 72
797
 73
946
 74
946
 0
VERTEX
 8
23
 10
0
 20
0
 30
0
 70
128
 71
502
 72
946
 73
948
 74
948
 0
VERTEX
 8
23
 10
0
 20
0
 30
0
 70
128
 71
506
 72
504
 73
950
 74
950
 0
VERTEX
 8
23
 10
0
 20
0
 30
0
 70
128
 71
504
 72
948
 73
950
 74
950
 0
VERTEX
 8
23
 10
0
 20
0
 30
0
 70
128
 71
508
 72
506
 73
950
 74
950
 0
VERTEX
 8
23
 10
0
 20
0
 30
0
 70
128
 71
510
 72
508
 73
952
 74
952
 0
VERTEX
 8
23
 10
0
 20
0
 30
0
 70
128
 71
508
 72
950
 73
952
 74
952
 0
VERTEX
 8
23
 10
0
 20
0
 30
0
 70
128
 71
512
 72
510
 73
954
 74
954
 0
VERTEX
 8
23
 10
0
 20
0
 30
0
 70
128
 71
510
 72
952
 73
954
 74
954
 0
VERTEX
 8
23
 10
0
 20
0
 30
0
 70
128
 71
514
 72
512
 73
956
 74
956
 0
VERTEX
 8
23
 10
0
 20
0
 30
0
 70
128
 71
512
 72
954
 73
956
 74
956
 0
VERTEX
 8
23
 10
0
 20
0
 30
0
 70
128
 71
517
 72
514
 73
958
 74
958
 0
VERTEX
 8
23
 10
0
 20
0
 30
0
 70
128
 71
514
 72
956
 73
958
 74
958
 0
VERTEX
 8
23
 10
0
 20
0
 30
0
 70
128
 71
519
 72
516
 73
778
 74
778
 0
VERTEX
 8
23
 10
0
 20
0
 30
0
 70
128
 71
779
 72
517
 73
958
 74
958
 0
VERTEX
 8
23
 10
0
 20
0
 30
0
 70
128
 71
521
 72
519
 73
784
 74
784
 0
VERTEX
 8
23
 10
0
 20
0
 30
0
 70
128
 71
519
 72
778
 73
782
 74
782
 0
VERTEX
 8
23
 10
0
 20
0
 30
0
 70
128
 71
519
 72
782
 73
784
 74
784
 0
VERTEX
 8
23
 10
0
 20
0
 30
0
 70
128
 71
523
 72
521
 73
786
 74
786
 0
VERTEX
 8
23
 10
0
 20
0
 30
0
 70
128
 71
521
 72
784
 73
786
 74
786
 0
VERTEX
 8
23
 10
0
 20
0
 30
0
 70
128
 71
525
 72
523
 73
786
 74
786
 0
VERTEX
 8
23
 10
0
 20
0
 30
0
 70
128
 71
527
 72
525
 73
788
 74
788
 0
VERTEX
 8
23
 10
0
 20
0
 30
0
 70
128
 71
525
 72
786
 73
788
 74
788
 0
VERTEX
 8
23
 10
0
 20
0
 30
0
 70
128
 71
529
 72
527
 73
790
 74
790
 0
VERTEX
 8
23
 10
0
 20
0
 30
0
 70
128
 71
527
 72
788
 73
790
 74
790
 0
VERTEX
 8
23
 10
0
 20
0
 30
0
 70
128
 71
531
 72
529
 73
792
 74
792
 0
VERTEX
 8
23
 10
0
 20
0
 30
0
 70
128
 71
529
 72
790
 73
792
 74
792
 0
VERTEX
 8
23
 10
0
 20
0
 30
0
 70
128
 71
531
 72
792
 73
794
 74
794
 0
VERTEX
 8
23
 10
0
 20
0
 30
0
 70
128
 71
532
 72
535
 73
587
 74
587
 0
VERTEX
 8
23
 10
0
 20
0
 30
0
 70
128
 71
533
 72
595
 73
599
 74
599
 0
VERTEX
 8
23
 10
0
 20
0
 30
0
 70
128
 71
535
 72
538
 73
583
 74
583
 0
VERTEX
 8
23
 10
0
 20
0
 30
0
 70
128
 71
535
 72
583
 73
585
 74
585
 0
VERTEX
 8
23
 10
0
 20
0
 30
0
 70
128
 71
535
 72
585
 73
587
 74
587
 0
VERTEX
 8
23
 10
0
 20
0
 30
0
 70
128
 71
538
 72
540
 73
581
 74
581
 0
VERTEX
 8
23
 10
0
 20
0
 30
0
 70
128
 71
538
 72
581
 73
583
 74
583
 0
VERTEX
 8
23
 10
0
 20
0
 30
0
 70
128
 71
540
 72
542
 73
578
 74
578
 0
VERTEX
 8
23
 10
0
 20
0
 30
0
 70
128
 71
540
 72
578
 73
581
 74
581
 0
VERTEX
 8
23
 10
0
 20
0
 30
0
 70
128
 71
542
 72
544
 73
574
 74
574
 0
VERTEX
 8
23
 10
0
 20
0
 30
0
 70
128
 71
542
 72
574
 73
576
 74
576
 0
VERTEX
 8
23
 10
0
 20
0
 30
0
 70
128
 71
542
 72
576
 73
578
 74
578
 0
VERTEX
 8
23
 10
0
 20
0
 30
0
 70
128
 71
544
 72
546
 73
570
 74
570
 0
VERTEX
 8
23
 10
0
 20
0
 30
0
 70
128
 71
544
 72
570
 73
572
 74
572
 0
VERTEX
 8
23
 10
0
 20
0
 30
0
 70
128
 71
544
 72
572
 73
574
 74
574
 0
VERTEX
 8
23
 10
0
 20
0
 30
0
 70
128
 71
546
 72
548
 73
552
 74
552
 0
VERTEX
 8
23
 10
0
 20
0
 30
0
 70
128
 71
546
 72
552
 73
570
 74
570
 0
VERTEX
 8
23
 10
0
 20
0
 30
0
 70
128
 71
548
 72
550
 73
552
 74
552
 0
VERTEX
 8
23
 10
0
 20
0
 30
0
 70
128
 71
552
 72
554
 73
570
 74
570
 0
VERTEX
 8
23
 10
0
 20
0
 30
0
 70
128
 71
554
 72
556
 73
566
 74
566
 0
VERTEX
 8
23
 10
0
 20
0
 30
0
 70
128
 71
554
 72
566
 73
568
 74
568
 0
VERTEX
 8
23
 10
0
 20
0
 30
0
 70
128
 71
554
 72
568
 73
570
 74
570
 0
VERTEX
 8
23
 10
0
 20
0
 30
0
 70
128
 71
556
 72
558
 73
564
 74
564
 0
VERTEX
 8
23
 10
0
 20
0
 30
0
 70
128
 71
556
 72
564
 73
566
 74
566
 0
VERTEX
 8
23
 10
0
 20
0
 30
0
 70
128
 71
558
 72
561
 73
564
 74
564
 0
VERTEX
 8
23
 10
0
 20
0
 30
0
 70
128
 71
561
 72
558
 73
593
 74
593
 0
VERTEX
 8
23
 10
0
 20
0
 30
0
 70
128
 71
558
 72
591
 73
593
 74
593
 0
VERTEX
 8
23
 10
0
 20
0
 30
0
 70
128
 71
565
 72
562
 73
709
 74
709
 0
VERTEX
 8
23
 10
0
 20
0
 30
0
 70
128
 71
563
 72
594
 73
712
 74
712
 0
VERTEX
 8
23
 10
0
 20
0
 30
0
 70
128
 71
710
 72
563
 73
712
 74
712
 0
VERTEX
 8
23
 10
0
 20
0
 30
0
 70
128
 71
567
 72
565
 73
741
 74
741
 0
VERTEX
 8
23
 10
0
 20
0
 30
0
 70
128
 71
565
 72
709
 73
741
 74
741
 0
VERTEX
 8
23
 10
0
 20
0
 30
0
 70
128
 71
569
 72
567
 73
739
 74
739
 0
VERTEX
 8
23
 10
0
 20
0
 30
0
 70
128
 71
739
 72
567
 73
741
 74
741
 0
VERTEX
 8
23
 10
0
 20
0
 30
0
 70
128
 71
571
 72
569
 73
737
 74
737
 0
VERTEX
 8
23
 10
0
 20
0
 30
0
 70
128
 71
737
 72
569
 73
739
 74
739
 0
VERTEX
 8
23
 10
0
 20
0
 30
0
 70
128
 71
573
 72
571
 73
735
 74
735
 0
VERTEX
 8
23
 10
0
 20
0
 30
0
 70
128
 71
735
 72
571
 73
737
 74
737
 0
VERTEX
 8
23
 10
0
 20
0
 30
0
 70
128
 71
575
 72
573
 73
731
 74
731
 0
VERTEX
 8
23
 10
0
 20
0
 30
0
 70
128
 71
731
 72
573
 73
733
 74
733
 0
VERTEX
 8
23
 10
0
 20
0
 30
0
 70
128
 71
733
 72
573
 73
735
 74
735
 0
VERTEX
 8
23
 10
0
 20
0
 30
0
 70
128
 71
577
 72
575
 73
731
 74
731
 0
VERTEX
 8
23
 10
0
 20
0
 30
0
 70
128
 71
579
 72
577
 73
729
 74
729
 0
VERTEX
 8
23
 10
0
 20
0
 30
0
 70
128
 71
729
 72
577
 73
731
 74
731
 0
VERTEX
 8
23
 10
0
 20
0
 30
0
 70
128
 71
582
 72
580
 73
727
 74
727
 0
VERTEX
 8
23
 10
0
 20
0
 30
0
 70
128
 71
726
 72
579
 73
729
 74
729
 0
VERTEX
 8
23
 10
0
 20
0
 30
0
 70
128
 71
584
 72
582
 73
724
 74
724
 0
VERTEX
 8
23
 10
0
 20
0
 30
0
 70
128
 71
724
 72
582
 73
727
 74
727
 0
VERTEX
 8
23
 10
0
 20
0
 30
0
 70
128
 71
586
 72
584
 73
722
 74
722
 0
VERTEX
 8
23
 10
0
 20
0
 30
0
 70
128
 71
722
 72
584
 73
724
 74
724
 0
VERTEX
 8
23
 10
0
 20
0
 30
0
 70
128
 71
588
 72
586
 73
720
 74
720
 0
VERTEX
 8
23
 10
0
 20
0
 30
0
 70
128
 71
720
 72
586
 73
722
 74
722
 0
VERTEX
 8
23
 10
0
 20
0
 30
0
 70
128
 71
590
 72
588
 73
718
 74
718
 0
VERTEX
 8
23
 10
0
 20
0
 30
0
 70
128
 71
718
 72
588
 73
720
 74
720
 0
VERTEX
 8
23
 10
0
 20
0
 30
0
 70
128
 71
592
 72
590
 73
714
 74
714
 0
VERTEX
 8
23
 10
0
 20
0
 30
0
 70
128
 71
714
 72
590
 73
716
 74
716
 0
VERTEX
 8
23
 10
0
 20
0
 30
0
 70
128
 71
716
 72
590
 73
718
 74
718
 0
VERTEX
 8
23
 10
0
 20
0
 30
0
 70
128
 71
594
 72
592
 73
714
 74
714
 0
VERTEX
 8
23
 10
0
 20
0
 30
0
 70
128
 71
712
 72
594
 73
714
 74
714
 0
VERTEX
 8
23
 10
0
 20
0
 30
0
 70
128
 71
595
 72
597
 73
599
 74
599
 0
VERTEX
 8
23
 10
0
 20
0
 30
0
 70
128
 71
608
 72
611
 73
625
 74
625
 0
VERTEX
 8
23
 10
0
 20
0
 30
0
 70
128
 71
612
 72
610
 73
759
 74
759
 0
VERTEX
 8
23
 10
0
 20
0
 30
0
 70
128
 71
608
 72
625
 73
627
 74
627
 0
VERTEX
 8
23
 10
0
 20
0
 30
0
 70
128
 71
608
 72
627
 73
644
 74
644
 0
VERTEX
 8
23
 10
0
 20
0
 30
0
 70
128
 71
609
 72
645
 73
760
 74
760
 0
VERTEX
 8
23
 10
0
 20
0
 30
0
 70
128
 71
758
 72
609
 73
760
 74
760
 0
VERTEX
 8
23
 10
0
 20
0
 30
0
 70
128
 71
611
 72
613
 73
623
 74
623
 0
VERTEX
 8
23
 10
0
 20
0
 30
0
 70
128
 71
614
 72
612
 73
777
 74
777
 0
VERTEX
 8
23
 10
0
 20
0
 30
0
 70
128
 71
611
 72
623
 73
625
 74
625
 0
VERTEX
 8
23
 10
0
 20
0
 30
0
 70
128
 71
612
 72
759
 73
777
 74
777
 0
VERTEX
 8
23
 10
0
 20
0
 30
0
 70
128
 71
613
 72
615
 73
621
 74
621
 0
VERTEX
 8
23
 10
0
 20
0
 30
0
 70
128
 71
616
 72
614
 73
776
 74
776
 0
VERTEX
 8
23
 10
0
 20
0
 30
0
 70
128
 71
613
 72
621
 73
623
 74
623
 0
VERTEX
 8
23
 10
0
 20
0
 30
0
 70
128
 71
776
 72
614
 73
777
 74
777
 0
VERTEX
 8
23
 10
0
 20
0
 30
0
 70
128
 71
615
 72
617
 73
619
 74
619
 0
VERTEX
 8
23
 10
0
 20
0
 30
0
 70
128
 71
618
 72
616
 73
775
 74
775
 0
VERTEX
 8
23
 10
0
 20
0
 30
0
 70
128
 71
615
 72
619
 73
621
 74
621
 0
VERTEX
 8
23
 10
0
 20
0
 30
0
 70
128
 71
775
 72
616
 73
776
 74
776
 0
VERTEX
 8
23
 10
0
 20
0
 30
0
 70
128
 71
620
 72
618
 73
774
 74
774
 0
VERTEX
 8
23
 10
0
 20
0
 30
0
 70
128
 71
774
 72
618
 73
775
 74
775
 0
VERTEX
 8
23
 10
0
 20
0
 30
0
 70
128
 71
622
 72
620
 73
772
 74
772
 0
VERTEX
 8
23
 10
0
 20
0
 30
0
 70
128
 71
772
 72
620
 73
773
 74
773
 0
VERTEX
 8
23
 10
0
 20
0
 30
0
 70
128
 71
773
 72
620
 73
774
 74
774
 0
VERTEX
 8
23
 10
0
 20
0
 30
0
 70
128
 71
624
 72
622
 73
771
 74
771
 0
VERTEX
 8
23
 10
0
 20
0
 30
0
 70
128
 71
771
 72
622
 73
772
 74
772
 0
VERTEX
 8
23
 10
0
 20
0
 30
0
 70
128
 71
626
 72
624
 73
770
 74
770
 0
VERTEX
 8
23
 10
0
 20
0
 30
0
 70
128
 71
770
 72
624
 73
771
 74
771
 0
VERTEX
 8
23
 10
0
 20
0
 30
0
 70
128
 71
629
 72
626
 73
770
 74
770
 0
VERTEX
 8
23
 10
0
 20
0
 30
0
 70
128
 71
627
 72
630
 73
644
 74
644
 0
VERTEX
 8
23
 10
0
 20
0
 30
0
 70
128
 71
631
 72
628
 73
768
 74
768
 0
VERTEX
 8
23
 10
0
 20
0
 30
0
 70
128
 71
769
 72
629
 73
770
 74
770
 0
VERTEX
 8
23
 10
0
 20
0
 30
0
 70
128
 71
630
 72
632
 73
642
 74
642
 0
VERTEX
 8
23
 10
0
 20
0
 30
0
 70
128
 71
633
 72
631
 73
767
 74
767
 0
VERTEX
 8
23
 10
0
 20
0
 30
0
 70
128
 71
630
 72
642
 73
644
 74
644
 0
VERTEX
 8
23
 10
0
 20
0
 30
0
 70
128
 71
767
 72
631
 73
768
 74
768
 0
VERTEX
 8
23
 10
0
 20
0
 30
0
 70
128
 71
632
 72
634
 73
640
 74
640
 0
VERTEX
 8
23
 10
0
 20
0
 30
0
 70
128
 71
635
 72
633
 73
766
 74
766
 0
VERTEX
 8
23
 10
0
 20
0
 30
0
 70
128
 71
632
 72
640
 73
642
 74
642
 0
VERTEX
 8
23
 10
0
 20
0
 30
0
 70
128
 71
766
 72
633
 73
767
 74
767
 0
VERTEX
 8
23
 10
0
 20
0
 30
0
 70
128
 71
634
 72
636
 73
638
 74
638
 0
VERTEX
 8
23
 10
0
 20
0
 30
0
 70
128
 71
637
 72
635
 73
765
 74
765
 0
VERTEX
 8
23
 10
0
 20
0
 30
0
 70
128
 71
634
 72
638
 73
640
 74
640
 0
VERTEX
 8
23
 10
0
 20
0
 30
0
 70
128
 71
765
 72
635
 73
766
 74
766
 0
VERTEX
 8
23
 10
0
 20
0
 30
0
 70
128
 71
639
 72
637
 73
764
 74
764
 0
VERTEX
 8
23
 10
0
 20
0
 30
0
 70
128
 71
764
 72
637
 73
765
 74
765
 0
VERTEX
 8
23
 10
0
 20
0
 30
0
 70
128
 71
641
 72
639
 73
762
 74
762
 0
VERTEX
 8
23
 10
0
 20
0
 30
0
 70
128
 71
762
 72
639
 73
763
 74
763
 0
VERTEX
 8
23
 10
0
 20
0
 30
0
 70
128
 71
763
 72
639
 73
764
 74
764
 0
VERTEX
 8
23
 10
0
 20
0
 30
0
 70
128
 71
643
 72
641
 73
761
 74
761
 0
VERTEX
 8
23
 10
0
 20
0
 30
0
 70
128
 71
761
 72
641
 73
762
 74
762
 0
VERTEX
 8
23
 10
0
 20
0
 30
0
 70
128
 71
645
 72
643
 73
760
 74
760
 0
VERTEX
 8
23
 10
0
 20
0
 30
0
 70
128
 71
760
 72
643
 73
761
 74
761
 0
VERTEX
 8
23
 10
0
 20
0
 30
0
 70
128
 71
646
 72
650
 73
690
 74
690
 0
VERTEX
 8
23
 10
0
 20
0
 30
0
 70
128
 71
652
 72
647
 73
693
 74
693
 0
VERTEX
 8
23
 10
0
 20
0
 30
0
 70
128
 71
648
 72
691
 73
767
 74
767
 0
VERTEX
 8
23
 10
0
 20
0
 30
0
 70
128
 71
693
 72
647
 73
742
 74
742
 0
VERTEX
 8
23
 10
0
 20
0
 30
0
 70
128
 71
743
 72
649
 73
769
 74
769
 0
VERTEX
 8
23
 10
0
 20
0
 30
0
 70
128
 71
648
 72
767
 73
768
 74
768
 0
VERTEX
 8
23
 10
0
 20
0
 30
0
 70
128
 71
650
 72
653
 73
690
 74
690
 0
VERTEX
 8
23
 10
0
 20
0
 30
0
 70
128
 71
654
 72
651
 73
725
 74
725
 0
VERTEX
 8
23
 10
0
 20
0
 30
0
 70
128
 71
651
 72
692
 73
723
 74
723
 0
VERTEX
 8
23
 10
0
 20
0
 30
0
 70
128
 71
651
 72
723
 73
725
 74
725
 0
VERTEX
 8
23
 10
0
 20
0
 30
0
 70
128
 71
653
 72
655
 73
688
 74
688
 0
VERTEX
 8
23
 10
0
 20
0
 30
0
 70
128
 71
656
 72
654
 73
730
 74
730
 0
VERTEX
 8
23
 10
0
 20
0
 30
0
 70
128
 71
653
 72
688
 73
690
 74
690
 0
VERTEX
 8
23
 10
0
 20
0
 30
0
 70
128
 71
654
 72
725
 73
728
 74
728
 0
VERTEX
 8
23
 10
0
 20
0
 30
0
 70
128
 71
654
 72
728
 73
730
 74
730
 0
VERTEX
 8
23
 10
0
 20
0
 30
0
 70
128
 71
658
 72
656
 73
666
 74
666
 0
VERTEX
 8
23
 10
0
 20
0
 30
0
 70
128
 71
655
 72
657
 73
686
 74
686
 0
VERTEX
 8
23
 10
0
 20
0
 30
0
 70
128
 71
666
 72
656
 73
734
 74
734
 0
VERTEX
 8
23
 10
0
 20
0
 30
0
 70
128
 71
655
 72
686
 73
688
 74
688
 0
VERTEX
 8
23
 10
0
 20
0
 30
0
 70
128
 71
656
 72
730
 73
732
 74
732
 0
VERTEX
 8
23
 10
0
 20
0
 30
0
 70
128
 71
656
 72
732
 73
734
 74
734
 0
VERTEX
 8
23
 10
0
 20
0
 30
0
 70
128
 71
660
 72
658
 73
664
 74
664
 0
VERTEX
 8
23
 10
0
 20
0
 30
0
 70
128
 71
657
 72
659
 73
684
 74
684
 0
VERTEX
 8
23
 10
0
 20
0
 30
0
 70
128
 71
664
 72
658
 73
666
 74
666
 0
VERTEX
 8
23
 10
0
 20
0
 30
0
 70
128
 71
657
 72
684
 73
686
 74
686
 0
VERTEX
 8
23
 10
0
 20
0
 30
0
 70
128
 71
662
 72
660
 73
664
 74
664
 0
VERTEX
 8
23
 10
0
 20
0
 30
0
 70
128
 71
659
 72
661
 73
682
 74
682
 0
VERTEX
 8
23
 10
0
 20
0
 30
0
 70
128
 71
659
 72
682
 73
684
 74
684
 0
VERTEX
 8
23
 10
0
 20
0
 30
0
 70
128
 71
661
 72
663
 73
680
 74
680
 0
VERTEX
 8
23
 10
0
 20
0
 30
0
 70
128
 71
661
 72
680
 73
682
 74
682
 0
VERTEX
 8
23
 10
0
 20
0
 30
0
 70
128
 71
663
 72
665
 73
678
 74
678
 0
VERTEX
 8
23
 10
0
 20
0
 30
0
 70
128
 71
663
 72
678
 73
680
 74
680
 0
VERTEX
 8
23
 10
0
 20
0
 30
0
 70
128
 71
665
 72
667
 73
676
 74
676
 0
VERTEX
 8
23
 10
0
 20
0
 30
0
 70
128
 71
668
 72
666
 73
736
 74
736
 0
VERTEX
 8
23
 10
0
 20
0
 30
0
 70
128
 71
665
 72
676
 73
678
 74
678
 0
VERTEX
 8
23
 10
0
 20
0
 30
0
 70
128
 71
666
 72
734
 73
736
 74
736
 0
VERTEX
 8
23
 10
0
 20
0
 30
0
 70
128
 71
667
 72
669
 73
672
 74
672
 0
VERTEX
 8
23
 10
0
 20
0
 30
0
 70
128
 71
670
 72
668
 73
740
 74
740
 0
VERTEX
 8
23
 10
0
 20
0
 30
0
 70
128
 71
667
 72
672
 73
676
 74
676
 0
VERTEX
 8
23
 10
0
 20
0
 30
0
 70
128
 71
668
 72
736
 73
738
 74
738
 0
VERTEX
 8
23
 10
0
 20
0
 30
0
 70
128
 71
668
 72
738
 73
740
 74
740
 0
VERTEX
 8
23
 10
0
 20
0
 30
0
 70
128
 71
673
 72
671
 73
756
 74
756
 0
VERTEX
 8
23
 10
0
 20
0
 30
0
 70
128
 71
706
 72
670
 73
708
 74
708
 0
VERTEX
 8
23
 10
0
 20
0
 30
0
 70
128
 71
671
 72
707
 73
756
 74
756
 0
VERTEX
 8
23
 10
0
 20
0
 30
0
 70
128
 71
708
 72
670
 73
740
 74
740
 0
VERTEX
 8
23
 10
0
 20
0
 30
0
 70
128
 71
677
 72
674
 73
758
 74
758
 0
VERTEX
 8
23
 10
0
 20
0
 30
0
 70
128
 71
675
 72
757
 73
777
 74
777
 0
VERTEX
 8
23
 10
0
 20
0
 30
0
 70
128
 71
759
 72
675
 73
777
 74
777
 0
VERTEX
 8
23
 10
0
 20
0
 30
0
 70
128
 71
679
 72
677
 73
760
 74
760
 0
VERTEX
 8
23
 10
0
 20
0
 30
0
 70
128
 71
677
 72
758
 73
760
 74
760
 0
VERTEX
 8
23
 10
0
 20
0
 30
0
 70
128
 71
681
 72
679
 73
761
 74
761
 0
VERTEX
 8
23
 10
0
 20
0
 30
0
 70
128
 71
679
 72
760
 73
761
 74
761
 0
VERTEX
 8
23
 10
0
 20
0
 30
0
 70
128
 71
683
 72
681
 73
762
 74
762
 0
VERTEX
 8
23
 10
0
 20
0
 30
0
 70
128
 71
681
 72
761
 73
762
 74
762
 0
VERTEX
 8
23
 10
0
 20
0
 30
0
 70
128
 71
685
 72
683
 73
763
 74
763
 0
VERTEX
 8
23
 10
0
 20
0
 30
0
 70
128
 71
683
 72
762
 73
763
 74
763
 0
VERTEX
 8
23
 10
0
 20
0
 30
0
 70
128
 71
687
 72
685
 73
764
 74
764
 0
VERTEX
 8
23
 10
0
 20
0
 30
0
 70
128
 71
685
 72
763
 73
764
 74
764
 0
VERTEX
 8
23
 10
0
 20
0
 30
0
 70
128
 71
689
 72
687
 73
765
 74
765
 0
VERTEX
 8
23
 10
0
 20
0
 30
0
 70
128
 71
687
 72
764
 73
765
 74
765
 0
VERTEX
 8
23
 10
0
 20
0
 30
0
 70
128
 71
691
 72
689
 73
766
 74
766
 0
VERTEX
 8
23
 10
0
 20
0
 30
0
 70
128
 71
689
 72
765
 73
766
 74
766
 0
VERTEX
 8
23
 10
0
 20
0
 30
0
 70
128
 71
691
 72
766
 73
767
 74
767
 0
VERTEX
 8
23
 10
0
 20
0
 30
0
 70
128
 71
692
 72
694
 73
719
 74
719
 0
VERTEX
 8
23
 10
0
 20
0
 30
0
 70
128
 71
695
 72
693
 73
742
 74
742
 0
VERTEX
 8
23
 10
0
 20
0
 30
0
 70
128
 71
692
 72
719
 73
721
 74
721
 0
VERTEX
 8
23
 10
0
 20
0
 30
0
 70
128
 71
692
 72
721
 73
723
 74
723
 0
VERTEX
 8
23
 10
0
 20
0
 30
0
 70
128
 71
694
 72
696
 73
702
 74
702
 0
VERTEX
 8
23
 10
0
 20
0
 30
0
 70
128
 71
697
 72
695
 73
744
 74
744
 0
VERTEX
 8
23
 10
0
 20
0
 30
0
 70
128
 71
694
 72
702
 73
704
 74
704
 0
VERTEX
 8
23
 10
0
 20
0
 30
0
 70
128
 71
694
 72
704
 73
717
 74
717
 0
VERTEX
 8
23
 10
0
 20
0
 30
0
 70
128
 71
694
 72
717
 73
719
 74
719
 0
VERTEX
 8
23
 10
0
 20
0
 30
0
 70
128
 71
695
 72
742
 73
744
 74
744
 0
VERTEX
 8
23
 10
0
 20
0
 30
0
 70
128
 71
696
 72
698
 73
700
 74
700
 0
VERTEX
 8
23
 10
0
 20
0
 30
0
 70
128
 71
699
 72
697
 73
746
 74
746
 0
VERTEX
 8
23
 10
0
 20
0
 30
0
 70
128
 71
696
 72
700
 73
702
 74
702
 0
VERTEX
 8
23
 10
0
 20
0
 30
0
 70
128
 71
697
 72
744
 73
746
 74
746
 0
VERTEX
 8
23
 10
0
 20
0
 30
0
 70
128
 71
701
 72
699
 73
748
 74
748
 0
VERTEX
 8
23
 10
0
 20
0
 30
0
 70
128
 71
699
 72
746
 73
748
 74
748
 0
VERTEX
 8
23
 10
0
 20
0
 30
0
 70
128
 71
703
 72
701
 73
750
 74
750
 0
VERTEX
 8
23
 10
0
 20
0
 30
0
 70
128
 71
701
 72
748
 73
750
 74
750
 0
VERTEX
 8
23
 10
0
 20
0
 30
0
 70
128
 71
705
 72
703
 73
752
 74
752
 0
VERTEX
 8
23
 10
0
 20
0
 30
0
 70
128
 71
703
 72
750
 73
752
 74
752
 0
VERTEX
 8
23
 10
0
 20
0
 30
0
 70
128
 71
704
 72
706
 73
713
 74
713
 0
VERTEX
 8
23
 10
0
 20
0
 30
0
 70
128
 71
707
 72
705
 73
754
 74
754
 0
VERTEX
 8
23
 10
0
 20
0
 30
0
 70
128
 71
704
 72
713
 73
715
 74
715
 0
VERTEX
 8
23
 10
0
 20
0
 30
0
 70
128
 71
704
 72
715
 73
717
 74
717
 0
VERTEX
 8
23
 10
0
 20
0
 30
0
 70
128
 71
705
 72
752
 73
754
 74
754
 0
VERTEX
 8
23
 10
0
 20
0
 30
0
 70
128
 71
706
 72
708
 73
711
 74
711
 0
VERTEX
 8
23
 10
0
 20
0
 30
0
 70
128
 71
706
 72
711
 73
713
 74
713
 0
VERTEX
 8
23
 10
0
 20
0
 30
0
 70
128
 71
707
 72
754
 73
756
 74
756
 0
VERTEX
 8
23
 10
0
 20
0
 30
0
 70
128
 71
745
 72
743
 73
770
 74
770
 0
VERTEX
 8
23
 10
0
 20
0
 30
0
 70
128
 71
743
 72
769
 73
770
 74
770
 0
VERTEX
 8
23
 10
0
 20
0
 30
0
 70
128
 71
747
 72
745
 73
771
 74
771
 0
VERTEX
 8
23
 10
0
 20
0
 30
0
 70
128
 71
745
 72
770
 73
771
 74
771
 0
VERTEX
 8
23
 10
0
 20
0
 30
0
 70
128
 71
749
 72
747
 73
772
 74
772
 0
VERTEX
 8
23
 10
0
 20
0
 30
0
 70
128
 71
747
 72
771
 73
772
 74
772
 0
VERTEX
 8
23
 10
0
 20
0
 30
0
 70
128
 71
751
 72
749
 73
773
 74
773
 0
VERTEX
 8
23
 10
0
 20
0
 30
0
 70
128
 71
749
 72
772
 73
773
 74
773
 0
VERTEX
 8
23
 10
0
 20
0
 30
0
 70
128
 71
753
 72
751
 73
774
 74
774
 0
VERTEX
 8
23
 10
0
 20
0
 30
0
 70
128
 71
751
 72
773
 73
774
 74
774
 0
VERTEX
 8
23
 10
0
 20
0
 30
0
 70
128
 71
755
 72
753
 73
775
 74
775
 0
VERTEX
 8
23
 10
0
 20
0
 30
0
 70
128
 71
753
 72
774
 73
775
 74
775
 0
VERTEX
 8
23
 10
0
 20
0
 30
0
 70
128
 71
757
 72
755
 73
776
 74
776
 0
VERTEX
 8
23
 10
0
 20
0
 30
0
 70
128
 71
755
 72
775
 73
776
 74
776
 0
VERTEX
 8
23
 10
0
 20
0
 30
0
 70
128
 71
757
 72
776
 73
777
 74
777
 0
VERTEX
 8
23
 10
0
 20
0
 30
0
 70
128
 71
783
 72
780
 73
866
 74
866
 0
VERTEX
 8
23
 10
0
 20
0
 30
0
 70
128
 71
867
 72
781
 73
987
 74
987
 0
VERTEX
 8
23
 10
0
 20
0
 30
0
 70
128
 71
781
 72
959
 73
987
 74
987
 0
VERTEX
 8
23
 10
0
 20
0
 30
0
 70
128
 71
785
 72
783
 73
861
 74
861
 0
VERTEX
 8
23
 10
0
 20
0
 30
0
 70
128
 71
861
 72
783
 73
863
 74
863
 0
VERTEX
 8
23
 10
0
 20
0
 30
0
 70
128
 71
863
 72
783
 73
866
 74
866
 0
VERTEX
 8
23
 10
0
 20
0
 30
0
 70
128
 71
787
 72
785
 73
857
 74
857
 0
VERTEX
 8
23
 10
0
 20
0
 30
0
 70
128
 71
857
 72
785
 73
859
 74
859
 0
VERTEX
 8
23
 10
0
 20
0
 30
0
 70
128
 71
859
 72
785
 73
861
 74
861
 0
VERTEX
 8
23
 10
0
 20
0
 30
0
 70
128
 71
789
 72
787
 73
853
 74
853
 0
VERTEX
 8
23
 10
0
 20
0
 30
0
 70
128
 71
853
 72
787
 73
855
 74
855
 0
VERTEX
 8
23
 10
0
 20
0
 30
0
 70
128
 71
855
 72
787
 73
857
 74
857
 0
VERTEX
 8
23
 10
0
 20
0
 30
0
 70
128
 71
791
 72
789
 73
851
 74
851
 0
VERTEX
 8
23
 10
0
 20
0
 30
0
 70
128
 71
851
 72
789
 73
853
 74
853
 0
VERTEX
 8
23
 10
0
 20
0
 30
0
 70
128
 71
793
 72
791
 73
847
 74
847
 0
VERTEX
 8
23
 10
0
 20
0
 30
0
 70
128
 71
847
 72
791
 73
849
 74
849
 0
VERTEX
 8
23
 10
0
 20
0
 30
0
 70
128
 71
849
 72
791
 73
851
 74
851
 0
VERTEX
 8
23
 10
0
 20
0
 30
0
 70
128
 71
795
 72
793
 73
843
 74
843
 0
VERTEX
 8
23
 10
0
 20
0
 30
0
 70
128
 71
843
 72
793
 73
845
 74
845
 0
VERTEX
 8
23
 10
0
 20
0
 30
0
 70
128
 71
845
 72
793
 73
847
 74
847
 0
VERTEX
 8
23
 10
0
 20
0
 30
0
 70
128
 71
798
 72
795
 73
839
 74
839
 0
VERTEX
 8
23
 10
0
 20
0
 30
0
 70
128
 71
839
 72
795
 73
841
 74
841
 0
VERTEX
 8
23
 10
0
 20
0
 30
0
 70
128
 71
841
 72
795
 73
843
 74
843
 0
VERTEX
 8
23
 10
0
 20
0
 30
0
 70
128
 71
836
 72
798
 73
839
 74
839
 0
VERTEX
 8
23
 10
0
 20
0
 30
0
 70
128
 71
799
 72
837
 73
947
 74
947
 0
VERTEX
 8
23
 10
0
 20
0
 30
0
 70
128
 71
800
 72
804
 73
862
 74
862
 0
VERTEX
 8
23
 10
0
 20
0
 30
0
 70
128
 71
805
 72
802
 73
910
 74
910
 0
VERTEX
 8
23
 10
0
 20
0
 30
0
 70
128
 71
800
 72
862
 73
864
 74
864
 0
VERTEX
 8
23
 10
0
 20
0
 30
0
 70
128
 71
801
 72
865
 73
984
 74
984
 0
VERTEX
 8
23
 10
0
 20
0
 30
0
 70
128
 71
911
 72
803
 73
1027
 74
1027
 0
VERTEX
 8
23
 10
0
 20
0
 30
0
 70
128
 71
803
 72
985
 73
1027
 74
1027
 0
VERTEX
 8
23
 10
0
 20
0
 30
0
 70
128
 71
804
 72
806
 73
860
 74
860
 0
VERTEX
 8
23
 10
0
 20
0
 30
0
 70
128
 71
807
 72
805
 73
907
 74
907
 0
VERTEX
 8
23
 10
0
 20
0
 30
0
 70
128
 71
804
 72
860
 73
862
 74
862
 0
VERTEX
 8
23
 10
0
 20
0
 30
0
 70
128
 71
907
 72
805
 73
910
 74
910
 0
VERTEX
 8
23
 10
0
 20
0
 30
0
 70
128
 71
806
 72
808
 73
858
 74
858
 0
VERTEX
 8
23
 10
0
 20
0
 30
0
 70
128
 71
809
 72
807
 73
907
 74
907
 0
VERTEX
 8
23
 10
0
 20
0
 30
0
 70
128
 71
806
 72
858
 73
860
 74
860
 0
VERTEX
 8
23
 10
0
 20
0
 30
0
 70
128
 71
808
 72
810
 73
856
 74
856
 0
VERTEX
 8
23
 10
0
 20
0
 30
0
 70
128
 71
811
 72
809
 73
905
 74
905
 0
VERTEX
 8
23
 10
0
 20
0
 30
0
 70
128
 71
808
 72
856
 73
858
 74
858
 0
VERTEX
 8
23
 10
0
 20
0
 30
0
 70
128
 71
905
 72
809
 73
907
 74
907
 0
VERTEX
 8
23
 10
0
 20
0
 30
0
 70
128
 71
810
 72
812
 73
854
 74
854
 0
VERTEX
 8
23
 10
0
 20
0
 30
0
 70
128
 71
813
 72
811
 73
905
 74
905
 0
VERTEX
 8
23
 10
0
 20
0
 30
0
 70
128
 71
810
 72
854
 73
856
 74
856
 0
VERTEX
 8
23
 10
0
 20
0
 30
0
 70
128
 71
812
 72
814
 73
852
 74
852
 0
VERTEX
 8
23
 10
0
 20
0
 30
0
 70
128
 71
815
 72
813
 73
903
 74
903
 0
VERTEX
 8
23
 10
0
 20
0
 30
0
 70
128
 71
812
 72
852
 73
854
 74
854
 0
VERTEX
 8
23
 10
0
 20
0
 30
0
 70
128
 71
903
 72
813
 73
905
 74
905
 0
VERTEX
 8
23
 10
0
 20
0
 30
0
 70
128
 71
814
 72
816
 73
850
 74
850
 0
VERTEX
 8
23
 10
0
 20
0
 30
0
 70
128
 71
817
 72
815
 73
903
 74
903
 0
VERTEX
 8
23
 10
0
 20
0
 30
0
 70
128
 71
814
 72
850
 73
852
 74
852
 0
VERTEX
 8
23
 10
0
 20
0
 30
0
 70
128
 71
816
 72
818
 73
848
 74
848
 0
VERTEX
 8
23
 10
0
 20
0
 30
0
 70
128
 71
819
 72
817
 73
901
 74
901
 0
VERTEX
 8
23
 10
0
 20
0
 30
0
 70
128
 71
816
 72
848
 73
850
 74
850
 0
VERTEX
 8
23
 10
0
 20
0
 30
0
 70
128
 71
901
 72
817
 73
903
 74
903
 0
VERTEX
 8
23
 10
0
 20
0
 30
0
 70
128
 71
818
 72
820
 73
846
 74
846
 0
VERTEX
 8
23
 10
0
 20
0
 30
0
 70
128
 71
821
 72
819
 73
899
 74
899
 0
VERTEX
 8
23
 10
0
 20
0
 30
0
 70
128
 71
818
 72
846
 73
848
 74
848
 0
VERTEX
 8
23
 10
0
 20
0
 30
0
 70
128
 71
899
 72
819
 73
901
 74
901
 0
VERTEX
 8
23
 10
0
 20
0
 30
0
 70
128
 71
820
 72
822
 73
844
 74
844
 0
VERTEX
 8
23
 10
0
 20
0
 30
0
 70
128
 71
823
 72
821
 73
899
 74
899
 0
VERTEX
 8
23
 10
0
 20
0
 30
0
 70
128
 71
820
 72
844
 73
846
 74
846
 0
VERTEX
 8
23
 10
0
 20
0
 30
0
 70
128
 71
822
 72
824
 73
842
 74
842
 0
VERTEX
 8
23
 10
0
 20
0
 30
0
 70
128
 71
825
 72
823
 73
897
 74
897
 0
VERTEX
 8
23
 10
0
 20
0
 30
0
 70
128
 71
822
 72
842
 73
844
 74
844
 0
VERTEX
 8
23
 10
0
 20
0
 30
0
 70
128
 71
897
 72
823
 73
899
 74
899
 0
VERTEX
 8
23
 10
0
 20
0
 30
0
 70
128
 71
824
 72
826
 73
840
 74
840
 0
VERTEX
 8
23
 10
0
 20
0
 30
0
 70
128
 71
827
 72
825
 73
897
 74
897
 0
VERTEX
 8
23
 10
0
 20
0
 30
0
 70
128
 71
824
 72
840
 73
842
 74
842
 0
VERTEX
 8
23
 10
0
 20
0
 30
0
 70
128
 71
826
 72
828
 73
838
 74
838
 0
VERTEX
 8
23
 10
0
 20
0
 30
0
 70
128
 71
829
 72
827
 73
895
 74
895
 0
VERTEX
 8
23
 10
0
 20
0
 30
0
 70
128
 71
826
 72
838
 73
840
 74
840
 0
VERTEX
 8
23
 10
0
 20
0
 30
0
 70
128
 71
895
 72
827
 73
897
 74
897
 0
VERTEX
 8
23
 10
0
 20
0
 30
0
 70
128
 71
828
 72
830
 73
834
 74
834
 0
VERTEX
 8
23
 10
0
 20
0
 30
0
 70
128
 71
832
 72
829
 73
895
 74
895
 0
VERTEX
 8
23
 10
0
 20
0
 30
0
 70
128
 71
828
 72
834
 73
838
 74
838
 0
VERTEX
 8
23
 10
0
 20
0
 30
0
 70
128
 71
835
 72
831
 73
1010
 74
1010
 0
VERTEX
 8
23
 10
0
 20
0
 30
0
 70
128
 71
892
 72
832
 73
895
 74
895
 0
VERTEX
 8
23
 10
0
 20
0
 30
0
 70
128
 71
833
 72
893
 73
961
 74
961
 0
VERTEX
 8
23
 10
0
 20
0
 30
0
 70
128
 71
831
 72
960
 73
1010
 74
1010
 0
VERTEX
 8
23
 10
0
 20
0
 30
0
 70
128
 71
947
 72
837
 73
1011
 74
1011
 0
VERTEX
 8
23
 10
0
 20
0
 30
0
 70
128
 71
984
 72
865
 73
986
 74
986
 0
VERTEX
 8
23
 10
0
 20
0
 30
0
 70
128
 71
868
 72
872
 73
906
 74
906
 0
VERTEX
 8
23
 10
0
 20
0
 30
0
 70
128
 71
873
 72
870
 73
930
 74
930
 0
VERTEX
 8
23
 10
0
 20
0
 30
0
 70
128
 71
868
 72
906
 73
908
 74
908
 0
VERTEX
 8
23
 10
0
 20
0
 30
0
 70
128
 71
869
 72
909
 73
1024
 74
1024
 0
VERTEX
 8
23
 10
0
 20
0
 30
0
 70
128
 71
931
 72
871
 73
933
 74
933
 0
VERTEX
 8
23
 10
0
 20
0
 30
0
 70
128
 71
933
 72
871
 73
1025
 74
1025
 0
VERTEX
 8
23
 10
0
 20
0
 30
0
 70
128
 71
872
 72
874
 73
904
 74
904
 0
VERTEX
 8
23
 10
0
 20
0
 30
0
 70
128
 71
875
 72
873
 73
928
 74
928
 0
VERTEX
 8
23
 10
0
 20
0
 30
0
 70
128
 71
872
 72
904
 73
906
 74
906
 0
VERTEX
 8
23
 10
0
 20
0
 30
0
 70
128
 71
928
 72
873
 73
930
 74
930
 0
VERTEX
 8
23
 10
0
 20
0
 30
0
 70
128
 71
874
 72
876
 73
902
 74
902
 0
VERTEX
 8
23
 10
0
 20
0
 30
0
 70
128
 71
877
 72
875
 73
926
 74
926
 0
VERTEX
 8
23
 10
0
 20
0
 30
0
 70
128
 71
874
 72
902
 73
904
 74
904
 0
VERTEX
 8
23
 10
0
 20
0
 30
0
 70
128
 71
926
 72
875
 73
928
 74
928
 0
VERTEX
 8
23
 10
0
 20
0
 30
0
 70
128
 71
876
 72
878
 73
900
 74
900
 0
VERTEX
 8
23
 10
0
 20
0
 30
0
 70
128
 71
879
 72
877
 73
924
 74
924
 0
VERTEX
 8
23
 10
0
 20
0
 30
0
 70
128
 71
876
 72
900
 73
902
 74
902
 0
VERTEX
 8
23
 10
0
 20
0
 30
0
 70
128
 71
924
 72
877
 73
926
 74
926
 0
VERTEX
 8
23
 10
0
 20
0
 30
0
 70
128
 71
878
 72
880
 73
898
 74
898
 0
VERTEX
 8
23
 10
0
 20
0
 30
0
 70
128
 71
881
 72
879
 73
922
 74
922
 0
VERTEX
 8
23
 10
0
 20
0
 30
0
 70
128
 71
878
 72
898
 73
900
 74
900
 0
VERTEX
 8
23
 10
0
 20
0
 30
0
 70
128
 71
922
 72
879
 73
924
 74
924
 0
VERTEX
 8
23
 10
0
 20
0
 30
0
 70
128
 71
880
 72
882
 73
896
 74
896
 0
VERTEX
 8
23
 10
0
 20
0
 30
0
 70
128
 71
883
 72
881
 73
920
 74
920
 0
VERTEX
 8
23
 10
0
 20
0
 30
0
 70
128
 71
880
 72
896
 73
898
 74
898
 0
VERTEX
 8
23
 10
0
 20
0
 30
0
 70
128
 71
920
 72
881
 73
922
 74
922
 0
VERTEX
 8
23
 10
0
 20
0
 30
0
 70
128
 71
882
 72
884
 73
894
 74
894
 0
VERTEX
 8
23
 10
0
 20
0
 30
0
 70
128
 71
885
 72
883
 73
918
 74
918
 0
VERTEX
 8
23
 10
0
 20
0
 30
0
 70
128
 71
882
 72
894
 73
896
 74
896
 0
VERTEX
 8
23
 10
0
 20
0
 30
0
 70
128
 71
918
 72
883
 73
920
 74
920
 0
VERTEX
 8
23
 10
0
 20
0
 30
0
 70
128
 71
884
 72
886
 73
890
 74
890
 0
VERTEX
 8
23
 10
0
 20
0
 30
0
 70
128
 71
888
 72
885
 73
916
 74
916
 0
VERTEX
 8
23
 10
0
 20
0
 30
0
 70
128
 71
884
 72
890
 73
894
 74
894
 0
VERTEX
 8
23
 10
0
 20
0
 30
0
 70
128
 71
916
 72
885
 73
918
 74
918
 0
VERTEX
 8
23
 10
0
 20
0
 30
0
 70
128
 71
891
 72
887
 73
1038
 74
1038
 0
VERTEX
 8
23
 10
0
 20
0
 30
0
 70
128
 71
913
 72
888
 73
916
 74
916
 0
VERTEX
 8
23
 10
0
 20
0
 30
0
 70
128
 71
889
 72
914
 73
1013
 74
1013
 0
VERTEX
 8
23
 10
0
 20
0
 30
0
 70
128
 71
887
 72
1012
 73
1038
 74
1038
 0
VERTEX
 8
23
 10
0
 20
0
 30
0
 70
128
 71
961
 72
893
 73
1039
 74
1039
 0
VERTEX
 8
23
 10
0
 20
0
 30
0
 70
128
 71
1024
 72
909
 73
1026
 74
1026
 0
VERTEX
 8
23
 10
0
 20
0
 30
0
 70
128
 71
912
 72
915
 73
927
 74
927
 0
VERTEX
 8
23
 10
0
 20
0
 30
0
 70
128
 71
912
 72
927
 73
929
 74
929
 0
VERTEX
 8
23
 10
0
 20
0
 30
0
 70
128
 71
912
 72
929
 73
944
 74
944
 0
VERTEX
 8
23
 10
0
 20
0
 30
0
 70
128
 71
914
 72
945
 73
1013
 74
1013
 0
VERTEX
 8
23
 10
0
 20
0
 30
0
 70
128
 71
915
 72
917
 73
925
 74
925
 0
VERTEX
 8
23
 10
0
 20
0
 30
0
 70
128
 71
915
 72
925
 73
927
 74
927
 0
VERTEX
 8
23
 10
0
 20
0
 30
0
 70
128
 71
917
 72
919
 73
923
 74
923
 0
VERTEX
 8
23
 10
0
 20
0
 30
0
 70
128
 71
917
 72
923
 73
925
 74
925
 0
VERTEX
 8
23
 10
0
 20
0
 30
0
 70
128
 71
919
 72
921
 73
923
 74
923
 0
VERTEX
 8
23
 10
0
 20
0
 30
0
 70
128
 71
929
 72
932
 73
944
 74
944
 0
VERTEX
 8
23
 10
0
 20
0
 30
0
 70
128
 71
932
 72
934
 73
942
 74
942
 0
VERTEX
 8
23
 10
0
 20
0
 30
0
 70
128
 71
935
 72
933
 73
1025
 74
1025
 0
VERTEX
 8
23
 10
0
 20
0
 30
0
 70
128
 71
932
 72
942
 73
944
 74
944
 0
VERTEX
 8
23
 10
0
 20
0
 30
0
 70
128
 71
934
 72
936
 73
940
 74
940
 0
VERTEX
 8
23
 10
0
 20
0
 30
0
 70
128
 71
937
 72
935
 73
1023
 74
1023
 0
VERTEX
 8
23
 10
0
 20
0
 30
0
 70
128
 71
934
 72
940
 73
942
 74
942
 0
VERTEX
 8
23
 10
0
 20
0
 30
0
 70
128
 71
1023
 72
935
 73
1025
 74
1025
 0
VERTEX
 8
23
 10
0
 20
0
 30
0
 70
128
 71
936
 72
938
 73
940
 74
940
 0
VERTEX
 8
23
 10
0
 20
0
 30
0
 70
128
 71
939
 72
937
 73
1021
 74
1021
 0
VERTEX
 8
23
 10
0
 20
0
 30
0
 70
128
 71
1021
 72
937
 73
1023
 74
1023
 0
VERTEX
 8
23
 10
0
 20
0
 30
0
 70
128
 71
941
 72
939
 73
1019
 74
1019
 0
VERTEX
 8
23
 10
0
 20
0
 30
0
 70
128
 71
1019
 72
939
 73
1021
 74
1021
 0
VERTEX
 8
23
 10
0
 20
0
 30
0
 70
128
 71
943
 72
941
 73
1017
 74
1017
 0
VERTEX
 8
23
 10
0
 20
0
 30
0
 70
128
 71
1017
 72
941
 73
1019
 74
1019
 0
VERTEX
 8
23
 10
0
 20
0
 30
0
 70
128
 71
945
 72
943
 73
1015
 74
1015
 0
VERTEX
 8
23
 10
0
 20
0
 30
0
 70
128
 71
1015
 72
943
 73
1017
 74
1017
 0
VERTEX
 8
23
 10
0
 20
0
 30
0
 70
128
 71
1013
 72
945
 73
1015
 74
1015
 0
VERTEX
 8
23
 10
0
 20
0
 30
0
 70
128
 71
949
 72
947
 73
1009
 74
1009
 0
VERTEX
 8
23
 10
0
 20
0
 30
0
 70
128
 71
1009
 72
947
 73
1011
 74
1011
 0
VERTEX
 8
23
 10
0
 20
0
 30
0
 70
128
 71
951
 72
949
 73
1005
 74
1005
 0
VERTEX
 8
23
 10
0
 20
0
 30
0
 70
128
 71
1005
 72
949
 73
1007
 74
1007
 0
VERTEX
 8
23
 10
0
 20
0
 30
0
 70
128
 71
1007
 72
949
 73
1009
 74
1009
 0
VERTEX
 8
23
 10
0
 20
0
 30
0
 70
128
 71
953
 72
951
 73
1001
 74
1001
 0
VERTEX
 8
23
 10
0
 20
0
 30
0
 70
128
 71
1001
 72
951
 73
1003
 74
1003
 0
VERTEX
 8
23
 10
0
 20
0
 30
0
 70
128
 71
1003
 72
951
 73
1005
 74
1005
 0
VERTEX
 8
23
 10
0
 20
0
 30
0
 70
128
 71
955
 72
953
 73
999
 74
999
 0
VERTEX
 8
23
 10
0
 20
0
 30
0
 70
128
 71
999
 72
953
 73
1001
 74
1001
 0
VERTEX
 8
23
 10
0
 20
0
 30
0
 70
128
 71
957
 72
955
 73
995
 74
995
 0
VERTEX
 8
23
 10
0
 20
0
 30
0
 70
128
 71
995
 72
955
 73
997
 74
997
 0
VERTEX
 8
23
 10
0
 20
0
 30
0
 70
128
 71
997
 72
955
 73
999
 74
999
 0
VERTEX
 8
23
 10
0
 20
0
 30
0
 70
128
 71
959
 72
957
 73
991
 74
991
 0
VERTEX
 8
23
 10
0
 20
0
 30
0
 70
128
 71
991
 72
957
 73
993
 74
993
 0
VERTEX
 8
23
 10
0
 20
0
 30
0
 70
128
 71
993
 72
957
 73
995
 74
995
 0
VERTEX
 8
23
 10
0
 20
0
 30
0
 70
128
 71
987
 72
959
 73
989
 74
989
 0
VERTEX
 8
23
 10
0
 20
0
 30
0
 70
128
 71
989
 72
959
 73
991
 74
991
 0
VERTEX
 8
23
 10
0
 20
0
 30
0
 70
128
 71
960
 72
962
 73
1008
 74
1008
 0
VERTEX
 8
23
 10
0
 20
0
 30
0
 70
128
 71
963
 72
961
 73
1039
 74
1039
 0
VERTEX
 8
23
 10
0
 20
0
 30
0
 70
128
 71
960
 72
1008
 73
1010
 74
1010
 0
VERTEX
 8
23
 10
0
 20
0
 30
0
 70
128
 71
962
 72
964
 73
1006
 74
1006
 0
VERTEX
 8
23
 10
0
 20
0
 30
0
 70
128
 71
965
 72
963
 73
1039
 74
1039
 0
VERTEX
 8
23
 10
0
 20
0
 30
0
 70
128
 71
962
 72
1006
 73
1008
 74
1008
 0
VERTEX
 8
23
 10
0
 20
0
 30
0
 70
128
 71
964
 72
966
 73
1004
 74
1004
 0
VERTEX
 8
23
 10
0
 20
0
 30
0
 70
128
 71
967
 72
965
 73
1037
 74
1037
 0
VERTEX
 8
23
 10
0
 20
0
 30
0
 70
128
 71
964
 72
1004
 73
1006
 74
1006
 0
VERTEX
 8
23
 10
0
 20
0
 30
0
 70
128
 71
1037
 72
965
 73
1039
 74
1039
 0
VERTEX
 8
23
 10
0
 20
0
 30
0
 70
128
 71
966
 72
968
 73
1002
 74
1002
 0
VERTEX
 8
23
 10
0
 20
0
 30
0
 70
128
 71
969
 72
967
 73
1037
 74
1037
 0
VERTEX
 8
23
 10
0
 20
0
 30
0
 70
128
 71
966
 72
1002
 73
1004
 74
1004
 0
VERTEX
 8
23
 10
0
 20
0
 30
0
 70
128
 71
968
 72
970
 73
1000
 74
1000
 0
VERTEX
 8
23
 10
0
 20
0
 30
0
 70
128
 71
971
 72
969
 73
1035
 74
1035
 0
VERTEX
 8
23
 10
0
 20
0
 30
0
 70
128
 71
968
 72
1000
 73
1002
 74
1002
 0
VERTEX
 8
23
 10
0
 20
0
 30
0
 70
128
 71
1035
 72
969
 73
1037
 74
1037
 0
VERTEX
 8
23
 10
0
 20
0
 30
0
 70
128
 71
970
 72
972
 73
998
 74
998
 0
VERTEX
 8
23
 10
0
 20
0
 30
0
 70
128
 71
973
 72
971
 73
1035
 74
1035
 0
VERTEX
 8
23
 10
0
 20
0
 30
0
 70
128
 71
970
 72
998
 73
1000
 74
1000
 0
VERTEX
 8
23
 10
0
 20
0
 30
0
 70
128
 71
972
 72
974
 73
996
 74
996
 0
VERTEX
 8
23
 10
0
 20
0
 30
0
 70
128
 71
975
 72
973
 73
1033
 74
1033
 0
VERTEX
 8
23
 10
0
 20
0
 30
0
 70
128
 71
972
 72
996
 73
998
 74
998
 0
VERTEX
 8
23
 10
0
 20
0
 30
0
 70
128
 71
1033
 72
973
 73
1035
 74
1035
 0
VERTEX
 8
23
 10
0
 20
0
 30
0
 70
128
 71
974
 72
976
 73
994
 74
994
 0
VERTEX
 8
23
 10
0
 20
0
 30
0
 70
128
 71
977
 72
975
 73
1031
 74
1031
 0
VERTEX
 8
23
 10
0
 20
0
 30
0
 70
128
 71
974
 72
994
 73
996
 74
996
 0
VERTEX
 8
23
 10
0
 20
0
 30
0
 70
128
 71
1031
 72
975
 73
1033
 74
1033
 0
VERTEX
 8
23
 10
0
 20
0
 30
0
 70
128
 71
976
 72
978
 73
992
 74
992
 0
VERTEX
 8
23
 10
0
 20
0
 30
0
 70
128
 71
979
 72
977
 73
1031
 74
1031
 0
VERTEX
 8
23
 10
0
 20
0
 30
0
 70
128
 71
976
 72
992
 73
994
 74
994
 0
VERTEX
 8
23
 10
0
 20
0
 30
0
 70
128
 71
978
 72
980
 73
990
 74
990
 0
VERTEX
 8
23
 10
0
 20
0
 30
0
 70
128
 71
981
 72
979
 73
1029
 74
1029
 0
VERTEX
 8
23
 10
0
 20
0
 30
0
 70
128
 71
978
 72
990
 73
992
 74
992
 0
VERTEX
 8
23
 10
0
 20
0
 30
0
 70
128
 71
1029
 72
979
 73
1031
 74
1031
 0
VERTEX
 8
23
 10
0
 20
0
 30
0
 70
128
 71
980
 72
982
 73
988
 74
988
 0
VERTEX
 8
23
 10
0
 20
0
 30
0
 70
128
 71
983
 72
981
 73
1029
 74
1029
 0
VERTEX
 8
23
 10
0
 20
0
 30
0
 70
128
 71
980
 72
988
 73
990
 74
990
 0
VERTEX
 8
23
 10
0
 20
0
 30
0
 70
128
 71
982
 72
984
 73
986
 74
986
 0
VERTEX
 8
23
 10
0
 20
0
 30
0
 70
128
 71
985
 72
983
 73
1027
 74
1027
 0
VERTEX
 8
23
 10
0
 20
0
 30
0
 70
128
 71
982
 72
986
 73
988
 74
988
 0
VERTEX
 8
23
 10
0
 20
0
 30
0
 70
128
 71
1027
 72
983
 73
1029
 74
1029
 0
VERTEX
 8
23
 10
0
 20
0
 30
0
 70
128
 71
1012
 72
1014
 73
1036
 74
1036
 0
VERTEX
 8
23
 10
0
 20
0
 30
0
 70
128
 71
1012
 72
1036
 73
1038
 74
1038
 0
VERTEX
 8
23
 10
0
 20
0
 30
0
 70
128
 71
1014
 72
1016
 73
1034
 74
1034
 0
VERTEX
 8
23
 10
0
 20
0
 30
0
 70
128
 71
1014
 72
1034
 73
1036
 74
1036
 0
VERTEX
 8
23
 10
0
 20
0
 30
0
 70
128
 71
1016
 72
1018
 73
1032
 74
1032
 0
VERTEX
 8
23
 10
0
 20
0
 30
0
 70
128
 71
1016
 72
1032
 73
1034
 74
1034
 0
VERTEX
 8
23
 10
0
 20
0
 30
0
 70
128
 71
1018
 72
1020
 73
1030
 74
1030
 0
VERTEX
 8
23
 10
0
 20
0
 30
0
 70
128
 71
1018
 72
1030
 73
1032
 74
1032
 0
VERTEX
 8
23
 10
0
 20
0
 30
0
 70
128
 71
1020
 72
1022
 73
1028
 74
1028
 0
VERTEX
 8
23
 10
0
 20
0
 30
0
 70
128
 71
1020
 72
1028
 73
1030
 74
1030
 0
VERTEX
 8
23
 10
0
 20
0
 30
0
 70
128
 71
1022
 72
1024
 73
1026
 74
1026
 0
VERTEX
 8
23
 10
0
 20
0
 30
0
 70
128
 71
1022
 72
1026
 73
1028
 74
1028
 0
VERTEX
 8
23
 10
0
 20
0
 30
0
 70
128
 71
1040
 72
1042
 73
1068
 74
1068
 0
VERTEX
 8
23
 10
0
 20
0
 30
0
 70
128
 71
1040
 72
1068
 73
1070
 74
1070
 0
VERTEX
 8
23
 10
0
 20
0
 30
0
 70
128
 71
1042
 72
1044
 73
1066
 74
1066
 0
VERTEX
 8
23
 10
0
 20
0
 30
0
 70
128
 71
1042
 72
1066
 73
1068
 74
1068
 0
VERTEX
 8
23
 10
0
 20
0
 30
0
 70
128
 71
1044
 72
1046
 73
1064
 74
1064
 0
VERTEX
 8
23
 10
0
 20
0
 30
0
 70
128
 71
1044
 72
1064
 73
1066
 74
1066
 0
VERTEX
 8
23
 10
0
 20
0
 30
0
 70
128
 71
1046
 72
1048
 73
1062
 74
1062
 0
VERTEX
 8
23
 10
0
 20
0
 30
0
 70
128
 71
1046
 72
1062
 73
1064
 74
1064
 0
VERTEX
 8
23
 10
0
 20
0
 30
0
 70
128
 71
1048
 72
1050
 73
1060
 74
1060
 0
VERTEX
 8
23
 10
0
 20
0
 30
0
 70
128
 71
1048
 72
1060
 73
1062
 74
1062
 0
VERTEX
 8
23
 10
0
 20
0
 30
0
 70
128
 71
1050
 72
1052
 73
1058
 74
1058
 0
VERTEX
 8
23
 10
0
 20
0
 30
0
 70
128
 71
1050
 72
1058
 73
1060
 74
1060
 0
VERTEX
 8
23
 10
0
 20
0
 30
0
 70
128
 71
1052
 72
1054
 73
1056
 74
1056
 0
VERTEX
 8
23
 10
0
 20
0
 30
0
 70
128
 71
1052
 72
1056
 73
1058
 74
1058
 0
VERTEX
 8
23
 10
0
 20
0
 30
0
 70
128
 71
1059
 72
1057
 73
1138
 74
1138
 0
VERTEX
 8
23
 10
0
 20
0
 30
0
 70
128
 71
1138
 72
1057
 73
1140
 74
1140
 0
VERTEX
 8
23
 10
0
 20
0
 30
0
 70
128
 71
1061
 72
1059
 73
1136
 74
1136
 0
VERTEX
 8
23
 10
0
 20
0
 30
0
 70
128
 71
1136
 72
1059
 73
1138
 74
1138
 0
VERTEX
 8
23
 10
0
 20
0
 30
0
 70
128
 71
1063
 72
1061
 73
1136
 74
1136
 0
VERTEX
 8
23
 10
0
 20
0
 30
0
 70
128
 71
1065
 72
1063
 73
1126
 74
1126
 0
VERTEX
 8
23
 10
0
 20
0
 30
0
 70
128
 71
1126
 72
1063
 73
1134
 74
1134
 0
VERTEX
 8
23
 10
0
 20
0
 30
0
 70
128
 71
1134
 72
1063
 73
1136
 74
1136
 0
VERTEX
 8
23
 10
0
 20
0
 30
0
 70
128
 71
1067
 72
1065
 73
1126
 74
1126
 0
VERTEX
 8
23
 10
0
 20
0
 30
0
 70
128
 71
1069
 72
1067
 73
1124
 74
1124
 0
VERTEX
 8
23
 10
0
 20
0
 30
0
 70
128
 71
1124
 72
1067
 73
1126
 74
1126
 0
VERTEX
 8
23
 10
0
 20
0
 30
0
 70
128
 71
1071
 72
1069
 73
1122
 74
1122
 0
VERTEX
 8
23
 10
0
 20
0
 30
0
 70
128
 71
1122
 72
1069
 73
1124
 74
1124
 0
VERTEX
 8
23
 10
0
 20
0
 30
0
 70
128
 71
1072
 72
1075
 73
1091
 74
1091
 0
VERTEX
 8
23
 10
0
 20
0
 30
0
 70
128
 71
1076
 72
1074
 73
1201
 74
1201
 0
VERTEX
 8
23
 10
0
 20
0
 30
0
 70
128
 71
1072
 72
1091
 73
1093
 74
1093
 0
VERTEX
 8
23
 10
0
 20
0
 30
0
 70
128
 71
1072
 72
1093
 73
1112
 74
1112
 0
VERTEX
 8
23
 10
0
 20
0
 30
0
 70
128
 71
1073
 72
1113
 73
1202
 74
1202
 0
VERTEX
 8
23
 10
0
 20
0
 30
0
 70
128
 71
1200
 72
1073
 73
1202
 74
1202
 0
VERTEX
 8
23
 10
0
 20
0
 30
0
 70
128
 71
1075
 72
1077
 73
1089
 74
1089
 0
VERTEX
 8
23
 10
0
 20
0
 30
0
 70
128
 71
1078
 72
1076
 73
1222
 74
1222
 0
VERTEX
 8
23
 10
0
 20
0
 30
0
 70
128
 71
1075
 72
1089
 73
1091
 74
1091
 0
VERTEX
 8
23
 10
0
 20
0
 30
0
 70
128
 71
1076
 72
1201
 73
1223
 74
1223
 0
VERTEX
 8
23
 10
0
 20
0
 30
0
 70
128
 71
1222
 72
1076
 73
1223
 74
1223
 0
VERTEX
 8
23
 10
0
 20
0
 30
0
 70
128
 71
1077
 72
1079
 73
1087
 74
1087
 0
VERTEX
 8
23
 10
0
 20
0
 30
0
 70
128
 71
1080
 72
1078
 73
1221
 74
1221
 0
VERTEX
 8
23
 10
0
 20
0
 30
0
 70
128
 71
1077
 72
1087
 73
1089
 74
1089
 0
VERTEX
 8
23
 10
0
 20
0
 30
0
 70
128
 71
1221
 72
1078
 73
1222
 74
1222
 0
VERTEX
 8
23
 10
0
 20
0
 30
0
 70
128
 71
1079
 72
1081
 73
1085
 74
1085
 0
VERTEX
 8
23
 10
0
 20
0
 30
0
 70
128
 71
1082
 72
1080
 73
1220
 74
1220
 0
VERTEX
 8
23
 10
0
 20
0
 30
0
 70
128
 71
1079
 72
1085
 73
1087
 74
1087
 0
VERTEX
 8
23
 10
0
 20
0
 30
0
 70
128
 71
1220
 72
1080
 73
1221
 74
1221
 0
VERTEX
 8
23
 10
0
 20
0
 30
0
 70
128
 71
1081
 72
1083
 73
1085
 74
1085
 0
VERTEX
 8
23
 10
0
 20
0
 30
0
 70
128
 71
1084
 72
1082
 73
1219
 74
1219
 0
VERTEX
 8
23
 10
0
 20
0
 30
0
 70
128
 71
1219
 72
1082
 73
1220
 74
1220
 0
VERTEX
 8
23
 10
0
 20
0
 30
0
 70
128
 71
1086
 72
1084
 73
1218
 74
1218
 0
VERTEX
 8
23
 10
0
 20
0
 30
0
 70
128
 71
1218
 72
1084
 73
1219
 74
1219
 0
VERTEX
 8
23
 10
0
 20
0
 30
0
 70
128
 71
1088
 72
1086
 73
1217
 74
1217
 0
VERTEX
 8
23
 10
0
 20
0
 30
0
 70
128
 71
1217
 72
1086
 73
1218
 74
1218
 0
VERTEX
 8
23
 10
0
 20
0
 30
0
 70
128
 71
1090
 72
1088
 73
1216
 74
1216
 0
VERTEX
 8
23
 10
0
 20
0
 30
0
 70
128
 71
1216
 72
1088
 73
1217
 74
1217
 0
VERTEX
 8
23
 10
0
 20
0
 30
0
 70
128
 71
1092
 72
1090
 73
1215
 74
1215
 0
VERTEX
 8
23
 10
0
 20
0
 30
0
 70
128
 71
1215
 72
1090
 73
1216
 74
1216
 0
VERTEX
 8
23
 10
0
 20
0
 30
0
 70
128
 71
1095
 72
1092
 73
1214
 74
1214
 0
VERTEX
 8
23
 10
0
 20
0
 30
0
 70
128
 71
1214
 72
1092
 73
1215
 74
1215
 0
VERTEX
 8
23
 10
0
 20
0
 30
0
 70
128
 71
1093
 72
1096
 73
1112
 74
1112
 0
VERTEX
 8
23
 10
0
 20
0
 30
0
 70
128
 71
1097
 72
1094
 73
1212
 74
1212
 0
VERTEX
 8
23
 10
0
 20
0
 30
0
 70
128
 71
1213
 72
1095
 73
1214
 74
1214
 0
VERTEX
 8
23
 10
0
 20
0
 30
0
 70
128
 71
1096
 72
1098
 73
1110
 74
1110
 0
VERTEX
 8
23
 10
0
 20
0
 30
0
 70
128
 71
1099
 72
1097
 73
1210
 74
1210
 0
VERTEX
 8
23
 10
0
 20
0
 30
0
 70
128
 71
1096
 72
1110
 73
1112
 74
1112
 0
VERTEX
 8
23
 10
0
 20
0
 30
0
 70
128
 71
1210
 72
1097
 73
1211
 74
1211
 0
VERTEX
 8
23
 10
0
 20
0
 30
0
 70
128
 71
1211
 72
1097
 73
1212
 74
1212
 0
VERTEX
 8
23
 10
0
 20
0
 30
0
 70
128
 71
1098
 72
1100
 73
1108
 74
1108
 0
VERTEX
 8
23
 10
0
 20
0
 30
0
 70
128
 71
1101
 72
1099
 73
1209
 74
1209
 0
VERTEX
 8
23
 10
0
 20
0
 30
0
 70
128
 71
1098
 72
1108
 73
1110
 74
1110
 0
VERTEX
 8
23
 10
0
 20
0
 30
0
 70
128
 71
1209
 72
1099
 73
1210
 74
1210
 0
VERTEX
 8
23
 10
0
 20
0
 30
0
 70
128
 71
1100
 72
1102
 73
1106
 74
1106
 0
VERTEX
 8
23
 10
0
 20
0
 30
0
 70
128
 71
1103
 72
1101
 73
1208
 74
1208
 0
VERTEX
 8
23
 10
0
 20
0
 30
0
 70
128
 71
1100
 72
1106
 73
1108
 74
1108
 0
VERTEX
 8
23
 10
0
 20
0
 30
0
 70
128
 71
1208
 72
1101
 73
1209
 74
1209
 0
VERTEX
 8
23
 10
0
 20
0
 30
0
 70
128
 71
1102
 72
1104
 73
1106
 74
1106
 0
VERTEX
 8
23
 10
0
 20
0
 30
0
 70
128
 71
1105
 72
1103
 73
1207
 74
1207
 0
VERTEX
 8
23
 10
0
 20
0
 30
0
 70
128
 71
1207
 72
1103
 73
1208
 74
1208
 0
VERTEX
 8
23
 10
0
 20
0
 30
0
 70
128
 71
1107
 72
1105
 73
1206
 74
1206
 0
VERTEX
 8
23
 10
0
 20
0
 30
0
 70
128
 71
1206
 72
1105
 73
1207
 74
1207
 0
VERTEX
 8
23
 10
0
 20
0
 30
0
 70
128
 71
1109
 72
1107
 73
1205
 74
1205
 0
VERTEX
 8
23
 10
0
 20
0
 30
0
 70
128
 71
1205
 72
1107
 73
1206
 74
1206
 0
VERTEX
 8
23
 10
0
 20
0
 30
0
 70
128
 71
1111
 72
1109
 73
1204
 74
1204
 0
VERTEX
 8
23
 10
0
 20
0
 30
0
 70
128
 71
1204
 72
1109
 73
1205
 74
1205
 0
VERTEX
 8
23
 10
0
 20
0
 30
0
 70
128
 71
1113
 72
1111
 73
1203
 74
1203
 0
VERTEX
 8
23
 10
0
 20
0
 30
0
 70
128
 71
1203
 72
1111
 73
1204
 74
1204
 0
VERTEX
 8
23
 10
0
 20
0
 30
0
 70
128
 71
1202
 72
1113
 73
1203
 74
1203
 0
VERTEX
 8
23
 10
0
 20
0
 30
0
 70
128
 71
1114
 72
1118
 73
1162
 74
1162
 0
VERTEX
 8
23
 10
0
 20
0
 30
0
 70
128
 71
1120
 72
1115
 73
1165
 74
1165
 0
VERTEX
 8
23
 10
0
 20
0
 30
0
 70
128
 71
1116
 72
1163
 73
1211
 74
1211
 0
VERTEX
 8
23
 10
0
 20
0
 30
0
 70
128
 71
1165
 72
1115
 73
1182
 74
1182
 0
VERTEX
 8
23
 10
0
 20
0
 30
0
 70
128
 71
1183
 72
1117
 73
1213
 74
1213
 0
VERTEX
 8
23
 10
0
 20
0
 30
0
 70
128
 71
1116
 72
1211
 73
1212
 74
1212
 0
VERTEX
 8
23
 10
0
 20
0
 30
0
 70
128
 71
1118
 72
1121
 73
1162
 74
1162
 0
VERTEX
 8
23
 10
0
 20
0
 30
0
 70
128
 71
1121
 72
1123
 73
1160
 74
1160
 0
VERTEX
 8
23
 10
0
 20
0
 30
0
 70
128
 71
1121
 72
1160
 73
1162
 74
1162
 0
VERTEX
 8
23
 10
0
 20
0
 30
0
 70
128
 71
1123
 72
1125
 73
1158
 74
1158
 0
VERTEX
 8
23
 10
0
 20
0
 30
0
 70
128
 71
1123
 72
1158
 73
1160
 74
1160
 0
VERTEX
 8
23
 10
0
 20
0
 30
0
 70
128
 71
1128
 72
1126
 73
1134
 74
1134
 0
VERTEX
 8
23
 10
0
 20
0
 30
0
 70
128
 71
1125
 72
1127
 73
1156
 74
1156
 0
VERTEX
 8
23
 10
0
 20
0
 30
0
 70
128
 71
1125
 72
1156
 73
1158
 74
1158
 0
VERTEX
 8
23
 10
0
 20
0
 30
0
 70
128
 71
1130
 72
1128
 73
1132
 74
1132
 0
VERTEX
 8
23
 10
0
 20
0
 30
0
 70
128
 71
1127
 72
1129
 73
1154
 74
1154
 0
VERTEX
 8
23
 10
0
 20
0
 30
0
 70
128
 71
1132
 72
1128
 73
1134
 74
1134
 0
VERTEX
 8
23
 10
0
 20
0
 30
0
 70
128
 71
1127
 72
1154
 73
1156
 74
1156
 0
VERTEX
 8
23
 10
0
 20
0
 30
0
 70
128
 71
1129
 72
1131
 73
1152
 74
1152
 0
VERTEX
 8
23
 10
0
 20
0
 30
0
 70
128
 71
1129
 72
1152
 73
1154
 74
1154
 0
VERTEX
 8
23
 10
0
 20
0
 30
0
 70
128
 71
1131
 72
1133
 73
1150
 74
1150
 0
VERTEX
 8
23
 10
0
 20
0
 30
0
 70
128
 71
1131
 72
1150
 73
1152
 74
1152
 0
VERTEX
 8
23
 10
0
 20
0
 30
0
 70
128
 71
1133
 72
1135
 73
1148
 74
1148
 0
VERTEX
 8
23
 10
0
 20
0
 30
0
 70
128
 71
1133
 72
1148
 73
1150
 74
1150
 0
VERTEX
 8
23
 10
0
 20
0
 30
0
 70
128
 71
1135
 72
1137
 73
1146
 74
1146
 0
VERTEX
 8
23
 10
0
 20
0
 30
0
 70
128
 71
1135
 72
1146
 73
1148
 74
1148
 0
VERTEX
 8
23
 10
0
 20
0
 30
0
 70
128
 71
1137
 72
1139
 73
1142
 74
1142
 0
VERTEX
 8
23
 10
0
 20
0
 30
0
 70
128
 71
1137
 72
1142
 73
1146
 74
1146
 0
VERTEX
 8
23
 10
0
 20
0
 30
0
 70
128
 71
1143
 72
1141
 73
1198
 74
1198
 0
VERTEX
 8
23
 10
0
 20
0
 30
0
 70
128
 71
1141
 72
1181
 73
1198
 74
1198
 0
VERTEX
 8
23
 10
0
 20
0
 30
0
 70
128
 71
1147
 72
1144
 73
1200
 74
1200
 0
VERTEX
 8
23
 10
0
 20
0
 30
0
 70
128
 71
1145
 72
1199
 73
1223
 74
1223
 0
VERTEX
 8
23
 10
0
 20
0
 30
0
 70
128
 71
1201
 72
1145
 73
1223
 74
1223
 0
VERTEX
 8
23
 10
0
 20
0
 30
0
 70
128
 71
1149
 72
1147
 73
1203
 74
1203
 0
VERTEX
 8
23
 10
0
 20
0
 30
0
 70
128
 71
1147
 72
1200
 73
1202
 74
1202
 0
VERTEX
 8
23
 10
0
 20
0
 30
0
 70
128
 71
1147
 72
1202
 73
1203
 74
1203
 0
VERTEX
 8
23
 10
0
 20
0
 30
0
 70
128
 71
1151
 72
1149
 73
1204
 74
1204
 0
VERTEX
 8
23
 10
0
 20
0
 30
0
 70
128
 71
1149
 72
1203
 73
1204
 74
1204
 0
VERTEX
 8
23
 10
0
 20
0
 30
0
 70
128
 71
1153
 72
1151
 73
1205
 74
1205
 0
VERTEX
 8
23
 10
0
 20
0
 30
0
 70
128
 71
1151
 72
1204
 73
1205
 74
1205
 0
VERTEX
 8
23
 10
0
 20
0
 30
0
 70
128
 71
1155
 72
1153
 73
1206
 74
1206
 0
VERTEX
 8
23
 10
0
 20
0
 30
0
 70
128
 71
1153
 72
1205
 73
1206
 74
1206
 0
VERTEX
 8
23
 10
0
 20
0
 30
0
 70
128
 71
1157
 72
1155
 73
1207
 74
1207
 0
VERTEX
 8
23
 10
0
 20
0
 30
0
 70
128
 71
1155
 72
1206
 73
1207
 74
1207
 0
VERTEX
 8
23
 10
0
 20
0
 30
0
 70
128
 71
1159
 72
1157
 73
1208
 74
1208
 0
VERTEX
 8
23
 10
0
 20
0
 30
0
 70
128
 71
1157
 72
1207
 73
1208
 74
1208
 0
VERTEX
 8
23
 10
0
 20
0
 30
0
 70
128
 71
1161
 72
1159
 73
1209
 74
1209
 0
VERTEX
 8
23
 10
0
 20
0
 30
0
 70
128
 71
1159
 72
1208
 73
1209
 74
1209
 0
VERTEX
 8
23
 10
0
 20
0
 30
0
 70
128
 71
1163
 72
1161
 73
1210
 74
1210
 0
VERTEX
 8
23
 10
0
 20
0
 30
0
 70
128
 71
1161
 72
1209
 73
1210
 74
1210
 0
VERTEX
 8
23
 10
0
 20
0
 30
0
 70
128
 71
1163
 72
1210
 73
1211
 74
1211
 0
VERTEX
 8
23
 10
0
 20
0
 30
0
 70
128
 71
1167
 72
1165
 73
1182
 74
1182
 0
VERTEX
 8
23
 10
0
 20
0
 30
0
 70
128
 71
1169
 72
1167
 73
1184
 74
1184
 0
VERTEX
 8
23
 10
0
 20
0
 30
0
 70
128
 71
1167
 72
1182
 73
1184
 74
1184
 0
VERTEX
 8
23
 10
0
 20
0
 30
0
 70
128
 71
1168
 72
1170
 73
1174
 74
1174
 0
VERTEX
 8
23
 10
0
 20
0
 30
0
 70
128
 71
1171
 72
1169
 73
1186
 74
1186
 0
VERTEX
 8
23
 10
0
 20
0
 30
0
 70
128
 71
1168
 72
1174
 73
1176
 74
1176
 0
VERTEX
 8
23
 10
0
 20
0
 30
0
 70
128
 71
1169
 72
1184
 73
1186
 74
1186
 0
VERTEX
 8
23
 10
0
 20
0
 30
0
 70
128
 71
1170
 72
1172
 73
1174
 74
1174
 0
VERTEX
 8
23
 10
0
 20
0
 30
0
 70
128
 71
1173
 72
1171
 73
1188
 74
1188
 0
VERTEX
 8
23
 10
0
 20
0
 30
0
 70
128
 71
1171
 72
1186
 73
1188
 74
1188
 0
VERTEX
 8
23
 10
0
 20
0
 30
0
 70
128
 71
1175
 72
1173
 73
1190
 74
1190
 0
VERTEX
 8
23
 10
0
 20
0
 30
0
 70
128
 71
1173
 72
1188
 73
1190
 74
1190
 0
VERTEX
 8
23
 10
0
 20
0
 30
0
 70
128
 71
1177
 72
1175
 73
1192
 74
1192
 0
VERTEX
 8
23
 10
0
 20
0
 30
0
 70
128
 71
1175
 72
1190
 73
1192
 74
1192
 0
VERTEX
 8
23
 10
0
 20
0
 30
0
 70
128
 71
1179
 72
1177
 73
1194
 74
1194
 0
VERTEX
 8
23
 10
0
 20
0
 30
0
 70
128
 71
1177
 72
1192
 73
1194
 74
1194
 0
VERTEX
 8
23
 10
0
 20
0
 30
0
 70
128
 71
1181
 72
1179
 73
1196
 74
1196
 0
VERTEX
 8
23
 10
0
 20
0
 30
0
 70
128
 71
1179
 72
1194
 73
1196
 74
1196
 0
VERTEX
 8
23
 10
0
 20
0
 30
0
 70
128
 71
1181
 72
1196
 73
1198
 74
1198
 0
VERTEX
 8
23
 10
0
 20
0
 30
0
 70
128
 71
1185
 72
1183
 73
1215
 74
1215
 0
VERTEX
 8
23
 10
0
 20
0
 30
0
 70
128
 71
1183
 72
1213
 73
1214
 74
1214
 0
VERTEX
 8
23
 10
0
 20
0
 30
0
 70
128
 71
1183
 72
1214
 73
1215
 74
1215
 0
VERTEX
 8
23
 10
0
 20
0
 30
0
 70
128
 71
1187
 72
1185
 73
1216
 74
1216
 0
VERTEX
 8
23
 10
0
 20
0
 30
0
 70
128
 71
1185
 72
1215
 73
1216
 74
1216
 0
VERTEX
 8
23
 10
0
 20
0
 30
0
 70
128
 71
1189
 72
1187
 73
1217
 74
1217
 0
VERTEX
 8
23
 10
0
 20
0
 30
0
 70
128
 71
1187
 72
1216
 73
1217
 74
1217
 0
VERTEX
 8
23
 10
0
 20
0
 30
0
 70
128
 71
1191
 72
1189
 73
1218
 74
1218
 0
VERTEX
 8
23
 10
0
 20
0
 30
0
 70
128
 71
1189
 72
1217
 73
1218
 74
1218
 0
VERTEX
 8
23
 10
0
 20
0
 30
0
 70
128
 71
1193
 72
1191
 73
1219
 74
1219
 0
VERTEX
 8
23
 10
0
 20
0
 30
0
 70
128
 71
1191
 72
1218
 73
1219
 74
1219
 0
VERTEX
 8
23
 10
0
 20
0
 30
0
 70
128
 71
1195
 72
1193
 73
1220
 74
1220
 0
VERTEX
 8
23
 10
0
 20
0
 30
0
 70
128
 71
1193
 72
1219
 73
1220
 74
1220
 0
VERTEX
 8
23
 10
0
 20
0
 30
0
 70
128
 71
1197
 72
1195
 73
1221
 74
1221
 0
VERTEX
 8
23
 10
0
 20
0
 30
0
 70
128
 71
1195
 72
1220
 73
1221
 74
1221
 0
VERTEX
 8
23
 10
0
 20
0
 30
0
 70
128
 71
1199
 72
1197
 73
1222
 74
1222
 0
VERTEX
 8
23
 10
0
 20
0
 30
0
 70
128
 71
1197
 72
1221
 73
1222
 74
1222
 0
VERTEX
 8
23
 10
0
 20
0
 30
0
 70
128
 71
1199
 72
1222
 73
1223
 74
1223
 0
SEQEND
 0
POLYLINE
 8
22
 66
1
 10
0.0
 20
0.0
 30
0.0
 70
64
 71
6
 72
4
 0
VERTEX
 8
22
 10
50.5028
 20
16.71
 30
10.5193
 70
192
 0
VERTEX
 8
22
 10
49.5323
 20
16.71
 30
11.7359
 70
192
 0
VERTEX
 8
22
 10
48.1297
 20
16.71
 30
12.412
 70
192
 0
VERTEX
 8
22
 10
46.5703
 20
16.71
 30
12.412
 70
192
 0
VERTEX
 8
22
 10
45.1677
 20
16.71
 30
11.7359
 70
192
 0
VERTEX
 8
22
 10
44.1972
 20
16.71
 30
10.5193
 70
192
 0
VERTEX
 8
22
 10
0
 20
0
 30
0
 70
128
 71
2
 72
1
 73
6
 74
6
 0
VERTEX
 8
22
 10
0
 20
0
 30
0
 70
128
 71
3
 72
2
 73
5
 74
5
 0
VERTEX
 8
22
 10
0
 20
0
 30
0
 70
128
 71
5
 72
2
 73
6
 74
6
 0
VERTEX
 8
22
 10
0
 20
0
 30
0
 70
128
 71
4
 72
3
 73
5
 74
5
 0
SEQEND
 0
POLYLINE
 8
21
 66
1
 10
0.0
 20
0.0
 30
0.0
 70
64
 71
38
 72
32
 0
VERTEX
 8
21
 10
50.85
 20
16.71
 30
9
 70
192
 0
VERTEX
 8
21
 10
50.5032
 20
7.75
 30
10.5189
 70
192
 0
VERTEX
 8
21
 10
50.5032
 20
7.75
 30
10.5189
 70
192
 0
VERTEX
 8
21
 10
49.5319
 20
7.75
 30
11.7367
 70
192
 0
VERTEX
 8
21
 10
49.5319
 20
7.75
 30
11.7367
 70
192
 0
VERTEX
 8
21
 10
48.1287
 20
7.75
 30
12.4123
 70
192
 0
VERTEX
 8
21
 10
48.1287
 20
7.75
 30
12.4123
 70
192
 0
VERTEX
 8
21
 10
46.5713
 20
7.75
 30
12.4123
 70
192
 0
VERTEX
 8
21
 10
46.5713
 20
7.75
 30
12.4123
 70
192
 0
VERTEX
 8
21
 10
45.1681
 20
7.75
 30
11.7367
 70
192
 0
VERTEX
 8
21
 10
45.1681
 20
7.75
 30
11.7367
 70
192
 0
VERTEX
 8
21
 10
44.1968
 20
7.75
 30
10.5189
 70
192
 0
VERTEX
 8
21
 10
44.1968
 20
7.75
 30
10.5189
 70
192
 0
VERTEX
 8
21
 10
45.458
 20
6.9417
 30
9.9112
 70
192
 0
VERTEX
 8
21
 10
45.458
 20
6.9417
 30
9.9112
 70
192
 0
VERTEX
 8
21
 10
46.0407
 20
6.9417
 30
10.6418
 70
192
 0
VERTEX
 8
21
 10
46.0407
 20
6.9417
 30
10.6418
 70
192
 0
VERTEX
 8
21
 10
46.8827
 20
6.9417
 30
11.0473
 70
192
 0
VERTEX
 8
21
 10
46.8827
 20
6.9417
 30
11.0473
 70
192
 0
VERTEX
 8
21
 10
47.8173
 20
6.9417
 30
11.0473
 70
192
 0
VERTEX
 8
21
 10
47.8173
 20
6.9417
 30
11.0473
 70
192
 0
VERTEX
 8
21
 10
48.6593
 20
6.9417
 30
10.6418
 70
192
 0
VERTEX
 8
21
 10
48.6593
 20
6.9417
 30
10.6418
 70
192
 0
VERTEX
 8
21
 10
49.242
 20
6.9417
 30
9.9112
 70
192
 0
VERTEX
 8
21
 10
49.242
 20
6.9417
 30
9.9112
 70
192
 0
VERTEX
 8
21
 10
50.5028
 20
16.71
 30
10.5193
 70
192
 0
VERTEX
 8
21
 10
49.5323
 20
16.71
 30
11.7359
 70
192
 0
VERTEX
 8
21
 10
48.1297
 20
16.71
 30
12.412
 70
192
 0
VERTEX
 8
21
 10
46.5703
 20
16.71
 30
12.412
 70
192
 0
VERTEX
 8
21
 10
45.1677
 20
16.71
 30
11.7359
 70
192
 0
VERTEX
 8
21
 10
44.1972
 20
16.71
 30
10.5193
 70
192
 0
VERTEX
 8
21
 10
45.25
 20
0.25
 30
9
 70
192
 0
VERTEX
 8
21
 10
49.2419
 20
0.25
 30
9.9114
 70
192
 0
VERTEX
 8
21
 10
48.6591
 20
0.25
 30
10.642
 70
192
 0
VERTEX
 8
21
 10
47.8172
 20
0.25
 30
11.0474
 70
192
 0
VERTEX
 8
21
 10
46.8828
 20
0.25
 30
11.0474
 70
192
 0
VERTEX
 8
21
 10
46.0409
 20
0.25
 30
10.642
 70
192
 0
VERTEX
 8
21
 10
45.4581
 20
0.25
 30
9.9114
 70
192
 0
VERTEX
 8
21
 10
0
 20
0
 30
0
 70
128
 71
3
 72
1
 73
26
 74
26
 0
VERTEX
 8
21
 10
0
 20
0
 30
0
 70
128
 71
2
 72
4
 73
22
 74
22
 0
VERTEX
 8
21
 10
0
 20
0
 30
0
 70
128
 71
5
 72
3
 73
27
 74
27
 0
VERTEX
 8
21
 10
0
 20
0
 30
0
 70
128
 71
2
 72
22
 73
24
 74
24
 0
VERTEX
 8
21
 10
0
 20
0
 30
0
 70
128
 71
3
 72
26
 73
27
 74
27
 0
VERTEX
 8
21
 10
0
 20
0
 30
0
 70
128
 71
4
 72
6
 73
20
 74
20
 0
VERTEX
 8
21
 10
0
 20
0
 30
0
 70
128
 71
7
 72
5
 73
28
 74
28
 0
VERTEX
 8
21
 10
0
 20
0
 30
0
 70
128
 71
4
 72
20
 73
22
 74
22
 0
VERTEX
 8
21
 10
0
 20
0
 30
0
 70
128
 71
5
 72
27
 73
28
 74
28
 0
VERTEX
 8
21
 10
0
 20
0
 30
0
 70
128
 71
6
 72
8
 73
18
 74
18
 0
VERTEX
 8
21
 10
0
 20
0
 30
0
 70
128
 71
9
 72
7
 73
28
 74
28
 0
VERTEX
 8
21
 10
0
 20
0
 30
0
 70
128
 71
6
 72
18
 73
20
 74
20
 0
VERTEX
 8
21
 10
0
 20
0
 30
0
 70
128
 71
8
 72
10
 73
18
 74
18
 0
VERTEX
 8
21
 10
0
 20
0
 30
0
 70
128
 71
11
 72
9
 73
29
 74
29
 0
VERTEX
 8
21
 10
0
 20
0
 30
0
 70
128
 71
9
 72
28
 73
29
 74
29
 0
VERTEX
 8
21
 10
0
 20
0
 30
0
 70
128
 71
10
 72
12
 73
16
 74
16
 0
VERTEX
 8
21
 10
0
 20
0
 30
0
 70
128
 71
13
 72
11
 73
30
 74
30
 0
VERTEX
 8
21
 10
0
 20
0
 30
0
 70
128
 71
10
 72
16
 73
18
 74
18
 0
VERTEX
 8
21
 10
0
 20
0
 30
0
 70
128
 71
11
 72
29
 73
30
 74
30
 0
VERTEX
 8
21
 10
0
 20
0
 30
0
 70
128
 71
12
 72
14
 73
16
 74
16
 0
VERTEX
 8
21
 10
0
 20
0
 30
0
 70
128
 71
13
 72
30
 73
31
 74
31
 0
VERTEX
 8
21
 10
0
 20
0
 30
0
 70
128
 71
17
 72
15
 73
38
 74
38
 0
VERTEX
 8
21
 10
0
 20
0
 30
0
 70
128
 71
15
 72
32
 73
38
 74
38
 0
VERTEX
 8
21
 10
0
 20
0
 30
0
 70
128
 71
19
 72
17
 73
37
 74
37
 0
VERTEX
 8
21
 10
0
 20
0
 30
0
 70
128
 71
37
 72
17
 73
38
 74
38
 0
VERTEX
 8
21
 10
0
 20
0
 30
0
 70
128
 71
21
 72
19
 73
36
 74
36
 0
VERTEX
 8
21
 10
0
 20
0
 30
0
 70
128
 71
36
 72
19
 73
37
 74
37
 0
VERTEX
 8
21
 10
0
 20
0
 30
0
 70
128
 71
23
 72
21
 73
34
 74
34
 0
VERTEX
 8
21
 10
0
 20
0
 30
0
 70
128
 71
34
 72
21
 73
35
 74
35
 0
VERTEX
 8
21
 10
0
 20
0
 30
0
 70
128
 71
35
 72
21
 73
36
 74
36
 0
VERTEX
 8
21
 10
0
 20
0
 30
0
 70
128
 71
25
 72
23
 73
33
 74
33
 0
VERTEX
 8
21
 10
0
 20
0
 30
0
 70
128
 71
33
 72
23
 73
34
 74
34
 0
SEQEND
 0
POLYLINE
 8
20
 66
1
 10
0.0
 20
0.0
 30
0.0
 70
64
 71
10
 72
8
 0
VERTEX
 8
20
 10
43.85
 20
16.71
 30
9
 70
192
 0
VERTEX
 8
20
 10
44.1972
 20
16.71
 30
7.4807
 70
192
 0
VERTEX
 8
20
 10
45.1677
 20
16.71
 30
6.2641
 70
192
 0
VERTEX
 8
20
 10
46.5703
 20
16.71
 30
5.588
 70
192
 0
VERTEX
 8
20
 10
48.1297
 20
16.71
 30
5.588
 70
192
 0
VERTEX
 8
20
 10
49.5323
 20
16.71
 30
6.2641
 70
192
 0
VERTEX
 8
20
 10
50.5028
 20
16.71
 30
7.4807
 70
192
 0
VERTEX
 8
20
 10
50.85
 20
16.71
 30
9
 70
192
 0
VERTEX
 8
20
 10
50.5028
 20
16.71
 30
10.5193
 70
192
 0
VERTEX
 8
20
 10
44.1972
 20
16.71
 30
10.5193
 70
192
 0
VERTEX
 8
20
 10
0
 20
0
 30
0
 70
128
 71
2
 72
1
 73
8
 74
8
 0
VERTEX
 8
20
 10
0
 20
0
 30
0
 70
128
 71
8
 72
1
 73
9
 74
9
 0
VERTEX
 8
20
 10
0
 20
0
 30
0
 70
128
 71
9
 72
1
 73
10
 74
10
 0
VERTEX
 8
20
 10
0
 20
0
 30
0
 70
128
 71
3
 72
2
 73
7
 74
7
 0
VERTEX
 8
20
 10
0
 20
0
 30
0
 70
128
 71
7
 72
2
 73
8
 74
8
 0
VERTEX
 8
20
 10
0
 20
0
 30
0
 70
128
 71
4
 72
3
 73
6
 74
6
 0
VERTEX
 8
20
 10
0
 20
0
 30
0
 70
128
 71
6
 72
3
 73
7
 74
7
 0
VERTEX
 8
20
 10
0
 20
0
 30
0
 70
128
 71
5
 72
4
 73
6
 74
6
 0
SEQEND
 0
POLYLINE
 8
19
 66
1
 10
0.0
 20
0.0
 30
0.0
 70
64
 71
107
 72
77
 0
VERTEX
 8
19
 10
-38.7
 20
-11.1106
 30
4.8383
 70
192
 0
VERTEX
 8
19
 10
-38.7
 20
-9.2569
 30
4.0514
 70
192
 0
VERTEX
 8
19
 10
-38.7
 20
-7.2431
 30
4.0514
 70
192
 0
VERTEX
 8
19
 10
-38.7
 20
-5.3894
 30
4.8383
 70
192
 0
VERTEX
 8
19
 10
-53.2
 20
-13.3
 30
9
 70
192
 0
VERTEX
 8
19
 10
-53.2
 20
-13.3
 30
9
 70
192
 0
VERTEX
 8
19
 10
-53.2
 20
-11.8209
 30
5.4291
 70
192
 0
VERTEX
 8
19
 10
-53.2
 20
-10.1825
 30
4.3344
 70
192
 0
VERTEX
 8
19
 10
-53.2
 20
-8.25
 30
3.95
 70
192
 0
VERTEX
 8
19
 10
-53.2
 20
-6.3174
 30
4.3344
 70
192
 0
VERTEX
 8
19
 10
-53.2
 20
-4.6791
 30
5.4291
 70
192
 0
VERTEX
 8
19
 10
-53.2
 20
-3.5844
 30
7.0675
 70
192
 0
VERTEX
 8
19
 10
-53.2
 20
-3.2
 30
9
 70
192
 0
VERTEX
 8
19
 10
-53.2
 20
-3.2
 30
9
 70
192
 0
VERTEX
 8
19
 10
-48.85
 20
-3.2
 30
9
 70
192
 0
VERTEX
 8
19
 10
-48.85
 20
-3.2
 30
9
 70
192
 0
VERTEX
 8
19
 10
-48.6506
 20
-3.2554
 30
8.254
 70
192
 0
VERTEX
 8
19
 10
-48.0953
 20
-3.3707
 30
7.6983
 70
192
 0
VERTEX
 8
19
 10
-47.35
 20
-3.4278
 30
7.5002
 70
192
 0
VERTEX
 8
19
 10
-38.7
 20
-13.2875
 30
8.6447
 70
192
 0
VERTEX
 8
19
 10
-38.7
 20
-13.3
 30
9
 70
192
 0
VERTEX
 8
19
 10
-38.7
 20
-13.3
 30
9
 70
192
 0
VERTEX
 8
19
 10
-53.2
 20
-3.5844
 30
10.9325
 70
192
 0
VERTEX
 8
19
 10
-53.2
 20
-4.6791
 30
12.5709
 70
192
 0
VERTEX
 8
19
 10
-53.2
 20
-6.3174
 30
13.6656
 70
192
 0
VERTEX
 8
19
 10
-53.2
 20
-8.25
 30
14.05
 70
192
 0
VERTEX
 8
19
 10
-53.2
 20
-10.1825
 30
13.6656
 70
192
 0
VERTEX
 8
19
 10
-53.2
 20
-11.8209
 30
12.5709
 70
192
 0
VERTEX
 8
19
 10
-53.2
 20
-12.9156
 30
10.9325
 70
192
 0
VERTEX
 8
19
 10
-38.7
 20
-13.2875
 30
9.3553
 70
192
 0
VERTEX
 8
19
 10
-38.7
 20
-11.1106
 30
13.1617
 70
192
 0
VERTEX
 8
19
 10
-38.7
 20
-9.2569
 30
13.9486
 70
192
 0
VERTEX
 8
19
 10
-38.7
 20
-7.2431
 30
13.9486
 70
192
 0
VERTEX
 8
19
 10
-38.7
 20
-5.3894
 30
13.1617
 70
192
 0
VERTEX
 8
19
 10
-47.35
 20
-3.4278
 30
10.4998
 70
192
 0
VERTEX
 8
19
 10
-48.0953
 20
-3.3707
 30
10.3017
 70
192
 0
VERTEX
 8
19
 10
-48.6506
 20
-3.2554
 30
9.746
 70
192
 0
VERTEX
 8
19
 10
45.25
 20
6.9417
 30
9
 70
192
 0
VERTEX
 8
19
 10
45.25
 20
6.9417
 30
9
 70
192
 0
VERTEX
 8
19
 10
45.25
 20
6.9417
 30
9
 70
192
 0
VERTEX
 8
19
 10
45.25
 20
6.9417
 30
9
 70
192
 0
VERTEX
 8
19
 10
43.85
 20
7.75
 30
9
 70
192
 0
VERTEX
 8
19
 10
43.85
 20
7.75
 30
9
 70
192
 0
VERTEX
 8
19
 10
43.85
 20
7.75
 30
9
 70
192
 0
VERTEX
 8
19
 10
43.85
 20
7.75
 30
9
 70
192
 0
VERTEX
 8
19
 10
44.1968
 20
7.75
 30
7.4811
 70
192
 0
VERTEX
 8
19
 10
44.1968
 20
7.75
 30
7.4811
 70
192
 0
VERTEX
 8
19
 10
45.1681
 20
7.75
 30
6.2633
 70
192
 0
VERTEX
 8
19
 10
45.1681
 20
7.75
 30
6.2633
 70
192
 0
VERTEX
 8
19
 10
46.5713
 20
7.75
 30
5.5877
 70
192
 0
VERTEX
 8
19
 10
46.5713
 20
7.75
 30
5.5877
 70
192
 0
VERTEX
 8
19
 10
48.1287
 20
7.75
 30
5.5877
 70
192
 0
VERTEX
 8
19
 10
48.1287
 20
7.75
 30
5.5877
 70
192
 0
VERTEX
 8
19
 10
49.5319
 20
7.75
 30
6.2633
 70
192
 0
VERTEX
 8
19
 10
49.5319
 20
7.75
 30
6.2633
 70
192
 0
VERTEX
 8
19
 10
50.5032
 20
7.75
 30
7.4811
 70
192
 0
VERTEX
 8
19
 10
50.5032
 20
7.75
 30
7.4811
 70
192
 0
VERTEX
 8
19
 10
50.85
 20
7.75
 30
9
 70
192
 0
VERTEX
 8
19
 10
50.85
 20
7.75
 30
9
 70
192
 0
VERTEX
 8
19
 10
50.85
 20
7.75
 30
9
 70
192
 0
VERTEX
 8
19
 10
50.85
 20
7.75
 30
9
 70
192
 0
VERTEX
 8
19
 10
49.45
 20
6.9417
 30
9
 70
192
 0
VERTEX
 8
19
 10
49.45
 20
6.9417
 30
9
 70
192
 0
VERTEX
 8
19
 10
49.45
 20
6.9417
 30
9
 70
192
 0
VERTEX
 8
19
 10
49.45
 20
6.9417
 30
9
 70
192
 0
VERTEX
 8
19
 10
49.242
 20
6.9417
 30
8.0888
 70
192
 0
VERTEX
 8
19
 10
49.242
 20
6.9417
 30
8.0888
 70
192
 0
VERTEX
 8
19
 10
48.6593
 20
6.9417
 30
7.3582
 70
192
 0
VERTEX
 8
19
 10
48.6593
 20
6.9417
 30
7.3582
 70
192
 0
VERTEX
 8
19
 10
47.8173
 20
6.9417
 30
6.9527
 70
192
 0
VERTEX
 8
19
 10
47.8173
 20
6.9417
 30
6.9527
 70
192
 0
VERTEX
 8
19
 10
46.8827
 20
6.9417
 30
6.9527
 70
192
 0
VERTEX
 8
19
 10
46.8827
 20
6.9417
 30
6.9527
 70
192
 0
VERTEX
 8
19
 10
46.0407
 20
6.9417
 30
7.3582
 70
192
 0
VERTEX
 8
19
 10
46.0407
 20
6.9417
 30
7.3582
 70
192
 0
VERTEX
 8
19
 10
45.458
 20
6.9417
 30
8.0888
 70
192
 0
VERTEX
 8
19
 10
45.458
 20
6.9417
 30
8.0888
 70
192
 0
VERTEX
 8
19
 10
43.85
 20
16.71
 30
9
 70
192
 0
VERTEX
 8
19
 10
43.85
 20
16.71
 30
9
 70
192
 0
VERTEX
 8
19
 10
44.1972
 20
16.71
 30
7.4807
 70
192
 0
VERTEX
 8
19
 10
45.1677
 20
16.71
 30
6.2641
 70
192
 0
VERTEX
 8
19
 10
46.5703
 20
16.71
 30
5.588
 70
192
 0
VERTEX
 8
19
 10
48.1297
 20
16.71
 30
5.588
 70
192
 0
VERTEX
 8
19
 10
49.5323
 20
16.71
 30
6.2641
 70
192
 0
VERTEX
 8
19
 10
50.5028
 20
16.71
 30
7.4807
 70
192
 0
VERTEX
 8
19
 10
50.85
 20
16.71
 30
9
 70
192
 0
VERTEX
 8
19
 10
50.85
 20
16.71
 30
9
 70
192
 0
VERTEX
 8
19
 10
50.5032
 20
7.75
 30
10.5189
 70
192
 0
VERTEX
 8
19
 10
50.5032
 20
7.75
 30
10.5189
 70
192
 0
VERTEX
 8
19
 10
44.1968
 20
7.75
 30
10.5189
 70
192
 0
VERTEX
 8
19
 10
44.1968
 20
7.75
 30
10.5189
 70
192
 0
VERTEX
 8
19
 10
45.458
 20
6.9417
 30
9.9112
 70
192
 0
VERTEX
 8
19
 10
45.458
 20
6.9417
 30
9.9112
 70
192
 0
VERTEX
 8
19
 10
49.242
 20
6.9417
 30
9.9112
 70
192
 0
VERTEX
 8
19
 10
49.242
 20
6.9417
 30
9.9112
 70
192
 0
VERTEX
 8
19
 10
44.1972
 20
16.71
 30
10.5193
 70
192
 0
VERTEX
 8
19
 10
45.25
 20
0.25
 30
9
 70
192
 0
VERTEX
 8
19
 10
45.25
 20
0.25
 30
9
 70
192
 0
VERTEX
 8
19
 10
45.4581
 20
0.25
 30
8.0886
 70
192
 0
VERTEX
 8
19
 10
46.0409
 20
0.25
 30
7.358
 70
192
 0
VERTEX
 8
19
 10
46.8828
 20
0.25
 30
6.9526
 70
192
 0
VERTEX
 8
19
 10
47.8172
 20
0.25
 30
6.9526
 70
192
 0
VERTEX
 8
19
 10
48.6591
 20
0.25
 30
7.358
 70
192
 0
VERTEX
 8
19
 10
49.2419
 20
0.25
 30
8.0886
 70
192
 0
VERTEX
 8
19
 10
49.45
 20
0.25
 30
9
 70
192
 0
VERTEX
 8
19
 10
49.45
 20
0.25
 30
9
 70
192
 0
VERTEX
 8
19
 10
49.2419
 20
0.25
 30
9.9114
 70
192
 0
VERTEX
 8
19
 10
0
 20
0
 30
0
 70
128
 71
2
 72
1
 73
8
 74
8
 0
VERTEX
 8
19
 10
0
 20
0
 30
0
 70
128
 71
1
 72
7
 73
8
 74
8
 0
VERTEX
 8
19
 10
0
 20
0
 30
0
 70
128
 71
3
 72
2
 73
9
 74
9
 0
VERTEX
 8
19
 10
0
 20
0
 30
0
 70
128
 71
2
 72
8
 73
9
 74
9
 0
VERTEX
 8
19
 10
0
 20
0
 30
0
 70
128
 71
4
 72
3
 73
10
 74
10
 0
VERTEX
 8
19
 10
0
 20
0
 30
0
 70
128
 71
3
 72
9
 73
10
 74
10
 0
VERTEX
 8
19
 10
0
 20
0
 30
0
 70
128
 71
4
 72
10
 73
11
 74
11
 0
VERTEX
 8
19
 10
0
 20
0
 30
0
 70
128
 71
5
 72
20
 73
21
 74
21
 0
VERTEX
 8
19
 10
0
 20
0
 30
0
 70
128
 71
6
 72
22
 73
29
 74
29
 0
VERTEX
 8
19
 10
0
 20
0
 30
0
 70
128
 71
12
 72
13
 73
15
 74
15
 0
VERTEX
 8
19
 10
0
 20
0
 30
0
 70
128
 71
12
 72
15
 73
17
 74
17
 0
VERTEX
 8
19
 10
0
 20
0
 30
0
 70
128
 71
12
 72
17
 73
18
 74
18
 0
VERTEX
 8
19
 10
0
 20
0
 30
0
 70
128
 71
12
 72
18
 73
19
 74
19
 0
VERTEX
 8
19
 10
0
 20
0
 30
0
 70
128
 71
16
 72
14
 73
37
 74
37
 0
VERTEX
 8
19
 10
0
 20
0
 30
0
 70
128
 71
14
 72
23
 73
35
 74
35
 0
VERTEX
 8
19
 10
0
 20
0
 30
0
 70
128
 71
14
 72
35
 73
36
 74
36
 0
VERTEX
 8
19
 10
0
 20
0
 30
0
 70
128
 71
14
 72
36
 73
37
 74
37
 0
VERTEX
 8
19
 10
0
 20
0
 30
0
 70
128
 71
29
 72
22
 73
30
 74
30
 0
VERTEX
 8
19
 10
0
 20
0
 30
0
 70
128
 71
24
 72
25
 73
34
 74
34
 0
VERTEX
 8
19
 10
0
 20
0
 30
0
 70
128
 71
25
 72
26
 73
33
 74
33
 0
VERTEX
 8
19
 10
0
 20
0
 30
0
 70
128
 71
25
 72
33
 73
34
 74
34
 0
VERTEX
 8
19
 10
0
 20
0
 30
0
 70
128
 71
26
 72
27
 73
32
 74
32
 0
VERTEX
 8
19
 10
0
 20
0
 30
0
 70
128
 71
26
 72
32
 73
33
 74
33
 0
VERTEX
 8
19
 10
0
 20
0
 30
0
 70
128
 71
27
 72
28
 73
31
 74
31
 0
VERTEX
 8
19
 10
0
 20
0
 30
0
 70
128
 71
27
 72
31
 73
32
 74
32
 0
VERTEX
 8
19
 10
0
 20
0
 30
0
 70
128
 71
38
 72
42
 73
76
 74
76
 0
VERTEX
 8
19
 10
0
 20
0
 30
0
 70
128
 71
44
 72
39
 73
90
 74
90
 0
VERTEX
 8
19
 10
0
 20
0
 30
0
 70
128
 71
40
 72
77
 73
99
 74
99
 0
VERTEX
 8
19
 10
0
 20
0
 30
0
 70
128
 71
90
 72
39
 73
92
 74
92
 0
VERTEX
 8
19
 10
0
 20
0
 30
0
 70
128
 71
93
 72
41
 73
98
 74
98
 0
VERTEX
 8
19
 10
0
 20
0
 30
0
 70
128
 71
97
 72
40
 73
99
 74
99
 0
VERTEX
 8
19
 10
0
 20
0
 30
0
 70
128
 71
42
 72
46
 73
76
 74
76
 0
VERTEX
 8
19
 10
0
 20
0
 30
0
 70
128
 71
47
 72
43
 73
78
 74
78
 0
VERTEX
 8
19
 10
0
 20
0
 30
0
 70
128
 71
79
 72
45
 73
96
 74
96
 0
VERTEX
 8
19
 10
0
 20
0
 30
0
 70
128
 71
45
 72
91
 73
96
 74
96
 0
VERTEX
 8
19
 10
0
 20
0
 30
0
 70
128
 71
46
 72
48
 73
74
 74
74
 0
VERTEX
 8
19
 10
0
 20
0
 30
0
 70
128
 71
49
 72
47
 73
81
 74
81
 0
VERTEX
 8
19
 10
0
 20
0
 30
0
 70
128
 71
46
 72
74
 73
76
 74
76
 0
VERTEX
 8
19
 10
0
 20
0
 30
0
 70
128
 71
47
 72
78
 73
80
 74
80
 0
VERTEX
 8
19
 10
0
 20
0
 30
0
 70
128
 71
47
 72
80
 73
81
 74
81
 0
VERTEX
 8
19
 10
0
 20
0
 30
0
 70
128
 71
48
 72
50
 73
72
 74
72
 0
VERTEX
 8
19
 10
0
 20
0
 30
0
 70
128
 71
51
 72
49
 73
82
 74
82
 0
VERTEX
 8
19
 10
0
 20
0
 30
0
 70
128
 71
48
 72
72
 73
74
 74
74
 0
VERTEX
 8
19
 10
0
 20
0
 30
0
 70
128
 71
49
 72
81
 73
82
 74
82
 0
VERTEX
 8
19
 10
0
 20
0
 30
0
 70
128
 71
50
 72
52
 73
70
 74
70
 0
VERTEX
 8
19
 10
0
 20
0
 30
0
 70
128
 71
53
 72
51
 73
82
 74
82
 0
VERTEX
 8
19
 10
0
 20
0
 30
0
 70
128
 71
50
 72
70
 73
72
 74
72
 0
VERTEX
 8
19
 10
0
 20
0
 30
0
 70
128
 71
52
 72
54
 73
70
 74
70
 0
VERTEX
 8
19
 10
0
 20
0
 30
0
 70
128
 71
55
 72
53
 73
83
 74
83
 0
VERTEX
 8
19
 10
0
 20
0
 30
0
 70
128
 71
53
 72
82
 73
83
 74
83
 0
VERTEX
 8
19
 10
0
 20
0
 30
0
 70
128
 71
54
 72
56
 73
68
 74
68
 0
VERTEX
 8
19
 10
0
 20
0
 30
0
 70
128
 71
57
 72
55
 73
84
 74
84
 0
VERTEX
 8
19
 10
0
 20
0
 30
0
 70
128
 71
54
 72
68
 73
70
 74
70
 0
VERTEX
 8
19
 10
0
 20
0
 30
0
 70
128
 71
55
 72
83
 73
84
 74
84
 0
VERTEX
 8
19
 10
0
 20
0
 30
0
 70
128
 71
56
 72
58
 73
62
 74
62
 0
VERTEX
 8
19
 10
0
 20
0
 30
0
 70
128
 71
59
 72
57
 73
85
 74
85
 0
VERTEX
 8
19
 10
0
 20
0
 30
0
 70
128
 71
56
 72
62
 73
66
 74
66
 0
VERTEX
 8
19
 10
0
 20
0
 30
0
 70
128
 71
56
 72
66
 73
68
 74
68
 0
VERTEX
 8
19
 10
0
 20
0
 30
0
 70
128
 71
57
 72
84
 73
85
 74
85
 0
VERTEX
 8
19
 10
0
 20
0
 30
0
 70
128
 71
63
 72
60
 73
94
 74
94
 0
VERTEX
 8
19
 10
0
 20
0
 30
0
 70
128
 71
59
 72
85
 73
86
 74
86
 0
VERTEX
 8
19
 10
0
 20
0
 30
0
 70
128
 71
61
 72
87
 73
89
 74
89
 0
VERTEX
 8
19
 10
0
 20
0
 30
0
 70
128
 71
60
 72
88
 73
94
 74
94
 0
VERTEX
 8
19
 10
0
 20
0
 30
0
 70
128
 71
67
 72
64
 73
105
 74
105
 0
VERTEX
 8
19
 10
0
 20
0
 30
0
 70
128
 71
65
 72
95
 73
107
 74
107
 0
VERTEX
 8
19
 10
0
 20
0
 30
0
 70
128
 71
106
 72
65
 73
107
 74
107
 0
VERTEX
 8
19
 10
0
 20
0
 30
0
 70
128
 71
69
 72
67
 73
104
 74
104
 0
VERTEX
 8
19
 10
0
 20
0
 30
0
 70
128
 71
104
 72
67
 73
105
 74
105
 0
VERTEX
 8
19
 10
0
 20
0
 30
0
 70
128
 71
71
 72
69
 73
103
 74
103
 0
VERTEX
 8
19
 10
0
 20
0
 30
0
 70
128
 71
103
 72
69
 73
104
 74
104
 0
VERTEX
 8
19
 10
0
 20
0
 30
0
 70
128
 71
73
 72
71
 73
102
 74
102
 0
VERTEX
 8
19
 10
0
 20
0
 30
0
 70
128
 71
102
 72
71
 73
103
 74
103
 0
VERTEX
 8
19
 10
0
 20
0
 30
0
 70
128
 71
75
 72
73
 73
100
 74
100
 0
VERTEX
 8
19
 10
0
 20
0
 30
0
 70
128
 71
100
 72
73
 73
101
 74
101
 0
VERTEX
 8
19
 10
0
 20
0
 30
0
 70
128
 71
101
 72
73
 73
102
 74
102
 0
VERTEX
 8
19
 10
0
 20
0
 30
0
 70
128
 71
77
 72
75
 73
99
 74
99
 0
VERTEX
 8
19
 10
0
 20
0
 30
0
 70
128
 71
99
 72
75
 73
100
 74
100
 0
SEQEND
 0
POLYLINE
 8
18
 66
1
 10
0.0
 20
0.0
 30
0.0
 70
64
 71
12
 72
10
 0
VERTEX
 8
18
 10
-31.6833
 20
16.71
 30
15.408
 70
192
 0
VERTEX
 8
18
 10
-34.1261
 20
16.71
 30
15.9897
 70
192
 0
VERTEX
 8
18
 10
-36.6186
 20
16.71
 30
15.6717
 70
192
 0
VERTEX
 8
18
 10
-38.8394
 20
16.71
 30
14.4925
 70
192
 0
VERTEX
 8
18
 10
-40.4986
 20
16.71
 30
12.6073
 70
192
 0
VERTEX
 8
18
 10
-41.3861
 20
16.71
 30
10.2574
 70
192
 0
VERTEX
 8
18
 10
-41.3861
 20
16.71
 30
7.7426
 70
192
 0
VERTEX
 8
18
 10
-40.4986
 20
16.71
 30
5.3927
 70
192
 0
VERTEX
 8
18
 10
-38.8394
 20
16.71
 30
3.5075
 70
192
 0
VERTEX
 8
18
 10
-36.6186
 20
16.71
 30
2.3283
 70
192
 0
VERTEX
 8
18
 10
-34.1261
 20
16.71
 30
2.0103
 70
192
 0
VERTEX
 8
18
 10
-31.6833
 20
16.71
 30
2.592
 70
192
 0
VERTEX
 8
18
 10
0
 20
0
 30
0
 70
128
 71
2
 72
1
 73
12
 74
12
 0
VERTEX
 8
18
 10
0
 20
0
 30
0
 70
128
 71
3
 72
2
 73
11
 74
11
 0
VERTEX
 8
18
 10
0
 20
0
 30
0
 70
128
 71
11
 72
2
 73
12
 74
12
 0
VERTEX
 8
18
 10
0
 20
0
 30
0
 70
128
 71
4
 72
3
 73
10
 74
10
 0
VERTEX
 8
18
 10
0
 20
0
 30
0
 70
128
 71
10
 72
3
 73
11
 74
11
 0
VERTEX
 8
18
 10
0
 20
0
 30
0
 70
128
 71
5
 72
4
 73
9
 74
9
 0
VERTEX
 8
18
 10
0
 20
0
 30
0
 70
128
 71
9
 72
4
 73
10
 74
10
 0
VERTEX
 8
18
 10
0
 20
0
 30
0
 70
128
 71
6
 72
5
 73
8
 74
8
 0
VERTEX
 8
18
 10
0
 20
0
 30
0
 70
128
 71
8
 72
5
 73
9
 74
9
 0
VERTEX
 8
18
 10
0
 20
0
 30
0
 70
128
 71
7
 72
6
 73
8
 74
8
 0
SEQEND
 0
POLYLINE
 8
17
 66
1
 10
0.0
 20
0.0
 30
0.0
 70
64
 71
24
 72
22
 0
VERTEX
 8
17
 10
-31.6823
 20
5.25
 30
15.4079
 70
192
 0
VERTEX
 8
17
 10
-34.1267
 20
5.25
 30
15.99
 70
192
 0
VERTEX
 8
17
 10
-36.6192
 20
5.25
 30
15.6715
 70
192
 0
VERTEX
 8
17
 10
-38.8386
 20
5.25
 30
14.4933
 70
192
 0
VERTEX
 8
17
 10
-40.499
 20
5.25
 30
12.6073
 70
192
 0
VERTEX
 8
17
 10
-41.3863
 20
5.25
 30
10.2564
 70
192
 0
VERTEX
 8
17
 10
-41.3863
 20
5.25
 30
7.7436
 70
192
 0
VERTEX
 8
17
 10
-40.499
 20
5.25
 30
5.3927
 70
192
 0
VERTEX
 8
17
 10
-38.8386
 20
5.25
 30
3.5067
 70
192
 0
VERTEX
 8
17
 10
-36.6192
 20
5.25
 30
2.3285
 70
192
 0
VERTEX
 8
17
 10
-34.1267
 20
5.25
 30
2.01
 70
192
 0
VERTEX
 8
17
 10
-31.6823
 20
5.25
 30
2.5921
 70
192
 0
VERTEX
 8
17
 10
-31.6833
 20
16.71
 30
15.408
 70
192
 0
VERTEX
 8
17
 10
-34.1261
 20
16.71
 30
15.9897
 70
192
 0
VERTEX
 8
17
 10
-36.6186
 20
16.71
 30
15.6717
 70
192
 0
VERTEX
 8
17
 10
-38.8394
 20
16.71
 30
14.4925
 70
192
 0
VERTEX
 8
17
 10
-40.4986
 20
16.71
 30
12.6073
 70
192
 0
VERTEX
 8
17
 10
-41.3861
 20
16.71
 30
10.2574
 70
192
 0
VERTEX
 8
17
 10
-41.3861
 20
16.71
 30
7.7426
 70
192
 0
VERTEX
 8
17
 10
-40.4986
 20
16.71
 30
5.3927
 70
192
 0
VERTEX
 8
17
 10
-38.8394
 20
16.71
 30
3.5075
 70
192
 0
VERTEX
 8
17
 10
-36.6186
 20
16.71
 30
2.3283
 70
192
 0
VERTEX
 8
17
 10
-34.1261
 20
16.71
 30
2.0103
 70
192
 0
VERTEX
 8
17
 10
-31.6833
 20
16.71
 30
2.592
 70
192
 0
VERTEX
 8
17
 10
0
 20
0
 30
0
 70
128
 71
2
 72
1
 73
13
 74
13
 0
VERTEX
 8
17
 10
0
 20
0
 30
0
 70
128
 71
3
 72
2
 73
14
 74
14
 0
VERTEX
 8
17
 10
0
 20
0
 30
0
 70
128
 71
2
 72
13
 73
14
 74
14
 0
VERTEX
 8
17
 10
0
 20
0
 30
0
 70
128
 71
4
 72
3
 73
15
 74
15
 0
VERTEX
 8
17
 10
0
 20
0
 30
0
 70
128
 71
3
 72
14
 73
15
 74
15
 0
VERTEX
 8
17
 10
0
 20
0
 30
0
 70
128
 71
5
 72
4
 73
16
 74
16
 0
VERTEX
 8
17
 10
0
 20
0
 30
0
 70
128
 71
4
 72
15
 73
16
 74
16
 0
VERTEX
 8
17
 10
0
 20
0
 30
0
 70
128
 71
6
 72
5
 73
17
 74
17
 0
VERTEX
 8
17
 10
0
 20
0
 30
0
 70
128
 71
5
 72
16
 73
17
 74
17
 0
VERTEX
 8
17
 10
0
 20
0
 30
0
 70
128
 71
7
 72
6
 73
18
 74
18
 0
VERTEX
 8
17
 10
0
 20
0
 30
0
 70
128
 71
6
 72
17
 73
18
 74
18
 0
VERTEX
 8
17
 10
0
 20
0
 30
0
 70
128
 71
8
 72
7
 73
19
 74
19
 0
VERTEX
 8
17
 10
0
 20
0
 30
0
 70
128
 71
7
 72
18
 73
19
 74
19
 0
VERTEX
 8
17
 10
0
 20
0
 30
0
 70
128
 71
9
 72
8
 73
20
 74
20
 0
VERTEX
 8
17
 10
0
 20
0
 30
0
 70
128
 71
8
 72
19
 73
20
 74
20
 0
VERTEX
 8
17
 10
0
 20
0
 30
0
 70
128
 71
10
 72
9
 73
21
 74
21
 0
VERTEX
 8
17
 10
0
 20
0
 30
0
 70
128
 71
9
 72
20
 73
21
 74
21
 0
VERTEX
 8
17
 10
0
 20
0
 30
0
 70
128
 71
11
 72
10
 73
22
 74
22
 0
VERTEX
 8
17
 10
0
 20
0
 30
0
 70
128
 71
10
 72
21
 73
22
 74
22
 0
VERTEX
 8
17
 10
0
 20
0
 30
0
 70
128
 71
12
 72
11
 73
23
 74
23
 0
VERTEX
 8
17
 10
0
 20
0
 30
0
 70
128
 71
11
 72
22
 73
23
 74
23
 0
VERTEX
 8
17
 10
0
 20
0
 30
0
 70
128
 71
12
 72
23
 73
24
 74
24
 0
SEQEND
 0
POLYLINE
 8
16
 66
1
 10
0.0
 20
0.0
 30
0.0
 70
64
 71
12
 72
10
 0
VERTEX
 8
16
 10
31.6833
 20
16.71
 30
2.592
 70
192
 0
VERTEX
 8
16
 10
34.1261
 20
16.71
 30
2.0103
 70
192
 0
VERTEX
 8
16
 10
36.6186
 20
16.71
 30
2.3283
 70
192
 0
VERTEX
 8
16
 10
38.8394
 20
16.71
 30
3.5075
 70
192
 0
VERTEX
 8
16
 10
40.4986
 20
16.71
 30
5.3927
 70
192
 0
VERTEX
 8
16
 10
41.3861
 20
16.71
 30
7.7426
 70
192
 0
VERTEX
 8
16
 10
41.3861
 20
16.71
 30
10.2574
 70
192
 0
VERTEX
 8
16
 10
40.4986
 20
16.71
 30
12.6073
 70
192
 0
VERTEX
 8
16
 10
38.8394
 20
16.71
 30
14.4925
 70
192
 0
VERTEX
 8
16
 10
36.6186
 20
16.71
 30
15.6717
 70
192
 0
VERTEX
 8
16
 10
34.1261
 20
16.71
 30
15.9897
 70
192
 0
VERTEX
 8
16
 10
31.6833
 20
16.71
 30
15.408
 70
192
 0
VERTEX
 8
16
 10
0
 20
0
 30
0
 70
128
 71
2
 72
1
 73
12
 74
12
 0
VERTEX
 8
16
 10
0
 20
0
 30
0
 70
128
 71
3
 72
2
 73
11
 74
11
 0
VERTEX
 8
16
 10
0
 20
0
 30
0
 70
128
 71
11
 72
2
 73
12
 74
12
 0
VERTEX
 8
16
 10
0
 20
0
 30
0
 70
128
 71
4
 72
3
 73
10
 74
10
 0
VERTEX
 8
16
 10
0
 20
0
 30
0
 70
128
 71
10
 72
3
 73
11
 74
11
 0
VERTEX
 8
16
 10
0
 20
0
 30
0
 70
128
 71
5
 72
4
 73
9
 74
9
 0
VERTEX
 8
16
 10
0
 20
0
 30
0
 70
128
 71
9
 72
4
 73
10
 74
10
 0
VERTEX
 8
16
 10
0
 20
0
 30
0
 70
128
 71
6
 72
5
 73
8
 74
8
 0
VERTEX
 8
16
 10
0
 20
0
 30
0
 70
128
 71
8
 72
5
 73
9
 74
9
 0
VERTEX
 8
16
 10
0
 20
0
 30
0
 70
128
 71
7
 72
6
 73
8
 74
8
 0
SEQEND
 0
POLYLINE
 8
15
 66
1
 10
0.0
 20
0.0
 30
0.0
 70
64
 71
24
 72
22
 0
VERTEX
 8
15
 10
31.6823
 20
5.25
 30
2.5921
 70
192
 0
VERTEX
 8
15
 10
34.1267
 20
5.25
 30
2.01
 70
192
 0
VERTEX
 8
15
 10
36.6192
 20
5.25
 30
2.3285
 70
192
 0
VERTEX
 8
15
 10
38.8386
 20
5.25
 30
3.5067
 70
192
 0
VERTEX
 8
15
 10
40.499
 20
5.25
 30
5.3927
 70
192
 0
VERTEX
 8
15
 10
41.3863
 20
5.25
 30
7.7436
 70
192
 0
VERTEX
 8
15
 10
41.3863
 20
5.25
 30
10.2564
 70
192
 0
VERTEX
 8
15
 10
40.499
 20
5.25
 30
12.6073
 70
192
 0
VERTEX
 8
15
 10
38.8386
 20
5.25
 30
14.4933
 70
192
 0
VERTEX
 8
15
 10
36.6192
 20
5.25
 30
15.6715
 70
192
 0
VERTEX
 8
15
 10
34.1267
 20
5.25
 30
15.99
 70
192
 0
VERTEX
 8
15
 10
31.6823
 20
5.25
 30
15.4079
 70
192
 0
VERTEX
 8
15
 10
31.6833
 20
16.71
 30
2.592
 70
192
 0
VERTEX
 8
15
 10
34.1261
 20
16.71
 30
2.0103
 70
192
 0
VERTEX
 8
15
 10
36.6186
 20
16.71
 30
2.3283
 70
192
 0
VERTEX
 8
15
 10
38.8394
 20
16.71
 30
3.5075
 70
192
 0
VERTEX
 8
15
 10
40.4986
 20
16.71
 30
5.3927
 70
192
 0
VERTEX
 8
15
 10
41.3861
 20
16.71
 30
7.7426
 70
192
 0
VERTEX
 8
15
 10
41.3861
 20
16.71
 30
10.2574
 70
192
 0
VERTEX
 8
15
 10
40.4986
 20
16.71
 30
12.6073
 70
192
 0
VERTEX
 8
15
 10
38.8394
 20
16.71
 30
14.4925
 70
192
 0
VERTEX
 8
15
 10
36.6186
 20
16.71
 30
15.6717
 70
192
 0
VERTEX
 8
15
 10
34.1261
 20
16.71
 30
15.9897
 70
192
 0
VERTEX
 8
15
 10
31.6833
 20
16.71
 30
15.408
 70
192
 0
VERTEX
 8
15
 10
0
 20
0
 30
0
 70
128
 71
2
 72
1
 73
13
 74
13
 0
VERTEX
 8
15
 10
0
 20
0
 30
0
 70
128
 71
3
 72
2
 73
14
 74
14
 0
VERTEX
 8
15
 10
0
 20
0
 30
0
 70
128
 71
2
 72
13
 73
14
 74
14
 0
VERTEX
 8
15
 10
0
 20
0
 30
0
 70
128
 71
4
 72
3
 73
15
 74
15
 0
VERTEX
 8
15
 10
0
 20
0
 30
0
 70
128
 71
3
 72
14
 73
15
 74
15
 0
VERTEX
 8
15
 10
0
 20
0
 30
0
 70
128
 71
5
 72
4
 73
16
 74
16
 0
VERTEX
 8
15
 10
0
 20
0
 30
0
 70
128
 71
4
 72
15
 73
16
 74
16
 0
VERTEX
 8
15
 10
0
 20
0
 30
0
 70
128
 71
6
 72
5
 73
17
 74
17
 0
VERTEX
 8
15
 10
0
 20
0
 30
0
 70
128
 71
5
 72
16
 73
17
 74
17
 0
VERTEX
 8
15
 10
0
 20
0
 30
0
 70
128
 71
7
 72
6
 73
18
 74
18
 0
VERTEX
 8
15
 10
0
 20
0
 30
0
 70
128
 71
6
 72
17
 73
18
 74
18
 0
VERTEX
 8
15
 10
0
 20
0
 30
0
 70
128
 71
8
 72
7
 73
19
 74
19
 0
VERTEX
 8
15
 10
0
 20
0
 30
0
 70
128
 71
7
 72
18
 73
19
 74
19
 0
VERTEX
 8
15
 10
0
 20
0
 30
0
 70
128
 71
9
 72
8
 73
20
 74
20
 0
VERTEX
 8
15
 10
0
 20
0
 30
0
 70
128
 71
8
 72
19
 73
20
 74
20
 0
VERTEX
 8
15
 10
0
 20
0
 30
0
 70
128
 71
10
 72
9
 73
21
 74
21
 0
VERTEX
 8
15
 10
0
 20
0
 30
0
 70
128
 71
9
 72
20
 73
21
 74
21
 0
VERTEX
 8
15
 10
0
 20
0
 30
0
 70
128
 71
11
 72
10
 73
22
 74
22
 0
VERTEX
 8
15
 10
0
 20
0
 30
0
 70
128
 71
10
 72
21
 73
22
 74
22
 0
VERTEX
 8
15
 10
0
 20
0
 30
0
 70
128
 71
12
 72
11
 73
23
 74
23
 0
VERTEX
 8
15
 10
0
 20
0
 30
0
 70
128
 71
11
 72
22
 73
23
 74
23
 0
VERTEX
 8
15
 10
0
 20
0
 30
0
 70
128
 71
12
 72
23
 73
24
 74
24
 0
SEQEND
 0
POLYLINE
 8
14
 66
1
 10
0.0
 20
0.0
 30
0.0
 70
64
 71
51
 72
45
 0
VERTEX
 8
14
 10
29.601
 20
16.71
 30
14
 70
192
 0
VERTEX
 8
14
 10
20.4
 20
8.75
 30
0.54
 70
192
 0
VERTEX
 8
14
 10
20.4717
 20
8.2058
 30
0.54
 70
192
 0
VERTEX
 8
14
 10
20.6818
 20
7.6994
 30
0.54
 70
192
 0
VERTEX
 8
14
 10
21.0157
 20
7.2647
 30
0.54
 70
192
 0
VERTEX
 8
14
 10
21.4507
 20
6.9313
 30
0.54
 70
192
 0
VERTEX
 8
14
 10
21.9569
 20
6.7218
 30
0.54
 70
192
 0
VERTEX
 8
14
 10
22.5
 20
6.6503
 30
0.54
 70
192
 0
VERTEX
 8
14
 10
23.0431
 20
6.7218
 30
0.54
 70
192
 0
VERTEX
 8
14
 10
23.5493
 20
6.9313
 30
0.54
 70
192
 0
VERTEX
 8
14
 10
23.9843
 20
7.2647
 30
0.54
 70
192
 0
VERTEX
 8
14
 10
24.3182
 20
7.6994
 30
0.54
 70
192
 0
VERTEX
 8
14
 10
24.5283
 20
8.2058
 30
0.54
 70
192
 0
VERTEX
 8
14
 10
24.6
 20
8.75
 30
0.54
 70
192
 0
VERTEX
 8
14
 10
24.5283
 20
9.2942
 30
0.54
 70
192
 0
VERTEX
 8
14
 10
24.3182
 20
9.8006
 30
0.54
 70
192
 0
VERTEX
 8
14
 10
23.9843
 20
10.2353
 30
0.54
 70
192
 0
VERTEX
 8
14
 10
23.5493
 20
10.5687
 30
0.54
 70
192
 0
VERTEX
 8
14
 10
23.0431
 20
10.7782
 30
0.54
 70
192
 0
VERTEX
 8
14
 10
22.5
 20
10.8497
 30
0.54
 70
192
 0
VERTEX
 8
14
 10
21.9569
 20
10.7782
 30
0.54
 70
192
 0
VERTEX
 8
14
 10
21.4507
 20
10.5687
 30
0.54
 70
192
 0
VERTEX
 8
14
 10
21.0157
 20
10.2353
 30
0.54
 70
192
 0
VERTEX
 8
14
 10
20.6818
 20
9.8006
 30
0.54
 70
192
 0
VERTEX
 8
14
 10
20.4717
 20
9.2942
 30
0.54
 70
192
 0
VERTEX
 8
14
 10
-20.4
 20
8.75
 30
0.54
 70
192
 0
VERTEX
 8
14
 10
-24.6
 20
8.75
 30
0.54
 70
192
 0
VERTEX
 8
14
 10
-24.5283
 20
8.2058
 30
0.54
 70
192
 0
VERTEX
 8
14
 10
-24.3182
 20
7.6994
 30
0.54
 70
192
 0
VERTEX
 8
14
 10
-23.9843
 20
7.2647
 30
0.54
 70
192
 0
VERTEX
 8
14
 10
-23.5493
 20
6.9313
 30
0.54
 70
192
 0
VERTEX
 8
14
 10
-23.0431
 20
6.7218
 30
0.54
 70
192
 0
VERTEX
 8
14
 10
-22.5
 20
6.6503
 30
0.54
 70
192
 0
VERTEX
 8
14
 10
-21.9569
 20
6.7218
 30
0.54
 70
192
 0
VERTEX
 8
14
 10
-21.4507
 20
6.9313
 30
0.54
 70
192
 0
VERTEX
 8
14
 10
-21.0157
 20
7.2647
 30
0.54
 70
192
 0
VERTEX
 8
14
 10
-20.6818
 20
7.6994
 30
0.54
 70
192
 0
VERTEX
 8
14
 10
-20.4717
 20
8.2058
 30
0.54
 70
192
 0
VERTEX
 8
14
 10
-20.4717
 20
9.2942
 30
0.54
 70
192
 0
VERTEX
 8
14
 10
-20.6818
 20
9.8006
 30
0.54
 70
192
 0
VERTEX
 8
14
 10
-21.0157
 20
10.2353
 30
0.54
 70
192
 0
VERTEX
 8
14
 10
-21.4507
 20
10.5687
 30
0.54
 70
192
 0
VERTEX
 8
14
 10
-21.9569
 20
10.7782
 30
0.54
 70
192
 0
VERTEX
 8
14
 10
-22.5
 20
10.8497
 30
0.54
 70
192
 0
VERTEX
 8
14
 10
-23.0431
 20
10.7782
 30
0.54
 70
192
 0
VERTEX
 8
14
 10
-23.5493
 20
10.5687
 30
0.54
 70
192
 0
VERTEX
 8
14
 10
-23.9843
 20
10.2353
 30
0.54
 70
192
 0
VERTEX
 8
14
 10
-24.3182
 20
9.8006
 30
0.54
 70
192
 0
VERTEX
 8
14
 10
-24.5283
 20
9.2942
 30
0.54
 70
192
 0
VERTEX
 8
14
 10
31.6833
 20
16.71
 30
2.592
 70
192
 0
VERTEX
 8
14
 10
31.6833
 20
16.71
 30
15.408
 70
192
 0
VERTEX
 8
14
 10
0
 20
0
 30
0
 70
128
 71
50
 72
1
 73
51
 74
51
 0
VERTEX
 8
14
 10
0
 20
0
 30
0
 70
128
 71
3
 72
2
 73
14
 74
14
 0
VERTEX
 8
14
 10
0
 20
0
 30
0
 70
128
 71
14
 72
2
 73
15
 74
15
 0
VERTEX
 8
14
 10
0
 20
0
 30
0
 70
128
 71
15
 72
2
 73
25
 74
25
 0
VERTEX
 8
14
 10
0
 20
0
 30
0
 70
128
 71
4
 72
3
 73
13
 74
13
 0
VERTEX
 8
14
 10
0
 20
0
 30
0
 70
128
 71
13
 72
3
 73
14
 74
14
 0
VERTEX
 8
14
 10
0
 20
0
 30
0
 70
128
 71
5
 72
4
 73
12
 74
12
 0
VERTEX
 8
14
 10
0
 20
0
 30
0
 70
128
 71
12
 72
4
 73
13
 74
13
 0
VERTEX
 8
14
 10
0
 20
0
 30
0
 70
128
 71
6
 72
5
 73
11
 74
11
 0
VERTEX
 8
14
 10
0
 20
0
 30
0
 70
128
 71
11
 72
5
 73
12
 74
12
 0
VERTEX
 8
14
 10
0
 20
0
 30
0
 70
128
 71
7
 72
6
 73
10
 74
10
 0
VERTEX
 8
14
 10
0
 20
0
 30
0
 70
128
 71
10
 72
6
 73
11
 74
11
 0
VERTEX
 8
14
 10
0
 20
0
 30
0
 70
128
 71
8
 72
7
 73
9
 74
9
 0
VERTEX
 8
14
 10
0
 20
0
 30
0
 70
128
 71
9
 72
7
 73
10
 74
10
 0
VERTEX
 8
14
 10
0
 20
0
 30
0
 70
128
 71
16
 72
15
 73
25
 74
25
 0
VERTEX
 8
14
 10
0
 20
0
 30
0
 70
128
 71
17
 72
16
 73
24
 74
24
 0
VERTEX
 8
14
 10
0
 20
0
 30
0
 70
128
 71
24
 72
16
 73
25
 74
25
 0
VERTEX
 8
14
 10
0
 20
0
 30
0
 70
128
 71
18
 72
17
 73
23
 74
23
 0
VERTEX
 8
14
 10
0
 20
0
 30
0
 70
128
 71
23
 72
17
 73
24
 74
24
 0
VERTEX
 8
14
 10
0
 20
0
 30
0
 70
128
 71
19
 72
18
 73
22
 74
22
 0
VERTEX
 8
14
 10
0
 20
0
 30
0
 70
128
 71
22
 72
18
 73
23
 74
23
 0
VERTEX
 8
14
 10
0
 20
0
 30
0
 70
128
 71
20
 72
19
 73
21
 74
21
 0
VERTEX
 8
14
 10
0
 20
0
 30
0
 70
128
 71
21
 72
19
 73
22
 74
22
 0
VERTEX
 8
14
 10
0
 20
0
 30
0
 70
128
 71
27
 72
26
 73
28
 74
28
 0
VERTEX
 8
14
 10
0
 20
0
 30
0
 70
128
 71
26
 72
27
 73
39
 74
39
 0
VERTEX
 8
14
 10
0
 20
0
 30
0
 70
128
 71
28
 72
26
 73
38
 74
38
 0
VERTEX
 8
14
 10
0
 20
0
 30
0
 70
128
 71
39
 72
27
 73
49
 74
49
 0
VERTEX
 8
14
 10
0
 20
0
 30
0
 70
128
 71
29
 72
28
 73
38
 74
38
 0
VERTEX
 8
14
 10
0
 20
0
 30
0
 70
128
 71
30
 72
29
 73
37
 74
37
 0
VERTEX
 8
14
 10
0
 20
0
 30
0
 70
128
 71
37
 72
29
 73
38
 74
38
 0
VERTEX
 8
14
 10
0
 20
0
 30
0
 70
128
 71
31
 72
30
 73
36
 74
36
 0
VERTEX
 8
14
 10
0
 20
0
 30
0
 70
128
 71
36
 72
30
 73
37
 74
37
 0
VERTEX
 8
14
 10
0
 20
0
 30
0
 70
128
 71
32
 72
31
 73
35
 74
35
 0
VERTEX
 8
14
 10
0
 20
0
 30
0
 70
128
 71
35
 72
31
 73
36
 74
36
 0
VERTEX
 8
14
 10
0
 20
0
 30
0
 70
128
 71
33
 72
32
 73
34
 74
34
 0
VERTEX
 8
14
 10
0
 20
0
 30
0
 70
128
 71
34
 72
32
 73
35
 74
35
 0
VERTEX
 8
14
 10
0
 20
0
 30
0
 70
128
 71
40
 72
39
 73
49
 74
49
 0
VERTEX
 8
14
 10
0
 20
0
 30
0
 70
128
 71
41
 72
40
 73
48
 74
48
 0
VERTEX
 8
14
 10
0
 20
0
 30
0
 70
128
 71
48
 72
40
 73
49
 74
49
 0
VERTEX
 8
14
 10
0
 20
0
 30
0
 70
128
 71
42
 72
41
 73
47
 74
47
 0
VERTEX
 8
14
 10
0
 20
0
 30
0
 70
128
 71
47
 72
41
 73
48
 74
48
 0
VERTEX
 8
14
 10
0
 20
0
 30
0
 70
128
 71
43
 72
42
 73
46
 74
46
 0
VERTEX
 8
14
 10
0
 20
0
 30
0
 70
128
 71
46
 72
42
 73
47
 74
47
 0
VERTEX
 8
14
 10
0
 20
0
 30
0
 70
128
 71
44
 72
43
 73
45
 74
45
 0
VERTEX
 8
14
 10
0
 20
0
 30
0
 70
128
 71
45
 72
43
 73
46
 74
46
 0
SEQEND
 0
POLYLINE
 8
13
 66
1
 10
0.0
 20
0.0
 30
0.0
 70
64
 71
237
 72
203
 0
VERTEX
 8
13
 10
20.4
 20
8.75
 30
4
 70
192
 0
VERTEX
 8
13
 10
20.4
 20
8.75
 30
4
 70
192
 0
VERTEX
 8
13
 10
20.4
 20
8.75
 30
4
 70
192
 0
VERTEX
 8
13
 10
20.4721
 20
8.2048
 30
4
 70
192
 0
VERTEX
 8
13
 10
20.4721
 20
8.2048
 30
4
 70
192
 0
VERTEX
 8
13
 10
20.6821
 20
7.6995
 30
4
 70
192
 0
VERTEX
 8
13
 10
20.6821
 20
7.6995
 30
4
 70
192
 0
VERTEX
 8
13
 10
21.0154
 20
7.2654
 30
4
 70
192
 0
VERTEX
 8
13
 10
21.4495
 20
6.9321
 30
4
 70
192
 0
VERTEX
 8
13
 10
21.9555
 20
6.722
 30
4
 70
192
 0
VERTEX
 8
13
 10
22.5
 20
6.65
 30
4
 70
192
 0
VERTEX
 8
13
 10
23.0445
 20
6.722
 30
4
 70
192
 0
VERTEX
 8
13
 10
23.5505
 20
6.9321
 30
4
 70
192
 0
VERTEX
 8
13
 10
23.9846
 20
7.2654
 30
4
 70
192
 0
VERTEX
 8
13
 10
24.3179
 20
7.6995
 30
4
 70
192
 0
VERTEX
 8
13
 10
24.5279
 20
8.2048
 30
4
 70
192
 0
VERTEX
 8
13
 10
24.6
 20
8.75
 30
4
 70
192
 0
VERTEX
 8
13
 10
24.6
 20
8.75
 30
4
 70
192
 0
VERTEX
 8
13
 10
24.5279
 20
9.2952
 30
4
 70
192
 0
VERTEX
 8
13
 10
24.3179
 20
9.8005
 30
4
 70
192
 0
VERTEX
 8
13
 10
23.9846
 20
10.2346
 30
4
 70
192
 0
VERTEX
 8
13
 10
23.5505
 20
10.5679
 30
4
 70
192
 0
VERTEX
 8
13
 10
23.0445
 20
10.778
 30
4
 70
192
 0
VERTEX
 8
13
 10
22.5
 20
10.85
 30
4
 70
192
 0
VERTEX
 8
13
 10
21.9555
 20
10.778
 30
4
 70
192
 0
VERTEX
 8
13
 10
21.4495
 20
10.5679
 30
4
 70
192
 0
VERTEX
 8
13
 10
21.0154
 20
10.2346
 30
4
 70
192
 0
VERTEX
 8
13
 10
20.6821
 20
9.8005
 30
4
 70
192
 0
VERTEX
 8
13
 10
20.4721
 20
9.2952
 30
4
 70
192
 0
VERTEX
 8
13
 10
-20.4
 20
8.75
 30
4
 70
192
 0
VERTEX
 8
13
 10
-20.4
 20
8.75
 30
4
 70
192
 0
VERTEX
 8
13
 10
-20.4
 20
8.75
 30
4
 70
192
 0
VERTEX
 8
13
 10
-20.4721
 20
9.2952
 30
4
 70
192
 0
VERTEX
 8
13
 10
-20.4721
 20
9.2952
 30
4
 70
192
 0
VERTEX
 8
13
 10
-20.6821
 20
9.8005
 30
4
 70
192
 0
VERTEX
 8
13
 10
-20.6821
 20
9.8005
 30
4
 70
192
 0
VERTEX
 8
13
 10
-21.0154
 20
10.2346
 30
4
 70
192
 0
VERTEX
 8
13
 10
-21.0154
 20
10.2346
 30
4
 70
192
 0
VERTEX
 8
13
 10
-21.4495
 20
10.5679
 30
4
 70
192
 0
VERTEX
 8
13
 10
-21.4495
 20
10.5679
 30
4
 70
192
 0
VERTEX
 8
13
 10
-21.9555
 20
10.778
 30
4
 70
192
 0
VERTEX
 8
13
 10
-22.5
 20
10.85
 30
4
 70
192
 0
VERTEX
 8
13
 10
-23.0445
 20
10.778
 30
4
 70
192
 0
VERTEX
 8
13
 10
-23.5505
 20
10.5679
 30
4
 70
192
 0
VERTEX
 8
13
 10
-23.9846
 20
10.2346
 30
4
 70
192
 0
VERTEX
 8
13
 10
-24.3179
 20
9.8005
 30
4
 70
192
 0
VERTEX
 8
13
 10
-24.5279
 20
9.2952
 30
4
 70
192
 0
VERTEX
 8
13
 10
-24.6
 20
8.75
 30
4
 70
192
 0
VERTEX
 8
13
 10
-24.6
 20
8.75
 30
4
 70
192
 0
VERTEX
 8
13
 10
-24.5279
 20
8.2048
 30
4
 70
192
 0
VERTEX
 8
13
 10
-24.3179
 20
7.6995
 30
4
 70
192
 0
VERTEX
 8
13
 10
-23.9846
 20
7.2654
 30
4
 70
192
 0
VERTEX
 8
13
 10
-23.5505
 20
6.9321
 30
4
 70
192
 0
VERTEX
 8
13
 10
-23.0445
 20
6.722
 30
4
 70
192
 0
VERTEX
 8
13
 10
-22.5
 20
6.65
 30
4
 70
192
 0
VERTEX
 8
13
 10
-21.9555
 20
6.722
 30
4
 70
192
 0
VERTEX
 8
13
 10
-21.4495
 20
6.9321
 30
4
 70
192
 0
VERTEX
 8
13
 10
-21.0154
 20
7.2654
 30
4
 70
192
 0
VERTEX
 8
13
 10
-20.6821
 20
7.6995
 30
4
 70
192
 0
VERTEX
 8
13
 10
-20.4721
 20
8.2048
 30
4
 70
192
 0
VERTEX
 8
13
 10
-39.1954
 20
-12.9986
 30
7.2816
 70
192
 0
VERTEX
 8
13
 10
-38.7
 20
-12.5094
 30
6.2871
 70
192
 0
VERTEX
 8
13
 10
-38.7
 20
-12.5094
 30
6.2871
 70
192
 0
VERTEX
 8
13
 10
-38.3503
 20
-11.3749
 30
5.8102
 70
192
 0
VERTEX
 8
13
 10
-38.0901
 20
-10.2925
 30
5.5199
 70
192
 0
VERTEX
 8
13
 10
-37.9323
 20
-9.2586
 30
5.3642
 70
192
 0
VERTEX
 8
13
 10
-37.8795
 20
-8.25
 30
5.315
 70
192
 0
VERTEX
 8
13
 10
-37.8795
 20
-8.25
 30
5.315
 70
192
 0
VERTEX
 8
13
 10
-37.9323
 20
-7.2414
 30
5.3642
 70
192
 0
VERTEX
 8
13
 10
-37.9323
 20
-7.2414
 30
5.3642
 70
192
 0
VERTEX
 8
13
 10
-38.0901
 20
-6.2075
 30
5.5199
 70
192
 0
VERTEX
 8
13
 10
-38.0901
 20
-6.2075
 30
5.5199
 70
192
 0
VERTEX
 8
13
 10
-38.3503
 20
-5.125
 30
5.8102
 70
192
 0
VERTEX
 8
13
 10
-38.3503
 20
-5.125
 30
5.8102
 70
192
 0
VERTEX
 8
13
 10
-38.7
 20
-3.9906
 30
6.2871
 70
192
 0
VERTEX
 8
13
 10
-38.7
 20
-3.9906
 30
6.2871
 70
192
 0
VERTEX
 8
13
 10
-38.7
 20
-3.9906
 30
6.2871
 70
192
 0
VERTEX
 8
13
 10
-39.3109
 20
-3.3873
 30
7.6372
 70
192
 0
VERTEX
 8
13
 10
-39.3109
 20
-3.3873
 30
7.6372
 70
192
 0
VERTEX
 8
13
 10
-39.5
 20
-3.2
 30
9
 70
192
 0
VERTEX
 8
13
 10
-39.5
 20
-3.2
 30
9
 70
192
 0
VERTEX
 8
13
 10
-39.5
 20
-3.2
 30
9
 70
192
 0
VERTEX
 8
13
 10
-39.3109
 20
-3.3873
 30
10.3627
 70
192
 0
VERTEX
 8
13
 10
-39.3109
 20
-3.3873
 30
10.3627
 70
192
 0
VERTEX
 8
13
 10
-38.7
 20
-3.9906
 30
11.7129
 70
192
 0
VERTEX
 8
13
 10
-38.7
 20
-3.9906
 30
11.7129
 70
192
 0
VERTEX
 8
13
 10
-38.7
 20
-3.9906
 30
11.7129
 70
192
 0
VERTEX
 8
13
 10
-38.3483
 20
-5.1325
 30
12.1923
 70
192
 0
VERTEX
 8
13
 10
-38.3483
 20
-5.1325
 30
12.1923
 70
192
 0
VERTEX
 8
13
 10
-38.0875
 20
-6.2214
 30
12.4828
 70
192
 0
VERTEX
 8
13
 10
-38.0875
 20
-6.2214
 30
12.4828
 70
192
 0
VERTEX
 8
13
 10
-37.9312
 20
-7.2503
 30
12.6369
 70
192
 0
VERTEX
 8
13
 10
-37.9312
 20
-7.2503
 30
12.6369
 70
192
 0
VERTEX
 8
13
 10
-37.8795
 20
-8.2511
 30
12.6849
 70
192
 0
VERTEX
 8
13
 10
-37.8795
 20
-8.2511
 30
12.6849
 70
192
 0
VERTEX
 8
13
 10
-37.9315
 20
-9.2522
 30
12.6366
 70
192
 0
VERTEX
 8
13
 10
-38.088
 20
-10.281
 30
12.4823
 70
192
 0
VERTEX
 8
13
 10
-38.3487
 20
-11.3691
 30
12.1918
 70
192
 0
VERTEX
 8
13
 10
-38.7
 20
-12.5094
 30
11.7129
 70
192
 0
VERTEX
 8
13
 10
-38.7
 20
-12.5094
 30
11.7129
 70
192
 0
VERTEX
 8
13
 10
-39.1955
 20
-12.9987
 30
10.7182
 70
192
 0
VERTEX
 8
13
 10
-34.5
 20
4.0483
 30
14
 70
192
 0
VERTEX
 8
13
 10
-35.4755
 20
4.0483
 30
13.9039
 70
192
 0
VERTEX
 8
13
 10
-36.4134
 20
4.0483
 30
13.6194
 70
192
 0
VERTEX
 8
13
 10
-37.2779
 20
4.0483
 30
13.1573
 70
192
 0
VERTEX
 8
13
 10
-37.2779
 20
4.0483
 30
13.1573
 70
192
 0
VERTEX
 8
13
 10
-38.0355
 20
4.0483
 30
12.5355
 70
192
 0
VERTEX
 8
13
 10
-38.0355
 20
4.0483
 30
12.5355
 70
192
 0
VERTEX
 8
13
 10
-38.6573
 20
4.0483
 30
11.7779
 70
192
 0
VERTEX
 8
13
 10
-38.6573
 20
4.0483
 30
11.7779
 70
192
 0
VERTEX
 8
13
 10
-39.1194
 20
4.0483
 30
10.9134
 70
192
 0
VERTEX
 8
13
 10
-39.1194
 20
4.0483
 30
10.9134
 70
192
 0
VERTEX
 8
13
 10
-39.4039
 20
4.0483
 30
9.9755
 70
192
 0
VERTEX
 8
13
 10
-39.4039
 20
4.0483
 30
9.9755
 70
192
 0
VERTEX
 8
13
 10
-39.5
 20
4.0483
 30
9
 70
192
 0
VERTEX
 8
13
 10
-39.5
 20
4.0483
 30
9
 70
192
 0
VERTEX
 8
13
 10
-39.4039
 20
4.0483
 30
8.0245
 70
192
 0
VERTEX
 8
13
 10
-39.4039
 20
4.0483
 30
8.0245
 70
192
 0
VERTEX
 8
13
 10
-39.1194
 20
4.0483
 30
7.0866
 70
192
 0
VERTEX
 8
13
 10
-39.1194
 20
4.0483
 30
7.0866
 70
192
 0
VERTEX
 8
13
 10
-38.6573
 20
4.0483
 30
6.2221
 70
192
 0
VERTEX
 8
13
 10
-38.6573
 20
4.0483
 30
6.2221
 70
192
 0
VERTEX
 8
13
 10
-38.0355
 20
4.0483
 30
5.4645
 70
192
 0
VERTEX
 8
13
 10
-38.0355
 20
4.0483
 30
5.4645
 70
192
 0
VERTEX
 8
13
 10
-37.2779
 20
4.0483
 30
4.8427
 70
192
 0
VERTEX
 8
13
 10
-36.4134
 20
4.0483
 30
4.3806
 70
192
 0
VERTEX
 8
13
 10
-35.4755
 20
4.0483
 30
4.0961
 70
192
 0
VERTEX
 8
13
 10
-29.601
 20
16.71
 30
14
 70
192
 0
VERTEX
 8
13
 10
-29.601
 20
16.71
 30
14
 70
192
 0
VERTEX
 8
13
 10
-29.601
 20
5.25
 30
14
 70
192
 0
VERTEX
 8
13
 10
-29.601
 20
5.25
 30
14
 70
192
 0
VERTEX
 8
13
 10
-29.601
 20
5.25
 30
14
 70
192
 0
VERTEX
 8
13
 10
-32.1923
 20
4.3528
 30
14
 70
192
 0
VERTEX
 8
13
 10
-33.3517
 20
4.1265
 30
14
 70
192
 0
VERTEX
 8
13
 10
33.3517
 20
4.1265
 30
14
 70
192
 0
VERTEX
 8
13
 10
32.1923
 20
4.3528
 30
14
 70
192
 0
VERTEX
 8
13
 10
29.601
 20
5.25
 30
14
 70
192
 0
VERTEX
 8
13
 10
29.601
 20
5.25
 30
14
 70
192
 0
VERTEX
 8
13
 10
29.601
 20
16.71
 30
14
 70
192
 0
VERTEX
 8
13
 10
29.601
 20
16.71
 30
14
 70
192
 0
VERTEX
 8
13
 10
20.4
 20
8.75
 30
0.54
 70
192
 0
VERTEX
 8
13
 10
20.4
 20
8.75
 30
0.54
 70
192
 0
VERTEX
 8
13
 10
20.4717
 20
8.2058
 30
0.54
 70
192
 0
VERTEX
 8
13
 10
20.6818
 20
7.6994
 30
0.54
 70
192
 0
VERTEX
 8
13
 10
21.0157
 20
7.2647
 30
0.54
 70
192
 0
VERTEX
 8
13
 10
21.4507
 20
6.9313
 30
0.54
 70
192
 0
VERTEX
 8
13
 10
21.9569
 20
6.7218
 30
0.54
 70
192
 0
VERTEX
 8
13
 10
22.5
 20
6.6503
 30
0.54
 70
192
 0
VERTEX
 8
13
 10
23.0431
 20
6.7218
 30
0.54
 70
192
 0
VERTEX
 8
13
 10
23.5493
 20
6.9313
 30
0.54
 70
192
 0
VERTEX
 8
13
 10
23.9843
 20
7.2647
 30
0.54
 70
192
 0
VERTEX
 8
13
 10
24.3182
 20
7.6994
 30
0.54
 70
192
 0
VERTEX
 8
13
 10
24.5283
 20
8.2058
 30
0.54
 70
192
 0
VERTEX
 8
13
 10
24.6
 20
8.75
 30
0.54
 70
192
 0
VERTEX
 8
13
 10
24.6
 20
8.75
 30
0.54
 70
192
 0
VERTEX
 8
13
 10
24.5283
 20
9.2942
 30
0.54
 70
192
 0
VERTEX
 8
13
 10
24.3182
 20
9.8006
 30
0.54
 70
192
 0
VERTEX
 8
13
 10
23.9843
 20
10.2353
 30
0.54
 70
192
 0
VERTEX
 8
13
 10
23.5493
 20
10.5687
 30
0.54
 70
192
 0
VERTEX
 8
13
 10
23.0431
 20
10.7782
 30
0.54
 70
192
 0
VERTEX
 8
13
 10
22.5
 20
10.8497
 30
0.54
 70
192
 0
VERTEX
 8
13
 10
21.9569
 20
10.7782
 30
0.54
 70
192
 0
VERTEX
 8
13
 10
21.4507
 20
10.5687
 30
0.54
 70
192
 0
VERTEX
 8
13
 10
21.0157
 20
10.2353
 30
0.54
 70
192
 0
VERTEX
 8
13
 10
20.6818
 20
9.8006
 30
0.54
 70
192
 0
VERTEX
 8
13
 10
20.4717
 20
9.2942
 30
0.54
 70
192
 0
VERTEX
 8
13
 10
-20.4
 20
8.75
 30
0.54
 70
192
 0
VERTEX
 8
13
 10
-20.4
 20
8.75
 30
0.54
 70
192
 0
VERTEX
 8
13
 10
-24.6
 20
8.75
 30
0.54
 70
192
 0
VERTEX
 8
13
 10
-24.6
 20
8.75
 30
0.54
 70
192
 0
VERTEX
 8
13
 10
-24.5283
 20
8.2058
 30
0.54
 70
192
 0
VERTEX
 8
13
 10
-24.3182
 20
7.6994
 30
0.54
 70
192
 0
VERTEX
 8
13
 10
-23.9843
 20
7.2647
 30
0.54
 70
192
 0
VERTEX
 8
13
 10
-23.5493
 20
6.9313
 30
0.54
 70
192
 0
VERTEX
 8
13
 10
-23.0431
 20
6.7218
 30
0.54
 70
192
 0
VERTEX
 8
13
 10
-22.5
 20
6.6503
 30
0.54
 70
192
 0
VERTEX
 8
13
 10
-21.9569
 20
6.7218
 30
0.54
 70
192
 0
VERTEX
 8
13
 10
-21.4507
 20
6.9313
 30
0.54
 70
192
 0
VERTEX
 8
13
 10
-21.0157
 20
7.2647
 30
0.54
 70
192
 0
VERTEX
 8
13
 10
-20.6818
 20
7.6994
 30
0.54
 70
192
 0
VERTEX
 8
13
 10
-20.4717
 20
8.2058
 30
0.54
 70
192
 0
VERTEX
 8
13
 10
-20.4717
 20
9.2942
 30
0.54
 70
192
 0
VERTEX
 8
13
 10
-20.6818
 20
9.8006
 30
0.54
 70
192
 0
VERTEX
 8
13
 10
-21.0157
 20
10.2353
 30
0.54
 70
192
 0
VERTEX
 8
13
 10
-21.4507
 20
10.5687
 30
0.54
 70
192
 0
VERTEX
 8
13
 10
-21.9569
 20
10.7782
 30
0.54
 70
192
 0
VERTEX
 8
13
 10
-22.5
 20
10.8497
 30
0.54
 70
192
 0
VERTEX
 8
13
 10
-23.0431
 20
10.7782
 30
0.54
 70
192
 0
VERTEX
 8
13
 10
-23.5493
 20
10.5687
 30
0.54
 70
192
 0
VERTEX
 8
13
 10
-23.9843
 20
10.2353
 30
0.54
 70
192
 0
VERTEX
 8
13
 10
-24.3182
 20
9.8006
 30
0.54
 70
192
 0
VERTEX
 8
13
 10
-24.5283
 20
9.2942
 30
0.54
 70
192
 0
VERTEX
 8
13
 10
34.1267
 20
5.25
 30
15.99
 70
192
 0
VERTEX
 8
13
 10
31.6823
 20
5.25
 30
15.4079
 70
192
 0
VERTEX
 8
13
 10
31.6823
 20
5.25
 30
15.4079
 70
192
 0
VERTEX
 8
13
 10
31.6833
 20
16.71
 30
15.408
 70
192
 0
VERTEX
 8
13
 10
-31.6823
 20
5.25
 30
15.4079
 70
192
 0
VERTEX
 8
13
 10
-31.6823
 20
5.25
 30
15.4079
 70
192
 0
VERTEX
 8
13
 10
-34.1267
 20
5.25
 30
15.99
 70
192
 0
VERTEX
 8
13
 10
-36.6192
 20
5.25
 30
15.6715
 70
192
 0
VERTEX
 8
13
 10
-38.8386
 20
5.25
 30
14.4933
 70
192
 0
VERTEX
 8
13
 10
-40.499
 20
5.25
 30
12.6073
 70
192
 0
VERTEX
 8
13
 10
-41.3863
 20
5.25
 30
10.2564
 70
192
 0
VERTEX
 8
13
 10
-41.3863
 20
5.25
 30
7.7436
 70
192
 0
VERTEX
 8
13
 10
-40.499
 20
5.25
 30
5.3927
 70
192
 0
VERTEX
 8
13
 10
-38.8386
 20
5.25
 30
3.5067
 70
192
 0
VERTEX
 8
13
 10
-36.6192
 20
5.25
 30
2.3285
 70
192
 0
VERTEX
 8
13
 10
-31.6833
 20
16.71
 30
15.408
 70
192
 0
VERTEX
 8
13
 10
-38.7
 20
-11.1106
 30
4.8383
 70
192
 0
VERTEX
 8
13
 10
-38.7
 20
-11.1106
 30
4.8383
 70
192
 0
VERTEX
 8
13
 10
-38.7
 20
-9.2569
 30
4.0514
 70
192
 0
VERTEX
 8
13
 10
-38.7
 20
-7.2431
 30
4.0514
 70
192
 0
VERTEX
 8
13
 10
-38.7
 20
-5.3894
 30
4.8383
 70
192
 0
VERTEX
 8
13
 10
-38.7
 20
-5.3894
 30
4.8383
 70
192
 0
VERTEX
 8
13
 10
-53.2
 20
-13.3
 30
9
 70
192
 0
VERTEX
 8
13
 10
-53.2
 20
-12.9156
 30
7.0675
 70
192
 0
VERTEX
 8
13
 10
-53.2
 20
-11.8209
 30
5.4291
 70
192
 0
VERTEX
 8
13
 10
-53.2
 20
-4.6791
 30
5.4291
 70
192
 0
VERTEX
 8
13
 10
-53.2
 20
-3.5844
 30
7.0675
 70
192
 0
VERTEX
 8
13
 10
-47.35
 20
-3.4278
 30
7.5002
 70
192
 0
VERTEX
 8
13
 10
-46.6047
 20
-3.3707
 30
7.6983
 70
192
 0
VERTEX
 8
13
 10
-46.0494
 20
-3.2554
 30
8.254
 70
192
 0
VERTEX
 8
13
 10
-45.85
 20
-3.2
 30
9
 70
192
 0
VERTEX
 8
13
 10
-45.85
 20
-3.2
 30
9
 70
192
 0
VERTEX
 8
13
 10
-53.2
 20
-3.5844
 30
10.9325
 70
192
 0
VERTEX
 8
13
 10
-53.2
 20
-4.6791
 30
12.5709
 70
192
 0
VERTEX
 8
13
 10
-53.2
 20
-11.8209
 30
12.5709
 70
192
 0
VERTEX
 8
13
 10
-53.2
 20
-12.9156
 30
10.9325
 70
192
 0
VERTEX
 8
13
 10
-38.7
 20
-11.1106
 30
13.1617
 70
192
 0
VERTEX
 8
13
 10
-38.7
 20
-11.1106
 30
13.1617
 70
192
 0
VERTEX
 8
13
 10
-38.7
 20
-9.2569
 30
13.9486
 70
192
 0
VERTEX
 8
13
 10
-38.7
 20
-7.2431
 30
13.9486
 70
192
 0
VERTEX
 8
13
 10
-38.7
 20
-5.3894
 30
13.1617
 70
192
 0
VERTEX
 8
13
 10
-38.7
 20
-5.3894
 30
13.1617
 70
192
 0
VERTEX
 8
13
 10
-46.0494
 20
-3.2554
 30
9.746
 70
192
 0
VERTEX
 8
13
 10
-46.6047
 20
-3.3707
 30
10.3017
 70
192
 0
VERTEX
 8
13
 10
-47.35
 20
-3.4278
 30
10.4998
 70
192
 0
VERTEX
 8
13
 10
0
 20
0
 30
0
 70
128
 71
1
 72
4
 73
30
 74
30
 0
VERTEX
 8
13
 10
0
 20
0
 30
0
 70
128
 71
5
 72
2
 73
141
 74
141
 0
VERTEX
 8
13
 10
0
 20
0
 30
0
 70
128
 71
3
 72
29
 73
166
 74
166
 0
VERTEX
 8
13
 10
0
 20
0
 30
0
 70
128
 71
1
 72
30
 73
33
 74
33
 0
VERTEX
 8
13
 10
0
 20
0
 30
0
 70
128
 71
1
 72
33
 73
35
 74
35
 0
VERTEX
 8
13
 10
0
 20
0
 30
0
 70
128
 71
1
 72
35
 73
37
 74
37
 0
VERTEX
 8
13
 10
0
 20
0
 30
0
 70
128
 71
1
 72
37
 73
39
 74
39
 0
VERTEX
 8
13
 10
0
 20
0
 30
0
 70
128
 71
142
 72
3
 73
166
 74
166
 0
VERTEX
 8
13
 10
0
 20
0
 30
0
 70
128
 71
4
 72
6
 73
30
 74
30
 0
VERTEX
 8
13
 10
0
 20
0
 30
0
 70
128
 71
7
 72
5
 73
143
 74
143
 0
VERTEX
 8
13
 10
0
 20
0
 30
0
 70
128
 71
5
 72
141
 73
143
 74
143
 0
VERTEX
 8
13
 10
0
 20
0
 30
0
 70
128
 71
8
 72
7
 73
144
 74
144
 0
VERTEX
 8
13
 10
0
 20
0
 30
0
 70
128
 71
7
 72
143
 73
144
 74
144
 0
VERTEX
 8
13
 10
0
 20
0
 30
0
 70
128
 71
9
 72
8
 73
145
 74
145
 0
VERTEX
 8
13
 10
0
 20
0
 30
0
 70
128
 71
8
 72
144
 73
145
 74
145
 0
VERTEX
 8
13
 10
0
 20
0
 30
0
 70
128
 71
10
 72
9
 73
146
 74
146
 0
VERTEX
 8
13
 10
0
 20
0
 30
0
 70
128
 71
9
 72
145
 73
146
 74
146
 0
VERTEX
 8
13
 10
0
 20
0
 30
0
 70
128
 71
11
 72
10
 73
147
 74
147
 0
VERTEX
 8
13
 10
0
 20
0
 30
0
 70
128
 71
10
 72
146
 73
147
 74
147
 0
VERTEX
 8
13
 10
0
 20
0
 30
0
 70
128
 71
12
 72
11
 73
148
 74
148
 0
VERTEX
 8
13
 10
0
 20
0
 30
0
 70
128
 71
11
 72
147
 73
148
 74
148
 0
VERTEX
 8
13
 10
0
 20
0
 30
0
 70
128
 71
13
 72
12
 73
149
 74
149
 0
VERTEX
 8
13
 10
0
 20
0
 30
0
 70
128
 71
12
 72
148
 73
149
 74
149
 0
VERTEX
 8
13
 10
0
 20
0
 30
0
 70
128
 71
14
 72
13
 73
150
 74
150
 0
VERTEX
 8
13
 10
0
 20
0
 30
0
 70
128
 71
13
 72
149
 73
150
 74
150
 0
VERTEX
 8
13
 10
0
 20
0
 30
0
 70
128
 71
15
 72
14
 73
151
 74
151
 0
VERTEX
 8
13
 10
0
 20
0
 30
0
 70
128
 71
14
 72
150
 73
151
 74
151
 0
VERTEX
 8
13
 10
0
 20
0
 30
0
 70
128
 71
16
 72
15
 73
152
 74
152
 0
VERTEX
 8
13
 10
0
 20
0
 30
0
 70
128
 71
15
 72
151
 73
152
 74
152
 0
VERTEX
 8
13
 10
0
 20
0
 30
0
 70
128
 71
17
 72
16
 73
153
 74
153
 0
VERTEX
 8
13
 10
0
 20
0
 30
0
 70
128
 71
16
 72
152
 73
153
 74
153
 0
VERTEX
 8
13
 10
0
 20
0
 30
0
 70
128
 71
19
 72
18
 73
155
 74
155
 0
VERTEX
 8
13
 10
0
 20
0
 30
0
 70
128
 71
17
 72
153
 73
154
 74
154
 0
VERTEX
 8
13
 10
0
 20
0
 30
0
 70
128
 71
20
 72
19
 73
156
 74
156
 0
VERTEX
 8
13
 10
0
 20
0
 30
0
 70
128
 71
19
 72
155
 73
156
 74
156
 0
VERTEX
 8
13
 10
0
 20
0
 30
0
 70
128
 71
21
 72
20
 73
157
 74
157
 0
VERTEX
 8
13
 10
0
 20
0
 30
0
 70
128
 71
20
 72
156
 73
157
 74
157
 0
VERTEX
 8
13
 10
0
 20
0
 30
0
 70
128
 71
22
 72
21
 73
158
 74
158
 0
VERTEX
 8
13
 10
0
 20
0
 30
0
 70
128
 71
21
 72
157
 73
158
 74
158
 0
VERTEX
 8
13
 10
0
 20
0
 30
0
 70
128
 71
23
 72
22
 73
159
 74
159
 0
VERTEX
 8
13
 10
0
 20
0
 30
0
 70
128
 71
22
 72
158
 73
159
 74
159
 0
VERTEX
 8
13
 10
0
 20
0
 30
0
 70
128
 71
24
 72
23
 73
160
 74
160
 0
VERTEX
 8
13
 10
0
 20
0
 30
0
 70
128
 71
23
 72
159
 73
160
 74
160
 0
VERTEX
 8
13
 10
0
 20
0
 30
0
 70
128
 71
25
 72
24
 73
161
 74
161
 0
VERTEX
 8
13
 10
0
 20
0
 30
0
 70
128
 71
24
 72
160
 73
161
 74
161
 0
VERTEX
 8
13
 10
0
 20
0
 30
0
 70
128
 71
26
 72
25
 73
162
 74
162
 0
VERTEX
 8
13
 10
0
 20
0
 30
0
 70
128
 71
25
 72
161
 73
162
 74
162
 0
VERTEX
 8
13
 10
0
 20
0
 30
0
 70
128
 71
27
 72
26
 73
163
 74
163
 0
VERTEX
 8
13
 10
0
 20
0
 30
0
 70
128
 71
26
 72
162
 73
163
 74
163
 0
VERTEX
 8
13
 10
0
 20
0
 30
0
 70
128
 71
28
 72
27
 73
164
 74
164
 0
VERTEX
 8
13
 10
0
 20
0
 30
0
 70
128
 71
27
 72
163
 73
164
 74
164
 0
VERTEX
 8
13
 10
0
 20
0
 30
0
 70
128
 71
29
 72
28
 73
165
 74
165
 0
VERTEX
 8
13
 10
0
 20
0
 30
0
 70
128
 71
28
 72
164
 73
165
 74
165
 0
VERTEX
 8
13
 10
0
 20
0
 30
0
 70
128
 71
29
 72
165
 73
166
 74
166
 0
VERTEX
 8
13
 10
0
 20
0
 30
0
 70
128
 71
34
 72
32
 73
168
 74
168
 0
VERTEX
 8
13
 10
0
 20
0
 30
0
 70
128
 71
31
 72
60
 73
181
 74
181
 0
VERTEX
 8
13
 10
0
 20
0
 30
0
 70
128
 71
167
 72
31
 73
181
 74
181
 0
VERTEX
 8
13
 10
0
 20
0
 30
0
 70
128
 71
36
 72
34
 73
182
 74
182
 0
VERTEX
 8
13
 10
0
 20
0
 30
0
 70
128
 71
34
 72
168
 73
182
 74
182
 0
VERTEX
 8
13
 10
0
 20
0
 30
0
 70
128
 71
38
 72
36
 73
183
 74
183
 0
VERTEX
 8
13
 10
0
 20
0
 30
0
 70
128
 71
36
 72
182
 73
183
 74
183
 0
VERTEX
 8
13
 10
0
 20
0
 30
0
 70
128
 71
40
 72
38
 73
184
 74
184
 0
VERTEX
 8
13
 10
0
 20
0
 30
0
 70
128
 71
38
 72
183
 73
184
 74
184
 0
VERTEX
 8
13
 10
0
 20
0
 30
0
 70
128
 71
41
 72
40
 73
185
 74
185
 0
VERTEX
 8
13
 10
0
 20
0
 30
0
 70
128
 71
40
 72
184
 73
185
 74
185
 0
VERTEX
 8
13
 10
0
 20
0
 30
0
 70
128
 71
42
 72
41
 73
186
 74
186
 0
VERTEX
 8
13
 10
0
 20
0
 30
0
 70
128
 71
41
 72
185
 73
186
 74
186
 0
VERTEX
 8
13
 10
0
 20
0
 30
0
 70
128
 71
43
 72
42
 73
187
 74
187
 0
VERTEX
 8
13
 10
0
 20
0
 30
0
 70
128
 71
42
 72
186
 73
187
 74
187
 0
VERTEX
 8
13
 10
0
 20
0
 30
0
 70
128
 71
44
 72
43
 73
188
 74
188
 0
VERTEX
 8
13
 10
0
 20
0
 30
0
 70
128
 71
43
 72
187
 73
188
 74
188
 0
VERTEX
 8
13
 10
0
 20
0
 30
0
 70
128
 71
45
 72
44
 73
189
 74
189
 0
VERTEX
 8
13
 10
0
 20
0
 30
0
 70
128
 71
44
 72
188
 73
189
 74
189
 0
VERTEX
 8
13
 10
0
 20
0
 30
0
 70
128
 71
46
 72
45
 73
190
 74
190
 0
VERTEX
 8
13
 10
0
 20
0
 30
0
 70
128
 71
45
 72
189
 73
190
 74
190
 0
VERTEX
 8
13
 10
0
 20
0
 30
0
 70
128
 71
47
 72
46
 73
191
 74
191
 0
VERTEX
 8
13
 10
0
 20
0
 30
0
 70
128
 71
46
 72
190
 73
191
 74
191
 0
VERTEX
 8
13
 10
0
 20
0
 30
0
 70
128
 71
49
 72
47
 73
192
 74
192
 0
VERTEX
 8
13
 10
0
 20
0
 30
0
 70
128
 71
47
 72
191
 73
192
 74
192
 0
VERTEX
 8
13
 10
0
 20
0
 30
0
 70
128
 71
50
 72
48
 73
169
 74
169
 0
VERTEX
 8
13
 10
0
 20
0
 30
0
 70
128
 71
170
 72
49
 73
192
 74
192
 0
VERTEX
 8
13
 10
0
 20
0
 30
0
 70
128
 71
51
 72
50
 73
171
 74
171
 0
VERTEX
 8
13
 10
0
 20
0
 30
0
 70
128
 71
50
 72
169
 73
171
 74
171
 0
VERTEX
 8
13
 10
0
 20
0
 30
0
 70
128
 71
52
 72
51
 73
172
 74
172
 0
VERTEX
 8
13
 10
0
 20
0
 30
0
 70
128
 71
51
 72
171
 73
172
 74
172
 0
VERTEX
 8
13
 10
0
 20
0
 30
0
 70
128
 71
53
 72
52
 73
173
 74
173
 0
VERTEX
 8
13
 10
0
 20
0
 30
0
 70
128
 71
52
 72
172
 73
173
 74
173
 0
VERTEX
 8
13
 10
0
 20
0
 30
0
 70
128
 71
54
 72
53
 73
174
 74
174
 0
VERTEX
 8
13
 10
0
 20
0
 30
0
 70
128
 71
53
 72
173
 73
174
 74
174
 0
VERTEX
 8
13
 10
0
 20
0
 30
0
 70
128
 71
55
 72
54
 73
175
 74
175
 0
VERTEX
 8
13
 10
0
 20
0
 30
0
 70
128
 71
54
 72
174
 73
175
 74
175
 0
VERTEX
 8
13
 10
0
 20
0
 30
0
 70
128
 71
56
 72
55
 73
176
 74
176
 0
VERTEX
 8
13
 10
0
 20
0
 30
0
 70
128
 71
55
 72
175
 73
176
 74
176
 0
VERTEX
 8
13
 10
0
 20
0
 30
0
 70
128
 71
57
 72
56
 73
177
 74
177
 0
VERTEX
 8
13
 10
0
 20
0
 30
0
 70
128
 71
56
 72
176
 73
177
 74
177
 0
VERTEX
 8
13
 10
0
 20
0
 30
0
 70
128
 71
58
 72
57
 73
178
 74
178
 0
VERTEX
 8
13
 10
0
 20
0
 30
0
 70
128
 71
57
 72
177
 73
178
 74
178
 0
VERTEX
 8
13
 10
0
 20
0
 30
0
 70
128
 71
59
 72
58
 73
179
 74
179
 0
VERTEX
 8
13
 10
0
 20
0
 30
0
 70
128
 71
58
 72
178
 73
179
 74
179
 0
VERTEX
 8
13
 10
0
 20
0
 30
0
 70
128
 71
60
 72
59
 73
180
 74
180
 0
VERTEX
 8
13
 10
0
 20
0
 30
0
 70
128
 71
59
 72
179
 73
180
 74
180
 0
VERTEX
 8
13
 10
0
 20
0
 30
0
 70
128
 71
60
 72
180
 73
181
 74
181
 0
VERTEX
 8
13
 10
0
 20
0
 30
0
 70
128
 71
63
 72
61
 73
216
 74
216
 0
VERTEX
 8
13
 10
0
 20
0
 30
0
 70
128
 71
61
 72
215
 73
216
 74
216
 0
VERTEX
 8
13
 10
0
 20
0
 30
0
 70
128
 71
64
 72
62
 73
209
 74
209
 0
VERTEX
 8
13
 10
0
 20
0
 30
0
 70
128
 71
210
 72
63
 73
217
 74
217
 0
VERTEX
 8
13
 10
0
 20
0
 30
0
 70
128
 71
63
 72
216
 73
217
 74
217
 0
VERTEX
 8
13
 10
0
 20
0
 30
0
 70
128
 71
65
 72
64
 73
209
 74
209
 0
VERTEX
 8
13
 10
0
 20
0
 30
0
 70
128
 71
66
 72
65
 73
209
 74
209
 0
VERTEX
 8
13
 10
0
 20
0
 30
0
 70
128
 71
68
 72
66
 73
211
 74
211
 0
VERTEX
 8
13
 10
0
 20
0
 30
0
 70
128
 71
66
 72
209
 73
211
 74
211
 0
VERTEX
 8
13
 10
0
 20
0
 30
0
 70
128
 71
67
 72
69
 73
123
 74
123
 0
VERTEX
 8
13
 10
0
 20
0
 30
0
 70
128
 71
70
 72
68
 73
212
 74
212
 0
VERTEX
 8
13
 10
0
 20
0
 30
0
 70
128
 71
68
 72
211
 73
212
 74
212
 0
VERTEX
 8
13
 10
0
 20
0
 30
0
 70
128
 71
69
 72
71
 73
123
 74
123
 0
VERTEX
 8
13
 10
0
 20
0
 30
0
 70
128
 71
72
 72
70
 73
212
 74
212
 0
VERTEX
 8
13
 10
0
 20
0
 30
0
 70
128
 71
71
 72
73
 73
121
 74
121
 0
VERTEX
 8
13
 10
0
 20
0
 30
0
 70
128
 71
74
 72
72
 73
213
 74
213
 0
VERTEX
 8
13
 10
0
 20
0
 30
0
 70
128
 71
71
 72
121
 73
123
 74
123
 0
VERTEX
 8
13
 10
0
 20
0
 30
0
 70
128
 71
72
 72
212
 73
213
 74
213
 0
VERTEX
 8
13
 10
0
 20
0
 30
0
 70
128
 71
73
 72
75
 73
121
 74
121
 0
VERTEX
 8
13
 10
0
 20
0
 30
0
 70
128
 71
76
 72
74
 73
213
 74
213
 0
VERTEX
 8
13
 10
0
 20
0
 30
0
 70
128
 71
75
 72
78
 73
119
 74
119
 0
VERTEX
 8
13
 10
0
 20
0
 30
0
 70
128
 71
79
 72
77
 73
219
 74
219
 0
VERTEX
 8
13
 10
0
 20
0
 30
0
 70
128
 71
75
 72
119
 73
121
 74
121
 0
VERTEX
 8
13
 10
0
 20
0
 30
0
 70
128
 71
77
 72
214
 73
218
 74
218
 0
VERTEX
 8
13
 10
0
 20
0
 30
0
 70
128
 71
77
 72
218
 73
219
 74
219
 0
VERTEX
 8
13
 10
0
 20
0
 30
0
 70
128
 71
78
 72
80
 73
115
 74
115
 0
VERTEX
 8
13
 10
0
 20
0
 30
0
 70
128
 71
81
 72
79
 73
221
 74
221
 0
VERTEX
 8
13
 10
0
 20
0
 30
0
 70
128
 71
78
 72
115
 73
117
 74
117
 0
VERTEX
 8
13
 10
0
 20
0
 30
0
 70
128
 71
78
 72
117
 73
119
 74
119
 0
VERTEX
 8
13
 10
0
 20
0
 30
0
 70
128
 71
79
 72
219
 73
220
 74
220
 0
VERTEX
 8
13
 10
0
 20
0
 30
0
 70
128
 71
79
 72
220
 73
221
 74
221
 0
VERTEX
 8
13
 10
0
 20
0
 30
0
 70
128
 71
80
 72
83
 73
113
 74
113
 0
VERTEX
 8
13
 10
0
 20
0
 30
0
 70
128
 71
84
 72
82
 73
224
 74
224
 0
VERTEX
 8
13
 10
0
 20
0
 30
0
 70
128
 71
80
 72
113
 73
115
 74
115
 0
VERTEX
 8
13
 10
0
 20
0
 30
0
 70
128
 71
81
 72
221
 73
222
 74
222
 0
VERTEX
 8
13
 10
0
 20
0
 30
0
 70
128
 71
81
 72
222
 73
223
 74
223
 0
VERTEX
 8
13
 10
0
 20
0
 30
0
 70
128
 71
83
 72
85
 73
111
 74
111
 0
VERTEX
 8
13
 10
0
 20
0
 30
0
 70
128
 71
86
 72
84
 73
237
 74
237
 0
VERTEX
 8
13
 10
0
 20
0
 30
0
 70
128
 71
83
 72
111
 73
113
 74
113
 0
VERTEX
 8
13
 10
0
 20
0
 30
0
 70
128
 71
84
 72
224
 73
235
 74
235
 0
VERTEX
 8
13
 10
0
 20
0
 30
0
 70
128
 71
84
 72
235
 73
236
 74
236
 0
VERTEX
 8
13
 10
0
 20
0
 30
0
 70
128
 71
84
 72
236
 73
237
 74
237
 0
VERTEX
 8
13
 10
0
 20
0
 30
0
 70
128
 71
85
 72
88
 73
109
 74
109
 0
VERTEX
 8
13
 10
0
 20
0
 30
0
 70
128
 71
89
 72
87
 73
234
 74
234
 0
VERTEX
 8
13
 10
0
 20
0
 30
0
 70
128
 71
85
 72
109
 73
111
 74
111
 0
VERTEX
 8
13
 10
0
 20
0
 30
0
 70
128
 71
86
 72
225
 73
226
 74
226
 0
VERTEX
 8
13
 10
0
 20
0
 30
0
 70
128
 71
225
 72
86
 73
237
 74
237
 0
VERTEX
 8
13
 10
0
 20
0
 30
0
 70
128
 71
86
 72
226
 73
233
 74
233
 0
VERTEX
 8
13
 10
0
 20
0
 30
0
 70
128
 71
88
 72
90
 73
107
 74
107
 0
VERTEX
 8
13
 10
0
 20
0
 30
0
 70
128
 71
91
 72
89
 73
234
 74
234
 0
VERTEX
 8
13
 10
0
 20
0
 30
0
 70
128
 71
88
 72
107
 73
109
 74
109
 0
VERTEX
 8
13
 10
0
 20
0
 30
0
 70
128
 71
90
 72
92
 73
107
 74
107
 0
VERTEX
 8
13
 10
0
 20
0
 30
0
 70
128
 71
93
 72
91
 73
234
 74
234
 0
VERTEX
 8
13
 10
0
 20
0
 30
0
 70
128
 71
92
 72
94
 73
105
 74
105
 0
VERTEX
 8
13
 10
0
 20
0
 30
0
 70
128
 71
95
 72
93
 73
232
 74
232
 0
VERTEX
 8
13
 10
0
 20
0
 30
0
 70
128
 71
92
 72
105
 73
107
 74
107
 0
VERTEX
 8
13
 10
0
 20
0
 30
0
 70
128
 71
232
 72
93
 73
234
 74
234
 0
VERTEX
 8
13
 10
0
 20
0
 30
0
 70
128
 71
96
 72
95
 73
231
 74
231
 0
VERTEX
 8
13
 10
0
 20
0
 30
0
 70
128
 71
231
 72
95
 73
232
 74
232
 0
VERTEX
 8
13
 10
0
 20
0
 30
0
 70
128
 71
97
 72
96
 73
231
 74
231
 0
VERTEX
 8
13
 10
0
 20
0
 30
0
 70
128
 71
98
 72
97
 73
230
 74
230
 0
VERTEX
 8
13
 10
0
 20
0
 30
0
 70
128
 71
230
 72
97
 73
231
 74
231
 0
VERTEX
 8
13
 10
0
 20
0
 30
0
 70
128
 71
100
 72
98
 73
230
 74
230
 0
VERTEX
 8
13
 10
0
 20
0
 30
0
 70
128
 71
101
 72
99
 73
228
 74
228
 0
VERTEX
 8
13
 10
0
 20
0
 30
0
 70
128
 71
99
 72
227
 73
228
 74
228
 0
VERTEX
 8
13
 10
0
 20
0
 30
0
 70
128
 71
227
 72
99
 73
229
 74
229
 0
VERTEX
 8
13
 10
0
 20
0
 30
0
 70
128
 71
103
 72
102
 73
199
 74
199
 0
VERTEX
 8
13
 10
0
 20
0
 30
0
 70
128
 71
102
 72
134
 73
199
 74
199
 0
VERTEX
 8
13
 10
0
 20
0
 30
0
 70
128
 71
104
 72
103
 73
200
 74
200
 0
VERTEX
 8
13
 10
0
 20
0
 30
0
 70
128
 71
103
 72
199
 73
200
 74
200
 0
VERTEX
 8
13
 10
0
 20
0
 30
0
 70
128
 71
106
 72
104
 73
200
 74
200
 0
VERTEX
 8
13
 10
0
 20
0
 30
0
 70
128
 71
108
 72
106
 73
201
 74
201
 0
VERTEX
 8
13
 10
0
 20
0
 30
0
 70
128
 71
106
 72
200
 73
201
 74
201
 0
VERTEX
 8
13
 10
0
 20
0
 30
0
 70
128
 71
110
 72
108
 73
201
 74
201
 0
VERTEX
 8
13
 10
0
 20
0
 30
0
 70
128
 71
112
 72
110
 73
202
 74
202
 0
VERTEX
 8
13
 10
0
 20
0
 30
0
 70
128
 71
110
 72
201
 73
202
 74
202
 0
VERTEX
 8
13
 10
0
 20
0
 30
0
 70
128
 71
114
 72
112
 73
202
 74
202
 0
VERTEX
 8
13
 10
0
 20
0
 30
0
 70
128
 71
116
 72
114
 73
203
 74
203
 0
VERTEX
 8
13
 10
0
 20
0
 30
0
 70
128
 71
114
 72
202
 73
203
 74
203
 0
VERTEX
 8
13
 10
0
 20
0
 30
0
 70
128
 71
118
 72
116
 73
204
 74
204
 0
VERTEX
 8
13
 10
0
 20
0
 30
0
 70
128
 71
116
 72
203
 73
204
 74
204
 0
VERTEX
 8
13
 10
0
 20
0
 30
0
 70
128
 71
120
 72
118
 73
204
 74
204
 0
VERTEX
 8
13
 10
0
 20
0
 30
0
 70
128
 71
122
 72
120
 73
205
 74
205
 0
VERTEX
 8
13
 10
0
 20
0
 30
0
 70
128
 71
120
 72
204
 73
205
 74
205
 0
VERTEX
 8
13
 10
0
 20
0
 30
0
 70
128
 71
124
 72
122
 73
205
 74
205
 0
VERTEX
 8
13
 10
0
 20
0
 30
0
 70
128
 71
125
 72
124
 73
206
 74
206
 0
VERTEX
 8
13
 10
0
 20
0
 30
0
 70
128
 71
124
 72
205
 73
206
 74
206
 0
VERTEX
 8
13
 10
0
 20
0
 30
0
 70
128
 71
126
 72
125
 73
206
 74
206
 0
VERTEX
 8
13
 10
0
 20
0
 30
0
 70
128
 71
127
 72
126
 73
207
 74
207
 0
VERTEX
 8
13
 10
0
 20
0
 30
0
 70
128
 71
126
 72
206
 73
207
 74
207
 0
VERTEX
 8
13
 10
0
 20
0
 30
0
 70
128
 71
128
 72
130
 73
139
 74
139
 0
VERTEX
 8
13
 10
0
 20
0
 30
0
 70
128
 71
132
 72
129
 73
198
 74
198
 0
VERTEX
 8
13
 10
0
 20
0
 30
0
 70
128
 71
198
 72
129
 73
208
 74
208
 0
VERTEX
 8
13
 10
0
 20
0
 30
0
 70
128
 71
133
 72
131
 73
197
 74
197
 0
VERTEX
 8
13
 10
0
 20
0
 30
0
 70
128
 71
134
 72
133
 73
197
 74
197
 0
VERTEX
 8
13
 10
0
 20
0
 30
0
 70
128
 71
134
 72
197
 73
199
 74
199
 0
VERTEX
 8
13
 10
0
 20
0
 30
0
 70
128
 71
136
 72
135
 73
194
 74
194
 0
VERTEX
 8
13
 10
0
 20
0
 30
0
 70
128
 71
135
 72
193
 73
194
 74
194
 0
VERTEX
 8
13
 10
0
 20
0
 30
0
 70
128
 71
137
 72
136
 73
194
 74
194
 0
VERTEX
 8
13
 10
0
 20
0
 30
0
 70
128
 71
140
 72
138
 73
196
 74
196
 0
VERTEX
 8
13
 10
0
 20
0
 30
0
 70
128
 71
138
 72
195
 73
196
 74
196
 0
SEQEND
 0
POLYLINE
 8
12
 66
1
 10
0.0
 20
0.0
 30
0.0
 70
64
 71
4
 72
2
 0
VERTEX
 8
12
 10
-29.601
 20
16.71
 30
4
 70
192
 0
VERTEX
 8
12
 10
-29.601
 20
16.71
 30
14
 70
192
 0
VERTEX
 8
12
 10
-31.6833
 20
16.71
 30
15.408
 70
192
 0
VERTEX
 8
12
 10
-31.6833
 20
16.71
 30
2.592
 70
192
 0
VERTEX
 8
12
 10
0
 20
0
 30
0
 70
128
 71
2
 72
1
 73
3
 74
3
 0
VERTEX
 8
12
 10
0
 20
0
 30
0
 70
128
 71
3
 72
1
 73
4
 74
4
 0
SEQEND
 0
POLYLINE
 8
11
 66
1
 10
0.0
 20
0.0
 30
0.0
 70
64
 71
48
 72
36
 0
VERTEX
 8
11
 10
29.601
 20
16.71
 30
4
 70
192
 0
VERTEX
 8
11
 10
29.601
 20
5.25
 30
4
 70
192
 0
VERTEX
 8
11
 10
29.601
 20
5.25
 30
4
 70
192
 0
VERTEX
 8
11
 10
32.1693
 20
4.3586
 30
4
 70
192
 0
VERTEX
 8
11
 10
33.3344
 20
4.1288
 30
4
 70
192
 0
VERTEX
 8
11
 10
-34.5
 20
4.0483
 30
4
 70
192
 0
VERTEX
 8
11
 10
-33.3344
 20
4.1288
 30
4
 70
192
 0
VERTEX
 8
11
 10
-32.1693
 20
4.3586
 30
4
 70
192
 0
VERTEX
 8
11
 10
-29.601
 20
5.25
 30
4
 70
192
 0
VERTEX
 8
11
 10
-29.601
 20
5.25
 30
4
 70
192
 0
VERTEX
 8
11
 10
-29.601
 20
5.25
 30
4
 70
192
 0
VERTEX
 8
11
 10
-29.601
 20
16.71
 30
4
 70
192
 0
VERTEX
 8
11
 10
-29.601
 20
16.71
 30
4
 70
192
 0
VERTEX
 8
11
 10
20.4
 20
8.75
 30
4
 70
192
 0
VERTEX
 8
11
 10
24.6
 20
8.75
 30
4
 70
192
 0
VERTEX
 8
11
 10
24.5279
 20
9.2952
 30
4
 70
192
 0
VERTEX
 8
11
 10
24.3179
 20
9.8005
 30
4
 70
192
 0
VERTEX
 8
11
 10
23.9846
 20
10.2346
 30
4
 70
192
 0
VERTEX
 8
11
 10
22.5
 20
10.85
 30
4
 70
192
 0
VERTEX
 8
11
 10
21.9555
 20
10.778
 30
4
 70
192
 0
VERTEX
 8
11
 10
21.4495
 20
10.5679
 30
4
 70
192
 0
VERTEX
 8
11
 10
21.0154
 20
10.2346
 30
4
 70
192
 0
VERTEX
 8
11
 10
20.6821
 20
9.8005
 30
4
 70
192
 0
VERTEX
 8
11
 10
20.4721
 20
9.2952
 30
4
 70
192
 0
VERTEX
 8
11
 10
-21.4495
 20
10.5679
 30
4
 70
192
 0
VERTEX
 8
11
 10
-21.9555
 20
10.778
 30
4
 70
192
 0
VERTEX
 8
11
 10
-22.5
 20
10.85
 30
4
 70
192
 0
VERTEX
 8
11
 10
-23.0445
 20
10.778
 30
4
 70
192
 0
VERTEX
 8
11
 10
-23.5505
 20
10.5679
 30
4
 70
192
 0
VERTEX
 8
11
 10
-23.9846
 20
10.2346
 30
4
 70
192
 0
VERTEX
 8
11
 10
-24.3179
 20
9.8005
 30
4
 70
192
 0
VERTEX
 8
11
 10
-24.5279
 20
9.2952
 30
4
 70
192
 0
VERTEX
 8
11
 10
-24.6
 20
8.75
 30
4
 70
192
 0
VERTEX
 8
11
 10
-24.5279
 20
8.2048
 30
4
 70
192
 0
VERTEX
 8
11
 10
-24.3179
 20
7.6995
 30
4
 70
192
 0
VERTEX
 8
11
 10
-23.9846
 20
7.2654
 30
4
 70
192
 0
VERTEX
 8
11
 10
-23.5505
 20
6.9321
 30
4
 70
192
 0
VERTEX
 8
11
 10
-23.0445
 20
6.722
 30
4
 70
192
 0
VERTEX
 8
11
 10
-35.4755
 20
4.0483
 30
4.0961
 70
192
 0
VERTEX
 8
11
 10
31.6823
 20
5.25
 30
2.5921
 70
192
 0
VERTEX
 8
11
 10
31.6823
 20
5.25
 30
2.5921
 70
192
 0
VERTEX
 8
11
 10
34.1267
 20
5.25
 30
2.01
 70
192
 0
VERTEX
 8
11
 10
31.6833
 20
16.71
 30
2.592
 70
192
 0
VERTEX
 8
11
 10
-36.6192
 20
5.25
 30
2.3285
 70
192
 0
VERTEX
 8
11
 10
-34.1267
 20
5.25
 30
2.01
 70
192
 0
VERTEX
 8
11
 10
-31.6823
 20
5.25
 30
2.5921
 70
192
 0
VERTEX
 8
11
 10
-31.6823
 20
5.25
 30
2.5921
 70
192
 0
VERTEX
 8
11
 10
-31.6833
 20
16.71
 30
2.592
 70
192
 0
VERTEX
 8
11
 10
0
 20
0
 30
0
 70
128
 71
41
 72
1
 73
43
 74
43
 0
VERTEX
 8
11
 10
0
 20
0
 30
0
 70
128
 71
4
 72
3
 73
40
 74
40
 0
VERTEX
 8
11
 10
0
 20
0
 30
0
 70
128
 71
2
 72
15
 73
16
 74
16
 0
VERTEX
 8
11
 10
0
 20
0
 30
0
 70
128
 71
2
 72
16
 73
17
 74
17
 0
VERTEX
 8
11
 10
0
 20
0
 30
0
 70
128
 71
2
 72
17
 73
18
 74
18
 0
VERTEX
 8
11
 10
0
 20
0
 30
0
 70
128
 71
5
 72
4
 73
40
 74
40
 0
VERTEX
 8
11
 10
0
 20
0
 30
0
 70
128
 71
5
 72
40
 73
42
 74
42
 0
VERTEX
 8
11
 10
0
 20
0
 30
0
 70
128
 71
7
 72
6
 73
45
 74
45
 0
VERTEX
 8
11
 10
0
 20
0
 30
0
 70
128
 71
6
 72
39
 73
44
 74
44
 0
VERTEX
 8
11
 10
0
 20
0
 30
0
 70
128
 71
6
 72
44
 73
45
 74
45
 0
VERTEX
 8
11
 10
0
 20
0
 30
0
 70
128
 71
8
 72
7
 73
46
 74
46
 0
VERTEX
 8
11
 10
0
 20
0
 30
0
 70
128
 71
7
 72
45
 73
46
 74
46
 0
VERTEX
 8
11
 10
0
 20
0
 30
0
 70
128
 71
10
 72
8
 73
46
 74
46
 0
VERTEX
 8
11
 10
0
 20
0
 30
0
 70
128
 71
9
 72
12
 73
35
 74
35
 0
VERTEX
 8
11
 10
0
 20
0
 30
0
 70
128
 71
13
 72
11
 73
48
 74
48
 0
VERTEX
 8
11
 10
0
 20
0
 30
0
 70
128
 71
9
 72
35
 73
36
 74
36
 0
VERTEX
 8
11
 10
0
 20
0
 30
0
 70
128
 71
9
 72
36
 73
37
 74
37
 0
VERTEX
 8
11
 10
0
 20
0
 30
0
 70
128
 71
9
 72
37
 73
38
 74
38
 0
VERTEX
 8
11
 10
0
 20
0
 30
0
 70
128
 71
11
 72
47
 73
48
 74
48
 0
VERTEX
 8
11
 10
0
 20
0
 30
0
 70
128
 71
14
 72
12
 73
24
 74
24
 0
VERTEX
 8
11
 10
0
 20
0
 30
0
 70
128
 71
12
 72
14
 73
25
 74
25
 0
VERTEX
 8
11
 10
0
 20
0
 30
0
 70
128
 71
12
 72
19
 73
20
 74
20
 0
VERTEX
 8
11
 10
0
 20
0
 30
0
 70
128
 71
12
 72
20
 73
21
 74
21
 0
VERTEX
 8
11
 10
0
 20
0
 30
0
 70
128
 71
12
 72
21
 73
22
 74
22
 0
VERTEX
 8
11
 10
0
 20
0
 30
0
 70
128
 71
12
 72
22
 73
23
 74
23
 0
VERTEX
 8
11
 10
0
 20
0
 30
0
 70
128
 71
12
 72
23
 73
24
 74
24
 0
VERTEX
 8
11
 10
0
 20
0
 30
0
 70
128
 71
12
 72
25
 73
26
 74
26
 0
VERTEX
 8
11
 10
0
 20
0
 30
0
 70
128
 71
12
 72
26
 73
27
 74
27
 0
VERTEX
 8
11
 10
0
 20
0
 30
0
 70
128
 71
12
 72
27
 73
28
 74
28
 0
VERTEX
 8
11
 10
0
 20
0
 30
0
 70
128
 71
12
 72
28
 73
29
 74
29
 0
VERTEX
 8
11
 10
0
 20
0
 30
0
 70
128
 71
12
 72
29
 73
30
 74
30
 0
VERTEX
 8
11
 10
0
 20
0
 30
0
 70
128
 71
12
 72
30
 73
31
 74
31
 0
VERTEX
 8
11
 10
0
 20
0
 30
0
 70
128
 71
12
 72
31
 73
32
 74
32
 0
VERTEX
 8
11
 10
0
 20
0
 30
0
 70
128
 71
12
 72
32
 73
33
 74
33
 0
VERTEX
 8
11
 10
0
 20
0
 30
0
 70
128
 71
12
 72
33
 73
34
 74
34
 0
VERTEX
 8
11
 10
0
 20
0
 30
0
 70
128
 71
12
 72
34
 73
35
 74
35
 0
SEQEND
 0
POLYLINE
 8
10
 66
1
 10
0.0
 20
0.0
 30
0.0
 70
64
 71
4
 72
2
 0
VERTEX
 8
10
 10
29.601
 20
16.71
 30
4
 70
192
 0
VERTEX
 8
10
 10
-29.601
 20
16.71
 30
14
 70
192
 0
VERTEX
 8
10
 10
29.601
 20
16.71
 30
14
 70
192
 0
VERTEX
 8
10
 10
31.6833
 20
16.71
 30
2.592
 70
192
 0
VERTEX
 8
10
 10
0
 20
0
 30
0
 70
128
 71
1
 72
2
 73
3
 74
3
 0
VERTEX
 8
10
 10
0
 20
0
 30
0
 70
128
 71
1
 72
3
 73
4
 74
4
 0
SEQEND
 0
POLYLINE
 8
9
 66
1
 10
0.0
 20
0.0
 30
0.0
 70
64
 71
5
 72
3
 0
VERTEX
 8
9
 10
29.601
 20
16.71
 30
4
 70
192
 0
VERTEX
 8
9
 10
23.9846
 20
10.2346
 30
4
 70
192
 0
VERTEX
 8
9
 10
23.5505
 20
10.5679
 30
4
 70
192
 0
VERTEX
 8
9
 10
23.0445
 20
10.778
 30
4
 70
192
 0
VERTEX
 8
9
 10
22.5
 20
10.85
 30
4
 70
192
 0
VERTEX
 8
9
 10
0
 20
0
 30
0
 70
128
 71
1
 72
2
 73
3
 74
3
 0
VERTEX
 8
9
 10
0
 20
0
 30
0
 70
128
 71
1
 72
3
 73
4
 74
4
 0
VERTEX
 8
9
 10
0
 20
0
 30
0
 70
128
 71
1
 72
4
 73
5
 74
5
 0
SEQEND
 0
POLYLINE
 8
8
 66
1
 10
0.0
 20
0.0
 30
0.0
 70
64
 71
3
 72
1
 0
VERTEX
 8
8
 10
29.601
 20
16.71
 30
4
 70
192
 0
VERTEX
 8
8
 10
-29.601
 20
16.71
 30
4
 70
192
 0
VERTEX
 8
8
 10
-29.601
 20
16.71
 30
14
 70
192
 0
VERTEX
 8
8
 10
0
 20
0
 30
0
 70
128
 71
1
 72
2
 73
3
 74
3
 0
SEQEND
 0
POLYLINE
 8
7
 66
1
 10
0.0
 20
0.0
 30
0.0
 70
64
 71
402
 72
350
 0
VERTEX
 8
7
 10
-48.85
 20
-0.35
 30
9
 70
192
 0
VERTEX
 8
7
 10
-48.85
 20
-0.35
 30
9
 70
192
 0
VERTEX
 8
7
 10
-48.85
 20
-0.35
 30
9
 70
192
 0
VERTEX
 8
7
 10
-48.85
 20
-0.35
 30
9
 70
192
 0
VERTEX
 8
7
 10
-49.45
 20
0.25
 30
9
 70
192
 0
VERTEX
 8
7
 10
-49.45
 20
0.25
 30
9
 70
192
 0
VERTEX
 8
7
 10
-49.2419
 20
0.25
 30
8.0886
 70
192
 0
VERTEX
 8
7
 10
-48.6591
 20
0.25
 30
7.358
 70
192
 0
VERTEX
 8
7
 10
-47.8172
 20
0.25
 30
6.9526
 70
192
 0
VERTEX
 8
7
 10
-46.8828
 20
0.25
 30
6.9526
 70
192
 0
VERTEX
 8
7
 10
-46.0409
 20
0.25
 30
7.358
 70
192
 0
VERTEX
 8
7
 10
-45.4581
 20
0.25
 30
8.0886
 70
192
 0
VERTEX
 8
7
 10
-45.25
 20
0.25
 30
9
 70
192
 0
VERTEX
 8
7
 10
-45.25
 20
0.25
 30
9
 70
192
 0
VERTEX
 8
7
 10
-45.85
 20
-0.35
 30
9
 70
192
 0
VERTEX
 8
7
 10
-45.85
 20
-0.35
 30
9
 70
192
 0
VERTEX
 8
7
 10
-45.85
 20
-0.35
 30
9
 70
192
 0
VERTEX
 8
7
 10
-45.85
 20
-0.35
 30
9
 70
192
 0
VERTEX
 8
7
 10
-45.9011
 20
-0.35
 30
8.6118
 70
192
 0
VERTEX
 8
7
 10
-45.9011
 20
-0.35
 30
8.6118
 70
192
 0
VERTEX
 8
7
 10
-46.051
 20
-0.35
 30
8.25
 70
192
 0
VERTEX
 8
7
 10
-46.051
 20
-0.35
 30
8.25
 70
192
 0
VERTEX
 8
7
 10
-46.2893
 20
-0.35
 30
7.9393
 70
192
 0
VERTEX
 8
7
 10
-46.2893
 20
-0.35
 30
7.9393
 70
192
 0
VERTEX
 8
7
 10
-46.6
 20
-0.35
 30
7.701
 70
192
 0
VERTEX
 8
7
 10
-46.6
 20
-0.35
 30
7.701
 70
192
 0
VERTEX
 8
7
 10
-46.9618
 20
-0.35
 30
7.5511
 70
192
 0
VERTEX
 8
7
 10
-46.9618
 20
-0.35
 30
7.5511
 70
192
 0
VERTEX
 8
7
 10
-47.35
 20
-0.35
 30
7.5
 70
192
 0
VERTEX
 8
7
 10
-47.35
 20
-0.35
 30
7.5
 70
192
 0
VERTEX
 8
7
 10
-47.7382
 20
-0.35
 30
7.5511
 70
192
 0
VERTEX
 8
7
 10
-47.7382
 20
-0.35
 30
7.5511
 70
192
 0
VERTEX
 8
7
 10
-48.1
 20
-0.35
 30
7.701
 70
192
 0
VERTEX
 8
7
 10
-48.1
 20
-0.35
 30
7.701
 70
192
 0
VERTEX
 8
7
 10
-48.4107
 20
-0.35
 30
7.9393
 70
192
 0
VERTEX
 8
7
 10
-48.4107
 20
-0.35
 30
7.9393
 70
192
 0
VERTEX
 8
7
 10
-48.649
 20
-0.35
 30
8.25
 70
192
 0
VERTEX
 8
7
 10
-48.649
 20
-0.35
 30
8.25
 70
192
 0
VERTEX
 8
7
 10
-48.7989
 20
-0.35
 30
8.6118
 70
192
 0
VERTEX
 8
7
 10
-48.7989
 20
-0.35
 30
8.6118
 70
192
 0
VERTEX
 8
7
 10
-45.4581
 20
0.25
 30
9.9114
 70
192
 0
VERTEX
 8
7
 10
-46.0409
 20
0.25
 30
10.642
 70
192
 0
VERTEX
 8
7
 10
-46.8828
 20
0.25
 30
11.0474
 70
192
 0
VERTEX
 8
7
 10
-47.8172
 20
0.25
 30
11.0474
 70
192
 0
VERTEX
 8
7
 10
-48.6591
 20
0.25
 30
10.642
 70
192
 0
VERTEX
 8
7
 10
-49.2419
 20
0.25
 30
9.9114
 70
192
 0
VERTEX
 8
7
 10
-48.7989
 20
-0.35
 30
9.3882
 70
192
 0
VERTEX
 8
7
 10
-48.7989
 20
-0.35
 30
9.3882
 70
192
 0
VERTEX
 8
7
 10
-48.649
 20
-0.35
 30
9.75
 70
192
 0
VERTEX
 8
7
 10
-48.649
 20
-0.35
 30
9.75
 70
192
 0
VERTEX
 8
7
 10
-48.4107
 20
-0.35
 30
10.0607
 70
192
 0
VERTEX
 8
7
 10
-48.4107
 20
-0.35
 30
10.0607
 70
192
 0
VERTEX
 8
7
 10
-48.1
 20
-0.35
 30
10.299
 70
192
 0
VERTEX
 8
7
 10
-48.1
 20
-0.35
 30
10.299
 70
192
 0
VERTEX
 8
7
 10
-47.7382
 20
-0.35
 30
10.4489
 70
192
 0
VERTEX
 8
7
 10
-47.7382
 20
-0.35
 30
10.4489
 70
192
 0
VERTEX
 8
7
 10
-47.35
 20
-0.35
 30
10.5
 70
192
 0
VERTEX
 8
7
 10
-47.35
 20
-0.35
 30
10.5
 70
192
 0
VERTEX
 8
7
 10
-46.9618
 20
-0.35
 30
10.4489
 70
192
 0
VERTEX
 8
7
 10
-46.9618
 20
-0.35
 30
10.4489
 70
192
 0
VERTEX
 8
7
 10
-46.6
 20
-0.35
 30
10.299
 70
192
 0
VERTEX
 8
7
 10
-46.6
 20
-0.35
 30
10.299
 70
192
 0
VERTEX
 8
7
 10
-46.2893
 20
-0.35
 30
10.0607
 70
192
 0
VERTEX
 8
7
 10
-46.2893
 20
-0.35
 30
10.0607
 70
192
 0
VERTEX
 8
7
 10
-46.051
 20
-0.35
 30
9.75
 70
192
 0
VERTEX
 8
7
 10
-46.051
 20
-0.35
 30
9.75
 70
192
 0
VERTEX
 8
7
 10
-45.9011
 20
-0.35
 30
9.3882
 70
192
 0
VERTEX
 8
7
 10
-45.9011
 20
-0.35
 30
9.3882
 70
192
 0
VERTEX
 8
7
 10
53.7
 20
-4.25
 30
3.134
 70
192
 0
VERTEX
 8
7
 10
53.7
 20
-5.4758
 30
15.5356
 70
192
 0
VERTEX
 8
7
 10
53.7
 20
-3.3674
 30
14.1539
 70
192
 0
VERTEX
 8
7
 10
53.7
 20
-1.8738
 30
12.1232
 70
192
 0
VERTEX
 8
7
 10
53.7
 20
-1.185
 30
9.6983
 70
192
 0
VERTEX
 8
7
 10
53.7
 20
-1.3858
 30
7.1855
 70
192
 0
VERTEX
 8
7
 10
53.7
 20
-2.4529
 30
4.9017
 70
192
 0
VERTEX
 8
7
 10
53.7
 20
-2.7
 30
9
 70
192
 0
VERTEX
 8
7
 10
53.7
 20
-2.7
 30
9
 70
192
 0
VERTEX
 8
7
 10
53.7
 20
-2.7
 30
9
 70
192
 0
VERTEX
 8
7
 10
53.7
 20
-3.1231
 30
11.1245
 70
192
 0
VERTEX
 8
7
 10
53.7
 20
-3.1231
 30
11.1245
 70
192
 0
VERTEX
 8
7
 10
53.7
 20
-4.3249
 30
12.9234
 70
192
 0
VERTEX
 8
7
 10
53.7
 20
-4.3249
 30
12.9234
 70
192
 0
VERTEX
 8
7
 10
53.7
 20
-6.1271
 30
14.1279
 70
192
 0
VERTEX
 8
7
 10
53.7
 20
-6.1271
 30
14.1279
 70
192
 0
VERTEX
 8
7
 10
53.7
 20
-8.25
 30
14.5496
 70
192
 0
VERTEX
 8
7
 10
53.7
 20
-8.25
 30
14.5496
 70
192
 0
VERTEX
 8
7
 10
53.7
 20
-10.3729
 30
14.1279
 70
192
 0
VERTEX
 8
7
 10
53.7
 20
-12.1751
 30
12.9234
 70
192
 0
VERTEX
 8
7
 10
53.7
 20
-13.3769
 30
11.1245
 70
192
 0
VERTEX
 8
7
 10
53.7
 20
-13.8
 30
9
 70
192
 0
VERTEX
 8
7
 10
53.7
 20
-13.8
 30
9
 70
192
 0
VERTEX
 8
7
 10
53.7
 20
-13.3769
 30
6.8755
 70
192
 0
VERTEX
 8
7
 10
53.7
 20
-12.1751
 30
5.0766
 70
192
 0
VERTEX
 8
7
 10
53.7
 20
-10.3729
 30
3.8721
 70
192
 0
VERTEX
 8
7
 10
53.7
 20
-8.25
 30
3.4504
 70
192
 0
VERTEX
 8
7
 10
53.7
 20
-8.25
 30
3.4504
 70
192
 0
VERTEX
 8
7
 10
53.7
 20
-6.1271
 30
3.8721
 70
192
 0
VERTEX
 8
7
 10
53.7
 20
-6.1271
 30
3.8721
 70
192
 0
VERTEX
 8
7
 10
53.7
 20
-4.3249
 30
5.0766
 70
192
 0
VERTEX
 8
7
 10
53.7
 20
-4.3249
 30
5.0766
 70
192
 0
VERTEX
 8
7
 10
53.7
 20
-3.1231
 30
6.8755
 70
192
 0
VERTEX
 8
7
 10
53.7
 20
-3.1231
 30
6.8755
 70
192
 0
VERTEX
 8
7
 10
38.7
 20
-13.25
 30
9.7089
 70
192
 0
VERTEX
 8
7
 10
38.7
 20
-13.25
 30
9.7089
 70
192
 0
VERTEX
 8
7
 10
38.7
 20
-13.25
 30
9.7089
 70
192
 0
VERTEX
 8
7
 10
39.4495
 20
-13.25
 30
9.7089
 70
192
 0
VERTEX
 8
7
 10
39.4495
 20
-13.25
 30
9.7089
 70
192
 0
VERTEX
 8
7
 10
39.4495
 20
-13.25
 30
9.7089
 70
192
 0
VERTEX
 8
7
 10
38.889
 20
-13.25
 30
11.3943
 70
192
 0
VERTEX
 8
7
 10
38.889
 20
-13.25
 30
11.3943
 70
192
 0
VERTEX
 8
7
 10
37.7753
 20
-13.25
 30
12.7779
 70
192
 0
VERTEX
 8
7
 10
37.7753
 20
-13.25
 30
12.7779
 70
192
 0
VERTEX
 8
7
 10
36.2478
 20
-13.25
 30
13.6842
 70
192
 0
VERTEX
 8
7
 10
36.2478
 20
-13.25
 30
13.6842
 70
192
 0
VERTEX
 8
7
 10
34.5
 20
-13.25
 30
14
 70
192
 0
VERTEX
 8
7
 10
34.5
 20
-13.25
 30
14
 70
192
 0
VERTEX
 8
7
 10
34.5
 20
-13.25
 30
14
 70
192
 0
VERTEX
 8
7
 10
-34.5
 20
-13.25
 30
14
 70
192
 0
VERTEX
 8
7
 10
-34.5
 20
-13.25
 30
14
 70
192
 0
VERTEX
 8
7
 10
-34.5
 20
-13.25
 30
14
 70
192
 0
VERTEX
 8
7
 10
-36.2478
 20
-13.25
 30
13.6842
 70
192
 0
VERTEX
 8
7
 10
-36.2478
 20
-13.25
 30
13.6842
 70
192
 0
VERTEX
 8
7
 10
-37.7753
 20
-13.25
 30
12.7779
 70
192
 0
VERTEX
 8
7
 10
-37.7753
 20
-13.25
 30
12.7779
 70
192
 0
VERTEX
 8
7
 10
-38.889
 20
-13.25
 30
11.3943
 70
192
 0
VERTEX
 8
7
 10
-38.889
 20
-13.25
 30
11.3943
 70
192
 0
VERTEX
 8
7
 10
-39.4495
 20
-13.25
 30
9.7089
 70
192
 0
VERTEX
 8
7
 10
-39.4495
 20
-13.25
 30
9.7089
 70
192
 0
VERTEX
 8
7
 10
-39.4495
 20
-13.25
 30
9.7089
 70
192
 0
VERTEX
 8
7
 10
-38.7
 20
-13.25
 30
9.7089
 70
192
 0
VERTEX
 8
7
 10
-38.7
 20
-13.25
 30
9.7089
 70
192
 0
VERTEX
 8
7
 10
-38.7
 20
-13.25
 30
9.7089
 70
192
 0
VERTEX
 8
7
 10
-38.67
 20
-13.25
 30
9
 70
192
 0
VERTEX
 8
7
 10
-38.67
 20
-13.25
 30
9
 70
192
 0
VERTEX
 8
7
 10
-38.7
 20
-13.25
 30
8.2911
 70
192
 0
VERTEX
 8
7
 10
-38.7
 20
-13.25
 30
8.2911
 70
192
 0
VERTEX
 8
7
 10
-38.7
 20
-13.25
 30
8.2911
 70
192
 0
VERTEX
 8
7
 10
-39.4495
 20
-13.25
 30
8.2911
 70
192
 0
VERTEX
 8
7
 10
-39.4495
 20
-13.25
 30
8.2911
 70
192
 0
VERTEX
 8
7
 10
-39.4495
 20
-13.25
 30
8.2911
 70
192
 0
VERTEX
 8
7
 10
-38.889
 20
-13.25
 30
6.6057
 70
192
 0
VERTEX
 8
7
 10
-38.889
 20
-13.25
 30
6.6057
 70
192
 0
VERTEX
 8
7
 10
-37.7753
 20
-13.25
 30
5.2221
 70
192
 0
VERTEX
 8
7
 10
-37.7753
 20
-13.25
 30
5.2221
 70
192
 0
VERTEX
 8
7
 10
-36.2478
 20
-13.25
 30
4.3158
 70
192
 0
VERTEX
 8
7
 10
-36.2478
 20
-13.25
 30
4.3158
 70
192
 0
VERTEX
 8
7
 10
-34.5
 20
-13.25
 30
4
 70
192
 0
VERTEX
 8
7
 10
-34.5
 20
-13.25
 30
4
 70
192
 0
VERTEX
 8
7
 10
-34.5
 20
-13.25
 30
4
 70
192
 0
VERTEX
 8
7
 10
34.5
 20
-13.25
 30
4
 70
192
 0
VERTEX
 8
7
 10
34.5
 20
-13.25
 30
4
 70
192
 0
VERTEX
 8
7
 10
34.5
 20
-13.25
 30
4
 70
192
 0
VERTEX
 8
7
 10
36.2478
 20
-13.25
 30
4.3158
 70
192
 0
VERTEX
 8
7
 10
36.2478
 20
-13.25
 30
4.3158
 70
192
 0
VERTEX
 8
7
 10
37.7753
 20
-13.25
 30
5.2221
 70
192
 0
VERTEX
 8
7
 10
37.7753
 20
-13.25
 30
5.2221
 70
192
 0
VERTEX
 8
7
 10
38.889
 20
-13.25
 30
6.6057
 70
192
 0
VERTEX
 8
7
 10
38.889
 20
-13.25
 30
6.6057
 70
192
 0
VERTEX
 8
7
 10
39.4495
 20
-13.25
 30
8.2911
 70
192
 0
VERTEX
 8
7
 10
39.4495
 20
-13.25
 30
8.2911
 70
192
 0
VERTEX
 8
7
 10
39.4495
 20
-13.25
 30
8.2911
 70
192
 0
VERTEX
 8
7
 10
38.7
 20
-13.25
 30
8.2911
 70
192
 0
VERTEX
 8
7
 10
38.7
 20
-13.25
 30
8.2911
 70
192
 0
VERTEX
 8
7
 10
38.7
 20
-13.25
 30
8.2911
 70
192
 0
VERTEX
 8
7
 10
38.67
 20
-13.25
 30
9
 70
192
 0
VERTEX
 8
7
 10
38.67
 20
-13.25
 30
9
 70
192
 0
VERTEX
 8
7
 10
38.7
 20
-12.5094
 30
6.2871
 70
192
 0
VERTEX
 8
7
 10
38.7
 20
-12.5094
 30
6.2871
 70
192
 0
VERTEX
 8
7
 10
38.7
 20
-12.5094
 30
6.2871
 70
192
 0
VERTEX
 8
7
 10
39.1955
 20
-12.9987
 30
7.2818
 70
192
 0
VERTEX
 8
7
 10
39.1955
 20
-12.9987
 30
7.2818
 70
192
 0
VERTEX
 8
7
 10
34.5
 20
4.0483
 30
4
 70
192
 0
VERTEX
 8
7
 10
34.5
 20
4.0483
 30
4
 70
192
 0
VERTEX
 8
7
 10
34.5
 20
4.0483
 30
4
 70
192
 0
VERTEX
 8
7
 10
35.4755
 20
4.0483
 30
4.0961
 70
192
 0
VERTEX
 8
7
 10
35.4755
 20
4.0483
 30
4.0961
 70
192
 0
VERTEX
 8
7
 10
36.4134
 20
4.0483
 30
4.3806
 70
192
 0
VERTEX
 8
7
 10
36.4134
 20
4.0483
 30
4.3806
 70
192
 0
VERTEX
 8
7
 10
37.2779
 20
4.0483
 30
4.8427
 70
192
 0
VERTEX
 8
7
 10
37.2779
 20
4.0483
 30
4.8427
 70
192
 0
VERTEX
 8
7
 10
38.0355
 20
4.0483
 30
5.4645
 70
192
 0
VERTEX
 8
7
 10
38.0355
 20
4.0483
 30
5.4645
 70
192
 0
VERTEX
 8
7
 10
38.6573
 20
4.0483
 30
6.2221
 70
192
 0
VERTEX
 8
7
 10
38.6573
 20
4.0483
 30
6.2221
 70
192
 0
VERTEX
 8
7
 10
39.1194
 20
4.0483
 30
7.0866
 70
192
 0
VERTEX
 8
7
 10
39.1194
 20
4.0483
 30
7.0866
 70
192
 0
VERTEX
 8
7
 10
39.4039
 20
4.0483
 30
8.0245
 70
192
 0
VERTEX
 8
7
 10
39.4039
 20
4.0483
 30
8.0245
 70
192
 0
VERTEX
 8
7
 10
39.5
 20
4.0483
 30
9
 70
192
 0
VERTEX
 8
7
 10
39.5
 20
4.0483
 30
9
 70
192
 0
VERTEX
 8
7
 10
39.4039
 20
4.0483
 30
9.9755
 70
192
 0
VERTEX
 8
7
 10
39.4039
 20
4.0483
 30
9.9755
 70
192
 0
VERTEX
 8
7
 10
39.1194
 20
4.0483
 30
10.9134
 70
192
 0
VERTEX
 8
7
 10
39.1194
 20
4.0483
 30
10.9134
 70
192
 0
VERTEX
 8
7
 10
38.6573
 20
4.0483
 30
11.7779
 70
192
 0
VERTEX
 8
7
 10
38.6573
 20
4.0483
 30
11.7779
 70
192
 0
VERTEX
 8
7
 10
38.0355
 20
4.0483
 30
12.5355
 70
192
 0
VERTEX
 8
7
 10
38.0355
 20
4.0483
 30
12.5355
 70
192
 0
VERTEX
 8
7
 10
37.2779
 20
4.0483
 30
13.1573
 70
192
 0
VERTEX
 8
7
 10
37.2779
 20
4.0483
 30
13.1573
 70
192
 0
VERTEX
 8
7
 10
36.4134
 20
4.0483
 30
13.6194
 70
192
 0
VERTEX
 8
7
 10
36.4134
 20
4.0483
 30
13.6194
 70
192
 0
VERTEX
 8
7
 10
35.4755
 20
4.0483
 30
13.9039
 70
192
 0
VERTEX
 8
7
 10
35.4755
 20
4.0483
 30
13.9039
 70
192
 0
VERTEX
 8
7
 10
34.5
 20
4.0483
 30
14
 70
192
 0
VERTEX
 8
7
 10
34.5
 20
4.0483
 30
14
 70
192
 0
VERTEX
 8
7
 10
34.5
 20
4.0483
 30
14
 70
192
 0
VERTEX
 8
7
 10
39.1955
 20
-12.9987
 30
10.7182
 70
192
 0
VERTEX
 8
7
 10
39.1955
 20
-12.9987
 30
10.7182
 70
192
 0
VERTEX
 8
7
 10
38.7
 20
-12.5094
 30
11.7129
 70
192
 0
VERTEX
 8
7
 10
38.7
 20
-12.5094
 30
11.7129
 70
192
 0
VERTEX
 8
7
 10
38.7
 20
-12.5094
 30
11.7129
 70
192
 0
VERTEX
 8
7
 10
38.3493
 20
-11.3712
 30
12.1911
 70
192
 0
VERTEX
 8
7
 10
38.3493
 20
-11.3712
 30
12.1911
 70
192
 0
VERTEX
 8
7
 10
38.0889
 20
-10.2862
 30
12.4813
 70
192
 0
VERTEX
 8
7
 10
38.0889
 20
-10.2862
 30
12.4813
 70
192
 0
VERTEX
 8
7
 10
37.9319
 20
-9.2551
 30
12.6363
 70
192
 0
VERTEX
 8
7
 10
37.9319
 20
-9.2551
 30
12.6363
 70
192
 0
VERTEX
 8
7
 10
37.8795
 20
-8.2504
 30
12.685
 70
192
 0
VERTEX
 8
7
 10
37.8795
 20
-8.2504
 30
12.685
 70
192
 0
VERTEX
 8
7
 10
37.9318
 20
-7.2455
 30
12.6363
 70
192
 0
VERTEX
 8
7
 10
37.9318
 20
-7.2455
 30
12.6363
 70
192
 0
VERTEX
 8
7
 10
38.0888
 20
-6.2144
 30
12.4814
 70
192
 0
VERTEX
 8
7
 10
38.0888
 20
-6.2144
 30
12.4814
 70
192
 0
VERTEX
 8
7
 10
38.3491
 20
-5.1294
 30
12.1913
 70
192
 0
VERTEX
 8
7
 10
38.3491
 20
-5.1294
 30
12.1913
 70
192
 0
VERTEX
 8
7
 10
38.7
 20
-3.9906
 30
11.7129
 70
192
 0
VERTEX
 8
7
 10
38.7
 20
-3.9906
 30
11.7129
 70
192
 0
VERTEX
 8
7
 10
38.7
 20
-3.9906
 30
11.7129
 70
192
 0
VERTEX
 8
7
 10
39.3107
 20
-3.3871
 30
10.3627
 70
192
 0
VERTEX
 8
7
 10
39.3107
 20
-3.3871
 30
10.3627
 70
192
 0
VERTEX
 8
7
 10
39.5
 20
-3.2
 30
9
 70
192
 0
VERTEX
 8
7
 10
39.5
 20
-3.2
 30
9
 70
192
 0
VERTEX
 8
7
 10
39.5
 20
-3.2
 30
9
 70
192
 0
VERTEX
 8
7
 10
39.3106
 20
-3.3873
 30
7.6369
 70
192
 0
VERTEX
 8
7
 10
39.3106
 20
-3.3873
 30
7.6369
 70
192
 0
VERTEX
 8
7
 10
38.7
 20
-3.9906
 30
6.2871
 70
192
 0
VERTEX
 8
7
 10
38.7
 20
-3.9906
 30
6.2871
 70
192
 0
VERTEX
 8
7
 10
38.7
 20
-3.9906
 30
6.2871
 70
192
 0
VERTEX
 8
7
 10
38.3493
 20
-5.1288
 30
5.8089
 70
192
 0
VERTEX
 8
7
 10
38.3493
 20
-5.1288
 30
5.8089
 70
192
 0
VERTEX
 8
7
 10
38.0889
 20
-6.2138
 30
5.5187
 70
192
 0
VERTEX
 8
7
 10
38.0889
 20
-6.2138
 30
5.5187
 70
192
 0
VERTEX
 8
7
 10
37.9319
 20
-7.2449
 30
5.3637
 70
192
 0
VERTEX
 8
7
 10
37.9319
 20
-7.2449
 30
5.3637
 70
192
 0
VERTEX
 8
7
 10
37.8795
 20
-8.2496
 30
5.315
 70
192
 0
VERTEX
 8
7
 10
37.8795
 20
-8.2496
 30
5.315
 70
192
 0
VERTEX
 8
7
 10
37.9318
 20
-9.2545
 30
5.3637
 70
192
 0
VERTEX
 8
7
 10
37.9318
 20
-9.2545
 30
5.3637
 70
192
 0
VERTEX
 8
7
 10
38.0888
 20
-10.2856
 30
5.5186
 70
192
 0
VERTEX
 8
7
 10
38.0888
 20
-10.2856
 30
5.5186
 70
192
 0
VERTEX
 8
7
 10
38.3491
 20
-11.3706
 30
5.8087
 70
192
 0
VERTEX
 8
7
 10
38.3491
 20
-11.3706
 30
5.8087
 70
192
 0
VERTEX
 8
7
 10
29.601
 20
16.71
 30
4
 70
192
 0
VERTEX
 8
7
 10
29.601
 20
16.71
 30
4
 70
192
 0
VERTEX
 8
7
 10
29.601
 20
5.25
 30
4
 70
192
 0
VERTEX
 8
7
 10
29.601
 20
5.25
 30
4
 70
192
 0
VERTEX
 8
7
 10
32.1693
 20
4.3586
 30
4
 70
192
 0
VERTEX
 8
7
 10
33.3344
 20
4.1288
 30
4
 70
192
 0
VERTEX
 8
7
 10
33.3344
 20
4.1288
 30
4
 70
192
 0
VERTEX
 8
7
 10
-34.5
 20
4.0483
 30
4
 70
192
 0
VERTEX
 8
7
 10
-34.5
 20
4.0483
 30
4
 70
192
 0
VERTEX
 8
7
 10
-33.3344
 20
4.1288
 30
4
 70
192
 0
VERTEX
 8
7
 10
-32.1693
 20
4.3586
 30
4
 70
192
 0
VERTEX
 8
7
 10
-29.601
 20
5.25
 30
4
 70
192
 0
VERTEX
 8
7
 10
-29.601
 20
16.71
 30
4
 70
192
 0
VERTEX
 8
7
 10
20.6821
 20
7.6995
 30
4
 70
192
 0
VERTEX
 8
7
 10
21.0154
 20
7.2654
 30
4
 70
192
 0
VERTEX
 8
7
 10
21.4495
 20
6.9321
 30
4
 70
192
 0
VERTEX
 8
7
 10
21.9555
 20
6.722
 30
4
 70
192
 0
VERTEX
 8
7
 10
22.5
 20
6.65
 30
4
 70
192
 0
VERTEX
 8
7
 10
23.0445
 20
6.722
 30
4
 70
192
 0
VERTEX
 8
7
 10
23.5505
 20
6.9321
 30
4
 70
192
 0
VERTEX
 8
7
 10
23.9846
 20
7.2654
 30
4
 70
192
 0
VERTEX
 8
7
 10
24.3179
 20
7.6995
 30
4
 70
192
 0
VERTEX
 8
7
 10
24.5279
 20
8.2048
 30
4
 70
192
 0
VERTEX
 8
7
 10
24.6
 20
8.75
 30
4
 70
192
 0
VERTEX
 8
7
 10
23.9846
 20
10.2346
 30
4
 70
192
 0
VERTEX
 8
7
 10
22.5
 20
10.85
 30
4
 70
192
 0
VERTEX
 8
7
 10
-20.4
 20
8.75
 30
4
 70
192
 0
VERTEX
 8
7
 10
-23.0445
 20
6.722
 30
4
 70
192
 0
VERTEX
 8
7
 10
-22.5
 20
6.65
 30
4
 70
192
 0
VERTEX
 8
7
 10
-21.9555
 20
6.722
 30
4
 70
192
 0
VERTEX
 8
7
 10
-21.4495
 20
6.9321
 30
4
 70
192
 0
VERTEX
 8
7
 10
-21.0154
 20
7.2654
 30
4
 70
192
 0
VERTEX
 8
7
 10
-20.6821
 20
7.6995
 30
4
 70
192
 0
VERTEX
 8
7
 10
-20.4721
 20
8.2048
 30
4
 70
192
 0
VERTEX
 8
7
 10
-39.1954
 20
-12.9986
 30
7.2816
 70
192
 0
VERTEX
 8
7
 10
-39.1954
 20
-12.9986
 30
7.2816
 70
192
 0
VERTEX
 8
7
 10
-38.7
 20
-12.5094
 30
6.2871
 70
192
 0
VERTEX
 8
7
 10
-38.3503
 20
-11.3749
 30
5.8102
 70
192
 0
VERTEX
 8
7
 10
-38.0901
 20
-10.2925
 30
5.5199
 70
192
 0
VERTEX
 8
7
 10
-37.9323
 20
-9.2586
 30
5.3642
 70
192
 0
VERTEX
 8
7
 10
-37.8795
 20
-8.25
 30
5.315
 70
192
 0
VERTEX
 8
7
 10
-37.8795
 20
-8.2511
 30
12.6849
 70
192
 0
VERTEX
 8
7
 10
-37.9315
 20
-9.2522
 30
12.6366
 70
192
 0
VERTEX
 8
7
 10
-38.088
 20
-10.281
 30
12.4823
 70
192
 0
VERTEX
 8
7
 10
-38.3487
 20
-11.3691
 30
12.1918
 70
192
 0
VERTEX
 8
7
 10
-38.7
 20
-12.5094
 30
11.7129
 70
192
 0
VERTEX
 8
7
 10
-39.1955
 20
-12.9987
 30
10.7182
 70
192
 0
VERTEX
 8
7
 10
-39.1955
 20
-12.9987
 30
10.7182
 70
192
 0
VERTEX
 8
7
 10
-34.5
 20
4.0483
 30
14
 70
192
 0
VERTEX
 8
7
 10
-34.5
 20
4.0483
 30
14
 70
192
 0
VERTEX
 8
7
 10
-35.4755
 20
4.0483
 30
13.9039
 70
192
 0
VERTEX
 8
7
 10
-36.4134
 20
4.0483
 30
13.6194
 70
192
 0
VERTEX
 8
7
 10
-37.2779
 20
4.0483
 30
13.1573
 70
192
 0
VERTEX
 8
7
 10
-38.0355
 20
4.0483
 30
5.4645
 70
192
 0
VERTEX
 8
7
 10
-37.2779
 20
4.0483
 30
4.8427
 70
192
 0
VERTEX
 8
7
 10
-36.4134
 20
4.0483
 30
4.3806
 70
192
 0
VERTEX
 8
7
 10
-35.4755
 20
4.0483
 30
4.0961
 70
192
 0
VERTEX
 8
7
 10
-29.601
 20
5.25
 30
14
 70
192
 0
VERTEX
 8
7
 10
-32.1923
 20
4.3528
 30
14
 70
192
 0
VERTEX
 8
7
 10
-33.3517
 20
4.1265
 30
14
 70
192
 0
VERTEX
 8
7
 10
33.3517
 20
4.1265
 30
14
 70
192
 0
VERTEX
 8
7
 10
33.3517
 20
4.1265
 30
14
 70
192
 0
VERTEX
 8
7
 10
32.1923
 20
4.3528
 30
14
 70
192
 0
VERTEX
 8
7
 10
29.601
 20
5.25
 30
14
 70
192
 0
VERTEX
 8
7
 10
29.601
 20
16.71
 30
14
 70
192
 0
VERTEX
 8
7
 10
31.6823
 20
5.25
 30
2.5921
 70
192
 0
VERTEX
 8
7
 10
34.1267
 20
5.25
 30
2.01
 70
192
 0
VERTEX
 8
7
 10
36.6192
 20
5.25
 30
2.3285
 70
192
 0
VERTEX
 8
7
 10
38.8386
 20
5.25
 30
3.5067
 70
192
 0
VERTEX
 8
7
 10
40.499
 20
5.25
 30
5.3927
 70
192
 0
VERTEX
 8
7
 10
41.3863
 20
5.25
 30
7.7436
 70
192
 0
VERTEX
 8
7
 10
41.3863
 20
5.25
 30
10.2564
 70
192
 0
VERTEX
 8
7
 10
40.499
 20
5.25
 30
12.6073
 70
192
 0
VERTEX
 8
7
 10
38.8386
 20
5.25
 30
14.4933
 70
192
 0
VERTEX
 8
7
 10
36.6192
 20
5.25
 30
15.6715
 70
192
 0
VERTEX
 8
7
 10
34.1267
 20
5.25
 30
15.99
 70
192
 0
VERTEX
 8
7
 10
-53.2
 20
-13.3
 30
9
 70
192
 0
VERTEX
 8
7
 10
-48.85
 20
-3.2
 30
9
 70
192
 0
VERTEX
 8
7
 10
-48.85
 20
-3.2
 30
9
 70
192
 0
VERTEX
 8
7
 10
-48.6506
 20
-3.2554
 30
8.254
 70
192
 0
VERTEX
 8
7
 10
-48.0953
 20
-3.3707
 30
7.6983
 70
192
 0
VERTEX
 8
7
 10
-47.35
 20
-3.4278
 30
7.5002
 70
192
 0
VERTEX
 8
7
 10
-46.6047
 20
-3.3707
 30
7.6983
 70
192
 0
VERTEX
 8
7
 10
-46.0494
 20
-3.2554
 30
8.254
 70
192
 0
VERTEX
 8
7
 10
-45.85
 20
-3.2
 30
9
 70
192
 0
VERTEX
 8
7
 10
-45.85
 20
-3.2
 30
9
 70
192
 0
VERTEX
 8
7
 10
-38.7
 20
-13.2875
 30
8.6447
 70
192
 0
VERTEX
 8
7
 10
-38.7
 20
-13.2875
 30
8.6447
 70
192
 0
VERTEX
 8
7
 10
-38.7
 20
-13.3
 30
9
 70
192
 0
VERTEX
 8
7
 10
-53.2
 20
-12.9156
 30
10.9325
 70
192
 0
VERTEX
 8
7
 10
-38.7
 20
-13.2875
 30
9.3553
 70
192
 0
VERTEX
 8
7
 10
-38.7
 20
-13.2875
 30
9.3553
 70
192
 0
VERTEX
 8
7
 10
-46.0494
 20
-3.2554
 30
9.746
 70
192
 0
VERTEX
 8
7
 10
-46.6047
 20
-3.3707
 30
10.3017
 70
192
 0
VERTEX
 8
7
 10
-47.35
 20
-3.4278
 30
10.4998
 70
192
 0
VERTEX
 8
7
 10
-48.0953
 20
-3.3707
 30
10.3017
 70
192
 0
VERTEX
 8
7
 10
-48.6506
 20
-3.2554
 30
9.746
 70
192
 0
VERTEX
 8
7
 10
45.85
 20
-3.2
 30
9
 70
192
 0
VERTEX
 8
7
 10
45.85
 20
-3.2
 30
9
 70
192
 0
VERTEX
 8
7
 10
46.0487
 20
-3.2558
 30
9.7461
 70
192
 0
VERTEX
 8
7
 10
46.6047
 20
-3.3707
 30
10.3017
 70
192
 0
VERTEX
 8
7
 10
47.35
 20
-3.4274
 30
10.5
 70
192
 0
VERTEX
 8
7
 10
47.35
 20
-3.4274
 30
7.5
 70
192
 0
VERTEX
 8
7
 10
46.6047
 20
-3.3707
 30
7.6983
 70
192
 0
VERTEX
 8
7
 10
46.0487
 20
-3.2558
 30
8.2539
 70
192
 0
VERTEX
 8
7
 10
38.7
 20
-11.1106
 30
13.1617
 70
192
 0
VERTEX
 8
7
 10
38.7
 20
-11.1106
 30
13.1617
 70
192
 0
VERTEX
 8
7
 10
38.7
 20
-9.2569
 30
13.9486
 70
192
 0
VERTEX
 8
7
 10
38.7
 20
-7.2431
 30
13.9486
 70
192
 0
VERTEX
 8
7
 10
38.7
 20
-5.3894
 30
13.1617
 70
192
 0
VERTEX
 8
7
 10
38.7
 20
-5.3894
 30
13.1617
 70
192
 0
VERTEX
 8
7
 10
53.2
 20
-3.2
 30
9
 70
192
 0
VERTEX
 8
7
 10
53.2
 20
-3.2
 30
9
 70
192
 0
VERTEX
 8
7
 10
53.2
 20
-3.5844
 30
7.0675
 70
192
 0
VERTEX
 8
7
 10
53.2
 20
-3.5844
 30
7.0675
 70
192
 0
VERTEX
 8
7
 10
53.2
 20
-4.6791
 30
5.4291
 70
192
 0
VERTEX
 8
7
 10
53.2
 20
-4.6791
 30
5.4291
 70
192
 0
VERTEX
 8
7
 10
53.2
 20
-6.3175
 30
4.3344
 70
192
 0
VERTEX
 8
7
 10
53.2
 20
-8.25
 30
3.95
 70
192
 0
VERTEX
 8
7
 10
53.2
 20
-10.1826
 30
4.3344
 70
192
 0
VERTEX
 8
7
 10
53.2
 20
-11.8209
 30
5.4291
 70
192
 0
VERTEX
 8
7
 10
53.2
 20
-11.8209
 30
5.4291
 70
192
 0
VERTEX
 8
7
 10
53.2
 20
-12.9156
 30
7.0675
 70
192
 0
VERTEX
 8
7
 10
53.2
 20
-12.9156
 30
7.0675
 70
192
 0
VERTEX
 8
7
 10
53.2
 20
-13.3
 30
9
 70
192
 0
VERTEX
 8
7
 10
53.2
 20
-13.3
 30
9
 70
192
 0
VERTEX
 8
7
 10
53.2
 20
-13.3
 30
9
 70
192
 0
VERTEX
 8
7
 10
38.7
 20
-13.3
 30
9
 70
192
 0
VERTEX
 8
7
 10
38.7
 20
-13.2875
 30
8.6447
 70
192
 0
VERTEX
 8
7
 10
38.7
 20
-13.2875
 30
8.6447
 70
192
 0
VERTEX
 8
7
 10
38.7
 20
-11.1106
 30
4.8383
 70
192
 0
VERTEX
 8
7
 10
38.7
 20
-11.1106
 30
4.8383
 70
192
 0
VERTEX
 8
7
 10
38.7
 20
-9.2569
 30
4.0514
 70
192
 0
VERTEX
 8
7
 10
38.7
 20
-7.2431
 30
4.0514
 70
192
 0
VERTEX
 8
7
 10
38.7
 20
-5.3894
 30
4.8383
 70
192
 0
VERTEX
 8
7
 10
38.7
 20
-5.3894
 30
4.8383
 70
192
 0
VERTEX
 8
7
 10
53.2
 20
-12.9156
 30
10.9325
 70
192
 0
VERTEX
 8
7
 10
53.2
 20
-12.9156
 30
10.9325
 70
192
 0
VERTEX
 8
7
 10
53.2
 20
-11.8209
 30
12.5709
 70
192
 0
VERTEX
 8
7
 10
53.2
 20
-11.8209
 30
12.5709
 70
192
 0
VERTEX
 8
7
 10
53.2
 20
-10.1826
 30
13.6656
 70
192
 0
VERTEX
 8
7
 10
53.2
 20
-8.25
 30
14.05
 70
192
 0
VERTEX
 8
7
 10
53.2
 20
-6.3175
 30
13.6656
 70
192
 0
VERTEX
 8
7
 10
53.2
 20
-4.6791
 30
12.5709
 70
192
 0
VERTEX
 8
7
 10
53.2
 20
-4.6791
 30
12.5709
 70
192
 0
VERTEX
 8
7
 10
53.2
 20
-3.5844
 30
10.9325
 70
192
 0
VERTEX
 8
7
 10
53.2
 20
-3.5844
 30
10.9325
 70
192
 0
VERTEX
 8
7
 10
38.7
 20
-13.2875
 30
9.3553
 70
192
 0
VERTEX
 8
7
 10
38.7
 20
-13.2875
 30
9.3553
 70
192
 0
VERTEX
 8
7
 10
0
 20
0
 30
0
 70
128
 71
1
 72
5
 73
39
 74
39
 0
VERTEX
 8
7
 10
0
 20
0
 30
0
 70
128
 71
6
 72
2
 73
46
 74
46
 0
VERTEX
 8
7
 10
0
 20
0
 30
0
 70
128
 71
4
 72
40
 73
333
 74
333
 0
VERTEX
 8
7
 10
0
 20
0
 30
0
 70
128
 71
46
 72
2
 73
47
 74
47
 0
VERTEX
 8
7
 10
0
 20
0
 30
0
 70
128
 71
48
 72
3
 73
331
 74
331
 0
VERTEX
 8
7
 10
0
 20
0
 30
0
 70
128
 71
332
 72
4
 73
333
 74
333
 0
VERTEX
 8
7
 10
0
 20
0
 30
0
 70
128
 71
5
 72
7
 73
39
 74
39
 0
VERTEX
 8
7
 10
0
 20
0
 30
0
 70
128
 71
7
 72
8
 73
35
 74
35
 0
VERTEX
 8
7
 10
0
 20
0
 30
0
 70
128
 71
7
 72
35
 73
37
 74
37
 0
VERTEX
 8
7
 10
0
 20
0
 30
0
 70
128
 71
7
 72
37
 73
39
 74
39
 0
VERTEX
 8
7
 10
0
 20
0
 30
0
 70
128
 71
8
 72
9
 73
31
 74
31
 0
VERTEX
 8
7
 10
0
 20
0
 30
0
 70
128
 71
8
 72
31
 73
33
 74
33
 0
VERTEX
 8
7
 10
0
 20
0
 30
0
 70
128
 71
8
 72
33
 73
35
 74
35
 0
VERTEX
 8
7
 10
0
 20
0
 30
0
 70
128
 71
9
 72
10
 73
29
 74
29
 0
VERTEX
 8
7
 10
0
 20
0
 30
0
 70
128
 71
9
 72
29
 73
31
 74
31
 0
VERTEX
 8
7
 10
0
 20
0
 30
0
 70
128
 71
10
 72
11
 73
25
 74
25
 0
VERTEX
 8
7
 10
0
 20
0
 30
0
 70
128
 71
10
 72
25
 73
27
 74
27
 0
VERTEX
 8
7
 10
0
 20
0
 30
0
 70
128
 71
10
 72
27
 73
29
 74
29
 0
VERTEX
 8
7
 10
0
 20
0
 30
0
 70
128
 71
11
 72
12
 73
21
 74
21
 0
VERTEX
 8
7
 10
0
 20
0
 30
0
 70
128
 71
11
 72
21
 73
23
 74
23
 0
VERTEX
 8
7
 10
0
 20
0
 30
0
 70
128
 71
11
 72
23
 73
25
 74
25
 0
VERTEX
 8
7
 10
0
 20
0
 30
0
 70
128
 71
12
 72
13
 73
15
 74
15
 0
VERTEX
 8
7
 10
0
 20
0
 30
0
 70
128
 71
12
 72
15
 73
19
 74
19
 0
VERTEX
 8
7
 10
0
 20
0
 30
0
 70
128
 71
12
 72
19
 73
21
 74
21
 0
VERTEX
 8
7
 10
0
 20
0
 30
0
 70
128
 71
16
 72
14
 73
67
 74
67
 0
VERTEX
 8
7
 10
0
 20
0
 30
0
 70
128
 71
14
 72
41
 73
67
 74
67
 0
VERTEX
 8
7
 10
0
 20
0
 30
0
 70
128
 71
20
 72
18
 73
339
 74
339
 0
VERTEX
 8
7
 10
0
 20
0
 30
0
 70
128
 71
17
 72
68
 73
346
 74
346
 0
VERTEX
 8
7
 10
0
 20
0
 30
0
 70
128
 71
338
 72
17
 73
346
 74
346
 0
VERTEX
 8
7
 10
0
 20
0
 30
0
 70
128
 71
22
 72
20
 73
337
 74
337
 0
VERTEX
 8
7
 10
0
 20
0
 30
0
 70
128
 71
337
 72
20
 73
339
 74
339
 0
VERTEX
 8
7
 10
0
 20
0
 30
0
 70
128
 71
24
 72
22
 73
337
 74
337
 0
VERTEX
 8
7
 10
0
 20
0
 30
0
 70
128
 71
26
 72
24
 73
337
 74
337
 0
VERTEX
 8
7
 10
0
 20
0
 30
0
 70
128
 71
28
 72
26
 73
336
 74
336
 0
VERTEX
 8
7
 10
0
 20
0
 30
0
 70
128
 71
336
 72
26
 73
337
 74
337
 0
VERTEX
 8
7
 10
0
 20
0
 30
0
 70
128
 71
30
 72
28
 73
335
 74
335
 0
VERTEX
 8
7
 10
0
 20
0
 30
0
 70
128
 71
335
 72
28
 73
336
 74
336
 0
VERTEX
 8
7
 10
0
 20
0
 30
0
 70
128
 71
32
 72
30
 73
335
 74
335
 0
VERTEX
 8
7
 10
0
 20
0
 30
0
 70
128
 71
34
 72
32
 73
334
 74
334
 0
VERTEX
 8
7
 10
0
 20
0
 30
0
 70
128
 71
334
 72
32
 73
335
 74
335
 0
VERTEX
 8
7
 10
0
 20
0
 30
0
 70
128
 71
36
 72
34
 73
334
 74
334
 0
VERTEX
 8
7
 10
0
 20
0
 30
0
 70
128
 71
38
 72
36
 73
334
 74
334
 0
VERTEX
 8
7
 10
0
 20
0
 30
0
 70
128
 71
40
 72
38
 73
333
 74
333
 0
VERTEX
 8
7
 10
0
 20
0
 30
0
 70
128
 71
333
 72
38
 73
334
 74
334
 0
VERTEX
 8
7
 10
0
 20
0
 30
0
 70
128
 71
41
 72
42
 73
63
 74
63
 0
VERTEX
 8
7
 10
0
 20
0
 30
0
 70
128
 71
41
 72
63
 73
65
 74
65
 0
VERTEX
 8
7
 10
0
 20
0
 30
0
 70
128
 71
41
 72
65
 73
67
 74
67
 0
VERTEX
 8
7
 10
0
 20
0
 30
0
 70
128
 71
42
 72
43
 73
59
 74
59
 0
VERTEX
 8
7
 10
0
 20
0
 30
0
 70
128
 71
42
 72
59
 73
61
 74
61
 0
VERTEX
 8
7
 10
0
 20
0
 30
0
 70
128
 71
42
 72
61
 73
63
 74
63
 0
VERTEX
 8
7
 10
0
 20
0
 30
0
 70
128
 71
43
 72
44
 73
57
 74
57
 0
VERTEX
 8
7
 10
0
 20
0
 30
0
 70
128
 71
43
 72
57
 73
59
 74
59
 0
VERTEX
 8
7
 10
0
 20
0
 30
0
 70
128
 71
44
 72
45
 73
53
 74
53
 0
VERTEX
 8
7
 10
0
 20
0
 30
0
 70
128
 71
44
 72
53
 73
55
 74
55
 0
VERTEX
 8
7
 10
0
 20
0
 30
0
 70
128
 71
44
 72
55
 73
57
 74
57
 0
VERTEX
 8
7
 10
0
 20
0
 30
0
 70
128
 71
45
 72
46
 73
49
 74
49
 0
VERTEX
 8
7
 10
0
 20
0
 30
0
 70
128
 71
45
 72
49
 73
51
 74
51
 0
VERTEX
 8
7
 10
0
 20
0
 30
0
 70
128
 71
45
 72
51
 73
53
 74
53
 0
VERTEX
 8
7
 10
0
 20
0
 30
0
 70
128
 71
46
 72
47
 73
49
 74
49
 0
VERTEX
 8
7
 10
0
 20
0
 30
0
 70
128
 71
50
 72
48
 73
350
 74
350
 0
VERTEX
 8
7
 10
0
 20
0
 30
0
 70
128
 71
48
 72
331
 73
350
 74
350
 0
VERTEX
 8
7
 10
0
 20
0
 30
0
 70
128
 71
52
 72
50
 73
350
 74
350
 0
VERTEX
 8
7
 10
0
 20
0
 30
0
 70
128
 71
54
 72
52
 73
350
 74
350
 0
VERTEX
 8
7
 10
0
 20
0
 30
0
 70
128
 71
56
 72
54
 73
349
 74
349
 0
VERTEX
 8
7
 10
0
 20
0
 30
0
 70
128
 71
349
 72
54
 73
350
 74
350
 0
VERTEX
 8
7
 10
0
 20
0
 30
0
 70
128
 71
58
 72
56
 73
348
 74
348
 0
VERTEX
 8
7
 10
0
 20
0
 30
0
 70
128
 71
348
 72
56
 73
349
 74
349
 0
VERTEX
 8
7
 10
0
 20
0
 30
0
 70
128
 71
60
 72
58
 73
348
 74
348
 0
VERTEX
 8
7
 10
0
 20
0
 30
0
 70
128
 71
62
 72
60
 73
347
 74
347
 0
VERTEX
 8
7
 10
0
 20
0
 30
0
 70
128
 71
347
 72
60
 73
348
 74
348
 0
VERTEX
 8
7
 10
0
 20
0
 30
0
 70
128
 71
64
 72
62
 73
347
 74
347
 0
VERTEX
 8
7
 10
0
 20
0
 30
0
 70
128
 71
66
 72
64
 73
347
 74
347
 0
VERTEX
 8
7
 10
0
 20
0
 30
0
 70
128
 71
68
 72
66
 73
346
 74
346
 0
VERTEX
 8
7
 10
0
 20
0
 30
0
 70
128
 71
346
 72
66
 73
347
 74
347
 0
VERTEX
 8
7
 10
0
 20
0
 30
0
 70
128
 71
75
 72
69
 73
97
 74
97
 0
VERTEX
 8
7
 10
0
 20
0
 30
0
 70
128
 71
69
 72
95
 73
97
 74
97
 0
VERTEX
 8
7
 10
0
 20
0
 30
0
 70
128
 71
70
 72
71
 73
85
 74
85
 0
VERTEX
 8
7
 10
0
 20
0
 30
0
 70
128
 71
71
 72
72
 73
81
 74
81
 0
VERTEX
 8
7
 10
0
 20
0
 30
0
 70
128
 71
71
 72
81
 73
83
 74
83
 0
VERTEX
 8
7
 10
0
 20
0
 30
0
 70
128
 71
71
 72
83
 73
85
 74
85
 0
VERTEX
 8
7
 10
0
 20
0
 30
0
 70
128
 71
72
 72
73
 73
79
 74
79
 0
VERTEX
 8
7
 10
0
 20
0
 30
0
 70
128
 71
72
 72
79
 73
81
 74
81
 0
VERTEX
 8
7
 10
0
 20
0
 30
0
 70
128
 71
73
 72
74
 73
76
 74
76
 0
VERTEX
 8
7
 10
0
 20
0
 30
0
 70
128
 71
73
 72
76
 73
79
 74
79
 0
VERTEX
 8
7
 10
0
 20
0
 30
0
 70
128
 71
74
 72
75
 73
99
 74
99
 0
VERTEX
 8
7
 10
0
 20
0
 30
0
 70
128
 71
76
 72
74
 73
101
 74
101
 0
VERTEX
 8
7
 10
0
 20
0
 30
0
 70
128
 71
74
 72
99
 73
101
 74
101
 0
VERTEX
 8
7
 10
0
 20
0
 30
0
 70
128
 71
75
 72
97
 73
99
 74
99
 0
VERTEX
 8
7
 10
0
 20
0
 30
0
 70
128
 71
80
 72
77
 73
365
 74
365
 0
VERTEX
 8
7
 10
0
 20
0
 30
0
 70
128
 71
78
 72
102
 73
368
 74
368
 0
VERTEX
 8
7
 10
0
 20
0
 30
0
 70
128
 71
366
 72
78
 73
368
 74
368
 0
VERTEX
 8
7
 10
0
 20
0
 30
0
 70
128
 71
82
 72
80
 73
400
 74
400
 0
VERTEX
 8
7
 10
0
 20
0
 30
0
 70
128
 71
80
 72
365
 73
400
 74
400
 0
VERTEX
 8
7
 10
0
 20
0
 30
0
 70
128
 71
84
 72
82
 73
398
 74
398
 0
VERTEX
 8
7
 10
0
 20
0
 30
0
 70
128
 71
398
 72
82
 73
400
 74
400
 0
VERTEX
 8
7
 10
0
 20
0
 30
0
 70
128
 71
86
 72
84
 73
396
 74
396
 0
VERTEX
 8
7
 10
0
 20
0
 30
0
 70
128
 71
396
 72
84
 73
398
 74
398
 0
VERTEX
 8
7
 10
0
 20
0
 30
0
 70
128
 71
87
 72
86
 73
395
 74
395
 0
VERTEX
 8
7
 10
0
 20
0
 30
0
 70
128
 71
395
 72
86
 73
396
 74
396
 0
VERTEX
 8
7
 10
0
 20
0
 30
0
 70
128
 71
88
 72
87
 73
394
 74
394
 0
VERTEX
 8
7
 10
0
 20
0
 30
0
 70
128
 71
394
 72
87
 73
395
 74
395
 0
VERTEX
 8
7
 10
0
 20
0
 30
0
 70
128
 71
89
 72
88
 73
393
 74
393
 0
VERTEX
 8
7
 10
0
 20
0
 30
0
 70
128
 71
393
 72
88
 73
394
 74
394
 0
VERTEX
 8
7
 10
0
 20
0
 30
0
 70
128
 71
90
 72
89
 73
391
 74
391
 0
VERTEX
 8
7
 10
0
 20
0
 30
0
 70
128
 71
391
 72
89
 73
393
 74
393
 0
VERTEX
 8
7
 10
0
 20
0
 30
0
 70
128
 71
92
 72
91
 73
380
 74
380
 0
VERTEX
 8
7
 10
0
 20
0
 30
0
 70
128
 71
379
 72
90
 73
391
 74
391
 0
VERTEX
 8
7
 10
0
 20
0
 30
0
 70
128
 71
93
 72
92
 73
377
 74
377
 0
VERTEX
 8
7
 10
0
 20
0
 30
0
 70
128
 71
377
 72
92
 73
380
 74
380
 0
VERTEX
 8
7
 10
0
 20
0
 30
0
 70
128
 71
94
 72
93
 73
375
 74
375
 0
VERTEX
 8
7
 10
0
 20
0
 30
0
 70
128
 71
375
 72
93
 73
377
 74
377
 0
VERTEX
 8
7
 10
0
 20
0
 30
0
 70
128
 71
96
 72
94
 73
373
 74
373
 0
VERTEX
 8
7
 10
0
 20
0
 30
0
 70
128
 71
373
 72
94
 73
375
 74
375
 0
VERTEX
 8
7
 10
0
 20
0
 30
0
 70
128
 71
98
 72
96
 73
372
 74
372
 0
VERTEX
 8
7
 10
0
 20
0
 30
0
 70
128
 71
372
 72
96
 73
373
 74
373
 0
VERTEX
 8
7
 10
0
 20
0
 30
0
 70
128
 71
100
 72
98
 73
371
 74
371
 0
VERTEX
 8
7
 10
0
 20
0
 30
0
 70
128
 71
371
 72
98
 73
372
 74
372
 0
VERTEX
 8
7
 10
0
 20
0
 30
0
 70
128
 71
102
 72
100
 73
370
 74
370
 0
VERTEX
 8
7
 10
0
 20
0
 30
0
 70
128
 71
370
 72
100
 73
371
 74
371
 0
VERTEX
 8
7
 10
0
 20
0
 30
0
 70
128
 71
368
 72
102
 73
370
 74
370
 0
VERTEX
 8
7
 10
0
 20
0
 30
0
 70
128
 71
103
 72
106
 73
109
 74
109
 0
VERTEX
 8
7
 10
0
 20
0
 30
0
 70
128
 71
108
 72
104
 73
378
 74
378
 0
VERTEX
 8
7
 10
0
 20
0
 30
0
 70
128
 71
103
 72
109
 73
155
 74
155
 0
VERTEX
 8
7
 10
0
 20
0
 30
0
 70
128
 71
103
 72
155
 73
165
 74
165
 0
VERTEX
 8
7
 10
0
 20
0
 30
0
 70
128
 71
105
 72
166
 73
402
 74
402
 0
VERTEX
 8
7
 10
0
 20
0
 30
0
 70
128
 71
378
 72
104
 73
401
 74
401
 0
VERTEX
 8
7
 10
0
 20
0
 30
0
 70
128
 71
110
 72
107
 73
208
 74
208
 0
VERTEX
 8
7
 10
0
 20
0
 30
0
 70
128
 71
209
 72
108
 73
378
 74
378
 0
VERTEX
 8
7
 10
0
 20
0
 30
0
 70
128
 71
109
 72
111
 73
155
 74
155
 0
VERTEX
 8
7
 10
0
 20
0
 30
0
 70
128
 71
112
 72
110
 73
210
 74
210
 0
VERTEX
 8
7
 10
0
 20
0
 30
0
 70
128
 71
110
 72
208
 73
210
 74
210
 0
VERTEX
 8
7
 10
0
 20
0
 30
0
 70
128
 71
111
 72
113
 73
153
 74
153
 0
VERTEX
 8
7
 10
0
 20
0
 30
0
 70
128
 71
114
 72
112
 73
199
 74
199
 0
VERTEX
 8
7
 10
0
 20
0
 30
0
 70
128
 71
111
 72
153
 73
155
 74
155
 0
VERTEX
 8
7
 10
0
 20
0
 30
0
 70
128
 71
112
 72
197
 73
199
 74
199
 0
VERTEX
 8
7
 10
0
 20
0
 30
0
 70
128
 71
197
 72
112
 73
219
 74
219
 0
VERTEX
 8
7
 10
0
 20
0
 30
0
 70
128
 71
112
 72
210
 73
213
 74
213
 0
VERTEX
 8
7
 10
0
 20
0
 30
0
 70
128
 71
112
 72
213
 73
215
 74
215
 0
VERTEX
 8
7
 10
0
 20
0
 30
0
 70
128
 71
112
 72
215
 73
217
 74
217
 0
VERTEX
 8
7
 10
0
 20
0
 30
0
 70
128
 71
112
 72
217
 73
219
 74
219
 0
VERTEX
 8
7
 10
0
 20
0
 30
0
 70
128
 71
113
 72
115
 73
150
 74
150
 0
VERTEX
 8
7
 10
0
 20
0
 30
0
 70
128
 71
116
 72
114
 73
203
 74
203
 0
VERTEX
 8
7
 10
0
 20
0
 30
0
 70
128
 71
113
 72
150
 73
153
 74
153
 0
VERTEX
 8
7
 10
0
 20
0
 30
0
 70
128
 71
114
 72
199
 73
201
 74
201
 0
VERTEX
 8
7
 10
0
 20
0
 30
0
 70
128
 71
114
 72
201
 73
203
 74
203
 0
VERTEX
 8
7
 10
0
 20
0
 30
0
 70
128
 71
115
 72
118
 73
147
 74
147
 0
VERTEX
 8
7
 10
0
 20
0
 30
0
 70
128
 71
120
 72
117
 73
206
 74
206
 0
VERTEX
 8
7
 10
0
 20
0
 30
0
 70
128
 71
115
 72
147
 73
150
 74
150
 0
VERTEX
 8
7
 10
0
 20
0
 30
0
 70
128
 71
116
 72
203
 73
205
 74
205
 0
VERTEX
 8
7
 10
0
 20
0
 30
0
 70
128
 71
118
 72
121
 73
145
 74
145
 0
VERTEX
 8
7
 10
0
 20
0
 30
0
 70
128
 71
122
 72
119
 73
302
 74
302
 0
VERTEX
 8
7
 10
0
 20
0
 30
0
 70
128
 71
118
 72
145
 73
147
 74
147
 0
VERTEX
 8
7
 10
0
 20
0
 30
0
 70
128
 71
120
 72
206
 73
314
 74
314
 0
VERTEX
 8
7
 10
0
 20
0
 30
0
 70
128
 71
303
 72
120
 73
313
 74
313
 0
VERTEX
 8
7
 10
0
 20
0
 30
0
 70
128
 71
120
 72
311
 73
312
 74
312
 0
VERTEX
 8
7
 10
0
 20
0
 30
0
 70
128
 71
311
 72
120
 73
318
 74
318
 0
VERTEX
 8
7
 10
0
 20
0
 30
0
 70
128
 71
120
 72
312
 73
313
 74
313
 0
VERTEX
 8
7
 10
0
 20
0
 30
0
 70
128
 71
120
 72
314
 73
316
 74
316
 0
VERTEX
 8
7
 10
0
 20
0
 30
0
 70
128
 71
120
 72
316
 73
317
 74
317
 0
VERTEX
 8
7
 10
0
 20
0
 30
0
 70
128
 71
120
 72
317
 73
318
 74
318
 0
VERTEX
 8
7
 10
0
 20
0
 30
0
 70
128
 71
121
 72
123
 73
143
 74
143
 0
VERTEX
 8
7
 10
0
 20
0
 30
0
 70
128
 71
124
 72
122
 73
305
 74
305
 0
VERTEX
 8
7
 10
0
 20
0
 30
0
 70
128
 71
121
 72
143
 73
145
 74
145
 0
VERTEX
 8
7
 10
0
 20
0
 30
0
 70
128
 71
122
 72
302
 73
304
 74
304
 0
VERTEX
 8
7
 10
0
 20
0
 30
0
 70
128
 71
122
 72
304
 73
305
 74
305
 0
VERTEX
 8
7
 10
0
 20
0
 30
0
 70
128
 71
123
 72
125
 73
130
 74
130
 0
VERTEX
 8
7
 10
0
 20
0
 30
0
 70
128
 71
126
 72
124
 73
298
 74
298
 0
VERTEX
 8
7
 10
0
 20
0
 30
0
 70
128
 71
123
 72
130
 73
133
 74
133
 0
VERTEX
 8
7
 10
0
 20
0
 30
0
 70
128
 71
123
 72
133
 73
135
 74
135
 0
VERTEX
 8
7
 10
0
 20
0
 30
0
 70
128
 71
123
 72
135
 73
141
 74
141
 0
VERTEX
 8
7
 10
0
 20
0
 30
0
 70
128
 71
123
 72
141
 73
143
 74
143
 0
VERTEX
 8
7
 10
0
 20
0
 30
0
 70
128
 71
124
 72
295
 73
296
 74
296
 0
VERTEX
 8
7
 10
0
 20
0
 30
0
 70
128
 71
295
 72
124
 73
306
 74
306
 0
VERTEX
 8
7
 10
0
 20
0
 30
0
 70
128
 71
124
 72
296
 73
297
 74
297
 0
VERTEX
 8
7
 10
0
 20
0
 30
0
 70
128
 71
124
 72
297
 73
298
 74
298
 0
VERTEX
 8
7
 10
0
 20
0
 30
0
 70
128
 71
124
 72
305
 73
306
 74
306
 0
VERTEX
 8
7
 10
0
 20
0
 30
0
 70
128
 71
125
 72
127
 73
130
 74
130
 0
VERTEX
 8
7
 10
0
 20
0
 30
0
 70
128
 71
128
 72
126
 73
300
 74
300
 0
VERTEX
 8
7
 10
0
 20
0
 30
0
 70
128
 71
126
 72
298
 73
299
 74
299
 0
VERTEX
 8
7
 10
0
 20
0
 30
0
 70
128
 71
126
 72
299
 73
300
 74
300
 0
VERTEX
 8
7
 10
0
 20
0
 30
0
 70
128
 71
131
 72
129
 73
344
 74
344
 0
VERTEX
 8
7
 10
0
 20
0
 30
0
 70
128
 71
129
 72
301
 73
343
 74
343
 0
VERTEX
 8
7
 10
0
 20
0
 30
0
 70
128
 71
129
 72
343
 73
344
 74
344
 0
VERTEX
 8
7
 10
0
 20
0
 30
0
 70
128
 71
134
 72
132
 73
345
 74
345
 0
VERTEX
 8
7
 10
0
 20
0
 30
0
 70
128
 71
137
 72
134
 73
341
 74
341
 0
VERTEX
 8
7
 10
0
 20
0
 30
0
 70
128
 71
341
 72
134
 73
342
 74
342
 0
VERTEX
 8
7
 10
0
 20
0
 30
0
 70
128
 71
342
 72
134
 73
345
 74
345
 0
VERTEX
 8
7
 10
0
 20
0
 30
0
 70
128
 71
135
 72
138
 73
141
 74
141
 0
VERTEX
 8
7
 10
0
 20
0
 30
0
 70
128
 71
140
 72
136
 73
330
 74
330
 0
VERTEX
 8
7
 10
0
 20
0
 30
0
 70
128
 71
330
 72
136
 73
340
 74
340
 0
VERTEX
 8
7
 10
0
 20
0
 30
0
 70
128
 71
142
 72
139
 73
288
 74
288
 0
VERTEX
 8
7
 10
0
 20
0
 30
0
 70
128
 71
289
 72
140
 73
330
 74
330
 0
VERTEX
 8
7
 10
0
 20
0
 30
0
 70
128
 71
144
 72
142
 73
290
 74
290
 0
VERTEX
 8
7
 10
0
 20
0
 30
0
 70
128
 71
142
 72
288
 73
290
 74
290
 0
VERTEX
 8
7
 10
0
 20
0
 30
0
 70
128
 71
146
 72
144
 73
308
 74
308
 0
VERTEX
 8
7
 10
0
 20
0
 30
0
 70
128
 71
144
 72
290
 73
291
 74
291
 0
VERTEX
 8
7
 10
0
 20
0
 30
0
 70
128
 71
144
 72
291
 73
292
 74
292
 0
VERTEX
 8
7
 10
0
 20
0
 30
0
 70
128
 71
144
 72
292
 73
293
 74
293
 0
VERTEX
 8
7
 10
0
 20
0
 30
0
 70
128
 71
144
 72
293
 73
294
 74
294
 0
VERTEX
 8
7
 10
0
 20
0
 30
0
 70
128
 71
144
 72
294
 73
307
 74
307
 0
VERTEX
 8
7
 10
0
 20
0
 30
0
 70
128
 71
144
 72
307
 73
308
 74
308
 0
VERTEX
 8
7
 10
0
 20
0
 30
0
 70
128
 71
149
 72
146
 73
310
 74
310
 0
VERTEX
 8
7
 10
0
 20
0
 30
0
 70
128
 71
146
 72
308
 73
309
 74
309
 0
VERTEX
 8
7
 10
0
 20
0
 30
0
 70
128
 71
146
 72
309
 73
310
 74
310
 0
VERTEX
 8
7
 10
0
 20
0
 30
0
 70
128
 71
152
 72
148
 73
261
 74
261
 0
VERTEX
 8
7
 10
0
 20
0
 30
0
 70
128
 71
262
 72
149
 73
310
 74
310
 0
VERTEX
 8
7
 10
0
 20
0
 30
0
 70
128
 71
154
 72
151
 73
172
 74
172
 0
VERTEX
 8
7
 10
0
 20
0
 30
0
 70
128
 71
173
 72
152
 73
259
 74
259
 0
VERTEX
 8
7
 10
0
 20
0
 30
0
 70
128
 71
152
 72
256
 73
258
 74
258
 0
VERTEX
 8
7
 10
0
 20
0
 30
0
 70
128
 71
256
 72
152
 73
277
 74
277
 0
VERTEX
 8
7
 10
0
 20
0
 30
0
 70
128
 71
152
 72
258
 73
259
 74
259
 0
VERTEX
 8
7
 10
0
 20
0
 30
0
 70
128
 71
152
 72
261
 73
263
 74
263
 0
VERTEX
 8
7
 10
0
 20
0
 30
0
 70
128
 71
152
 72
263
 73
264
 74
264
 0
VERTEX
 8
7
 10
0
 20
0
 30
0
 70
128
 71
152
 72
264
 73
265
 74
265
 0
VERTEX
 8
7
 10
0
 20
0
 30
0
 70
128
 71
152
 72
265
 73
281
 74
281
 0
VERTEX
 8
7
 10
0
 20
0
 30
0
 70
128
 71
152
 72
267
 73
268
 74
268
 0
VERTEX
 8
7
 10
0
 20
0
 30
0
 70
128
 71
267
 72
152
 73
280
 74
280
 0
VERTEX
 8
7
 10
0
 20
0
 30
0
 70
128
 71
152
 72
268
 73
269
 74
269
 0
VERTEX
 8
7
 10
0
 20
0
 30
0
 70
128
 71
152
 72
269
 73
270
 74
270
 0
VERTEX
 8
7
 10
0
 20
0
 30
0
 70
128
 71
152
 72
270
 73
271
 74
271
 0
VERTEX
 8
7
 10
0
 20
0
 30
0
 70
128
 71
152
 72
271
 73
272
 74
272
 0
VERTEX
 8
7
 10
0
 20
0
 30
0
 70
128
 71
152
 72
272
 73
273
 74
273
 0
VERTEX
 8
7
 10
0
 20
0
 30
0
 70
128
 71
152
 72
273
 73
274
 74
274
 0
VERTEX
 8
7
 10
0
 20
0
 30
0
 70
128
 71
152
 72
274
 73
275
 74
275
 0
VERTEX
 8
7
 10
0
 20
0
 30
0
 70
128
 71
152
 72
275
 73
276
 74
276
 0
VERTEX
 8
7
 10
0
 20
0
 30
0
 70
128
 71
152
 72
276
 73
277
 74
277
 0
VERTEX
 8
7
 10
0
 20
0
 30
0
 70
128
 71
280
 72
152
 73
287
 74
287
 0
VERTEX
 8
7
 10
0
 20
0
 30
0
 70
128
 71
152
 72
281
 73
282
 74
282
 0
VERTEX
 8
7
 10
0
 20
0
 30
0
 70
128
 71
152
 72
282
 73
283
 74
283
 0
VERTEX
 8
7
 10
0
 20
0
 30
0
 70
128
 71
152
 72
283
 73
284
 74
284
 0
VERTEX
 8
7
 10
0
 20
0
 30
0
 70
128
 71
152
 72
284
 73
285
 74
285
 0
VERTEX
 8
7
 10
0
 20
0
 30
0
 70
128
 71
152
 72
285
 73
286
 74
286
 0
VERTEX
 8
7
 10
0
 20
0
 30
0
 70
128
 71
152
 72
286
 73
287
 74
287
 0
VERTEX
 8
7
 10
0
 20
0
 30
0
 70
128
 71
156
 72
154
 73
177
 74
177
 0
VERTEX
 8
7
 10
0
 20
0
 30
0
 70
128
 71
154
 72
172
 73
175
 74
175
 0
VERTEX
 8
7
 10
0
 20
0
 30
0
 70
128
 71
154
 72
175
 73
177
 74
177
 0
VERTEX
 8
7
 10
0
 20
0
 30
0
 70
128
 71
155
 72
157
 73
162
 74
162
 0
VERTEX
 8
7
 10
0
 20
0
 30
0
 70
128
 71
158
 72
156
 73
252
 74
252
 0
VERTEX
 8
7
 10
0
 20
0
 30
0
 70
128
 71
155
 72
162
 73
165
 74
165
 0
VERTEX
 8
7
 10
0
 20
0
 30
0
 70
128
 71
156
 72
177
 73
179
 74
179
 0
VERTEX
 8
7
 10
0
 20
0
 30
0
 70
128
 71
156
 72
179
 73
246
 74
246
 0
VERTEX
 8
7
 10
0
 20
0
 30
0
 70
128
 71
156
 72
246
 73
248
 74
248
 0
VERTEX
 8
7
 10
0
 20
0
 30
0
 70
128
 71
156
 72
248
 73
250
 74
250
 0
VERTEX
 8
7
 10
0
 20
0
 30
0
 70
128
 71
156
 72
250
 73
252
 74
252
 0
VERTEX
 8
7
 10
0
 20
0
 30
0
 70
128
 71
157
 72
159
 73
162
 74
162
 0
VERTEX
 8
7
 10
0
 20
0
 30
0
 70
128
 71
160
 72
158
 73
170
 74
170
 0
VERTEX
 8
7
 10
0
 20
0
 30
0
 70
128
 71
158
 72
167
 73
170
 74
170
 0
VERTEX
 8
7
 10
0
 20
0
 30
0
 70
128
 71
167
 72
158
 73
252
 74
252
 0
VERTEX
 8
7
 10
0
 20
0
 30
0
 70
128
 71
163
 72
161
 73
382
 74
382
 0
VERTEX
 8
7
 10
0
 20
0
 30
0
 70
128
 71
161
 72
171
 73
376
 74
376
 0
VERTEX
 8
7
 10
0
 20
0
 30
0
 70
128
 71
161
 72
376
 73
382
 74
382
 0
VERTEX
 8
7
 10
0
 20
0
 30
0
 70
128
 71
166
 72
164
 73
383
 74
383
 0
VERTEX
 8
7
 10
0
 20
0
 30
0
 70
128
 71
381
 72
166
 73
383
 74
383
 0
VERTEX
 8
7
 10
0
 20
0
 30
0
 70
128
 71
166
 72
381
 73
402
 74
402
 0
VERTEX
 8
7
 10
0
 20
0
 30
0
 70
128
 71
171
 72
168
 73
376
 74
376
 0
VERTEX
 8
7
 10
0
 20
0
 30
0
 70
128
 71
169
 72
253
 73
385
 74
385
 0
VERTEX
 8
7
 10
0
 20
0
 30
0
 70
128
 71
168
 72
374
 73
376
 74
376
 0
VERTEX
 8
7
 10
0
 20
0
 30
0
 70
128
 71
374
 72
168
 73
384
 74
384
 0
VERTEX
 8
7
 10
0
 20
0
 30
0
 70
128
 71
176
 72
174
 73
320
 74
320
 0
VERTEX
 8
7
 10
0
 20
0
 30
0
 70
128
 71
174
 72
260
 73
320
 74
320
 0
VERTEX
 8
7
 10
0
 20
0
 30
0
 70
128
 71
178
 72
176
 73
321
 74
321
 0
VERTEX
 8
7
 10
0
 20
0
 30
0
 70
128
 71
176
 72
320
 73
321
 74
321
 0
VERTEX
 8
7
 10
0
 20
0
 30
0
 70
128
 71
180
 72
178
 73
321
 74
321
 0
VERTEX
 8
7
 10
0
 20
0
 30
0
 70
128
 71
179
 72
181
 73
244
 74
244
 0
VERTEX
 8
7
 10
0
 20
0
 30
0
 70
128
 71
182
 72
180
 73
322
 74
322
 0
VERTEX
 8
7
 10
0
 20
0
 30
0
 70
128
 71
179
 72
244
 73
246
 74
246
 0
VERTEX
 8
7
 10
0
 20
0
 30
0
 70
128
 71
180
 72
321
 73
322
 74
322
 0
VERTEX
 8
7
 10
0
 20
0
 30
0
 70
128
 71
181
 72
183
 73
240
 74
240
 0
VERTEX
 8
7
 10
0
 20
0
 30
0
 70
128
 71
184
 72
182
 73
322
 74
322
 0
VERTEX
 8
7
 10
0
 20
0
 30
0
 70
128
 71
181
 72
240
 73
242
 74
242
 0
VERTEX
 8
7
 10
0
 20
0
 30
0
 70
128
 71
181
 72
242
 73
244
 74
244
 0
VERTEX
 8
7
 10
0
 20
0
 30
0
 70
128
 71
183
 72
185
 73
237
 74
237
 0
VERTEX
 8
7
 10
0
 20
0
 30
0
 70
128
 71
186
 72
184
 73
323
 74
323
 0
VERTEX
 8
7
 10
0
 20
0
 30
0
 70
128
 71
183
 72
237
 73
240
 74
240
 0
VERTEX
 8
7
 10
0
 20
0
 30
0
 70
128
 71
184
 72
322
 73
323
 74
323
 0
VERTEX
 8
7
 10
0
 20
0
 30
0
 70
128
 71
185
 72
187
 73
235
 74
235
 0
VERTEX
 8
7
 10
0
 20
0
 30
0
 70
128
 71
188
 72
186
 73
323
 74
323
 0
VERTEX
 8
7
 10
0
 20
0
 30
0
 70
128
 71
185
 72
235
 73
237
 74
237
 0
VERTEX
 8
7
 10
0
 20
0
 30
0
 70
128
 71
187
 72
189
 73
232
 74
232
 0
VERTEX
 8
7
 10
0
 20
0
 30
0
 70
128
 71
190
 72
188
 73
324
 74
324
 0
VERTEX
 8
7
 10
0
 20
0
 30
0
 70
128
 71
187
 72
232
 73
235
 74
235
 0
VERTEX
 8
7
 10
0
 20
0
 30
0
 70
128
 71
188
 72
323
 73
324
 74
324
 0
VERTEX
 8
7
 10
0
 20
0
 30
0
 70
128
 71
189
 72
191
 73
230
 74
230
 0
VERTEX
 8
7
 10
0
 20
0
 30
0
 70
128
 71
192
 72
190
 73
325
 74
325
 0
VERTEX
 8
7
 10
0
 20
0
 30
0
 70
128
 71
189
 72
230
 73
232
 74
232
 0
VERTEX
 8
7
 10
0
 20
0
 30
0
 70
128
 71
190
 72
324
 73
325
 74
325
 0
VERTEX
 8
7
 10
0
 20
0
 30
0
 70
128
 71
191
 72
193
 73
230
 74
230
 0
VERTEX
 8
7
 10
0
 20
0
 30
0
 70
128
 71
194
 72
192
 73
325
 74
325
 0
VERTEX
 8
7
 10
0
 20
0
 30
0
 70
128
 71
193
 72
195
 73
227
 74
227
 0
VERTEX
 8
7
 10
0
 20
0
 30
0
 70
128
 71
196
 72
194
 73
326
 74
326
 0
VERTEX
 8
7
 10
0
 20
0
 30
0
 70
128
 71
193
 72
227
 73
230
 74
230
 0
VERTEX
 8
7
 10
0
 20
0
 30
0
 70
128
 71
194
 72
325
 73
326
 74
326
 0
VERTEX
 8
7
 10
0
 20
0
 30
0
 70
128
 71
195
 72
197
 73
223
 74
223
 0
VERTEX
 8
7
 10
0
 20
0
 30
0
 70
128
 71
198
 72
196
 73
326
 74
326
 0
VERTEX
 8
7
 10
0
 20
0
 30
0
 70
128
 71
195
 72
223
 73
225
 74
225
 0
VERTEX
 8
7
 10
0
 20
0
 30
0
 70
128
 71
195
 72
225
 73
227
 74
227
 0
VERTEX
 8
7
 10
0
 20
0
 30
0
 70
128
 71
200
 72
198
 73
327
 74
327
 0
VERTEX
 8
7
 10
0
 20
0
 30
0
 70
128
 71
197
 72
219
 73
221
 74
221
 0
VERTEX
 8
7
 10
0
 20
0
 30
0
 70
128
 71
197
 72
221
 73
223
 74
223
 0
VERTEX
 8
7
 10
0
 20
0
 30
0
 70
128
 71
198
 72
326
 73
327
 74
327
 0
VERTEX
 8
7
 10
0
 20
0
 30
0
 70
128
 71
202
 72
200
 73
327
 74
327
 0
VERTEX
 8
7
 10
0
 20
0
 30
0
 70
128
 71
204
 72
202
 73
328
 74
328
 0
VERTEX
 8
7
 10
0
 20
0
 30
0
 70
128
 71
202
 72
327
 73
328
 74
328
 0
VERTEX
 8
7
 10
0
 20
0
 30
0
 70
128
 71
207
 72
204
 73
328
 74
328
 0
VERTEX
 8
7
 10
0
 20
0
 30
0
 70
128
 71
315
 72
207
 73
329
 74
329
 0
VERTEX
 8
7
 10
0
 20
0
 30
0
 70
128
 71
207
 72
328
 73
329
 74
329
 0
VERTEX
 8
7
 10
0
 20
0
 30
0
 70
128
 71
212
 72
209
 73
390
 74
390
 0
VERTEX
 8
7
 10
0
 20
0
 30
0
 70
128
 71
209
 72
378
 73
390
 74
390
 0
VERTEX
 8
7
 10
0
 20
0
 30
0
 70
128
 71
214
 72
211
 73
359
 74
359
 0
VERTEX
 8
7
 10
0
 20
0
 30
0
 70
128
 71
360
 72
212
 73
392
 74
392
 0
VERTEX
 8
7
 10
0
 20
0
 30
0
 70
128
 71
212
 72
390
 73
392
 74
392
 0
VERTEX
 8
7
 10
0
 20
0
 30
0
 70
128
 71
216
 72
214
 73
359
 74
359
 0
VERTEX
 8
7
 10
0
 20
0
 30
0
 70
128
 71
218
 72
216
 73
359
 74
359
 0
VERTEX
 8
7
 10
0
 20
0
 30
0
 70
128
 71
220
 72
218
 73
361
 74
361
 0
VERTEX
 8
7
 10
0
 20
0
 30
0
 70
128
 71
218
 72
359
 73
361
 74
361
 0
VERTEX
 8
7
 10
0
 20
0
 30
0
 70
128
 71
222
 72
220
 73
362
 74
362
 0
VERTEX
 8
7
 10
0
 20
0
 30
0
 70
128
 71
220
 72
361
 73
362
 74
362
 0
VERTEX
 8
7
 10
0
 20
0
 30
0
 70
128
 71
224
 72
222
 73
362
 74
362
 0
VERTEX
 8
7
 10
0
 20
0
 30
0
 70
128
 71
226
 72
224
 73
363
 74
363
 0
VERTEX
 8
7
 10
0
 20
0
 30
0
 70
128
 71
224
 72
362
 73
363
 74
363
 0
VERTEX
 8
7
 10
0
 20
0
 30
0
 70
128
 71
228
 72
226
 73
363
 74
363
 0
VERTEX
 8
7
 10
0
 20
0
 30
0
 70
128
 71
231
 72
229
 73
399
 74
399
 0
VERTEX
 8
7
 10
0
 20
0
 30
0
 70
128
 71
229
 72
364
 73
397
 74
397
 0
VERTEX
 8
7
 10
0
 20
0
 30
0
 70
128
 71
229
 72
397
 73
399
 74
399
 0
VERTEX
 8
7
 10
0
 20
0
 30
0
 70
128
 71
234
 72
231
 73
354
 74
354
 0
VERTEX
 8
7
 10
0
 20
0
 30
0
 70
128
 71
354
 72
231
 73
355
 74
355
 0
VERTEX
 8
7
 10
0
 20
0
 30
0
 70
128
 71
355
 72
231
 73
399
 74
399
 0
VERTEX
 8
7
 10
0
 20
0
 30
0
 70
128
 71
236
 72
233
 73
351
 74
351
 0
VERTEX
 8
7
 10
0
 20
0
 30
0
 70
128
 71
352
 72
234
 73
353
 74
353
 0
VERTEX
 8
7
 10
0
 20
0
 30
0
 70
128
 71
353
 72
234
 73
354
 74
354
 0
VERTEX
 8
7
 10
0
 20
0
 30
0
 70
128
 71
238
 72
236
 73
356
 74
356
 0
VERTEX
 8
7
 10
0
 20
0
 30
0
 70
128
 71
236
 72
351
 73
358
 74
358
 0
VERTEX
 8
7
 10
0
 20
0
 30
0
 70
128
 71
356
 72
236
 73
357
 74
357
 0
VERTEX
 8
7
 10
0
 20
0
 30
0
 70
128
 71
357
 72
236
 73
358
 74
358
 0
VERTEX
 8
7
 10
0
 20
0
 30
0
 70
128
 71
241
 72
239
 73
389
 74
389
 0
VERTEX
 8
7
 10
0
 20
0
 30
0
 70
128
 71
238
 72
356
 73
367
 74
367
 0
VERTEX
 8
7
 10
0
 20
0
 30
0
 70
128
 71
238
 72
367
 73
369
 74
369
 0
VERTEX
 8
7
 10
0
 20
0
 30
0
 70
128
 71
238
 72
369
 73
388
 74
388
 0
VERTEX
 8
7
 10
0
 20
0
 30
0
 70
128
 71
243
 72
241
 73
389
 74
389
 0
VERTEX
 8
7
 10
0
 20
0
 30
0
 70
128
 71
245
 72
243
 73
389
 74
389
 0
VERTEX
 8
7
 10
0
 20
0
 30
0
 70
128
 71
247
 72
245
 73
387
 74
387
 0
VERTEX
 8
7
 10
0
 20
0
 30
0
 70
128
 71
387
 72
245
 73
389
 74
389
 0
VERTEX
 8
7
 10
0
 20
0
 30
0
 70
128
 71
249
 72
247
 73
386
 74
386
 0
VERTEX
 8
7
 10
0
 20
0
 30
0
 70
128
 71
386
 72
247
 73
387
 74
387
 0
VERTEX
 8
7
 10
0
 20
0
 30
0
 70
128
 71
251
 72
249
 73
386
 74
386
 0
VERTEX
 8
7
 10
0
 20
0
 30
0
 70
128
 71
253
 72
251
 73
385
 74
385
 0
VERTEX
 8
7
 10
0
 20
0
 30
0
 70
128
 71
385
 72
251
 73
386
 74
386
 0
VERTEX
 8
7
 10
0
 20
0
 30
0
 70
128
 71
254
 72
256
 73
278
 74
278
 0
VERTEX
 8
7
 10
0
 20
0
 30
0
 70
128
 71
257
 72
255
 73
319
 74
319
 0
VERTEX
 8
7
 10
0
 20
0
 30
0
 70
128
 71
266
 72
254
 73
279
 74
279
 0
SEQEND
 0
POLYLINE
 8
6
 66
1
 10
0.0
 20
0.0
 30
0.0
 70
64
 71
6
 72
4
 0
VERTEX
 8
6
 10
-44.1972
 20
16.71
 30
10.5193
 70
192
 0
VERTEX
 8
6
 10
-45.1677
 20
16.71
 30
11.7359
 70
192
 0
VERTEX
 8
6
 10
-46.5703
 20
16.71
 30
12.412
 70
192
 0
VERTEX
 8
6
 10
-48.1297
 20
16.71
 30
12.412
 70
192
 0
VERTEX
 8
6
 10
-49.5323
 20
16.71
 30
11.7359
 70
192
 0
VERTEX
 8
6
 10
-50.5028
 20
16.71
 30
10.5193
 70
192
 0
VERTEX
 8
6
 10
0
 20
0
 30
0
 70
128
 71
2
 72
1
 73
6
 74
6
 0
VERTEX
 8
6
 10
0
 20
0
 30
0
 70
128
 71
3
 72
2
 73
5
 74
5
 0
VERTEX
 8
6
 10
0
 20
0
 30
0
 70
128
 71
5
 72
2
 73
6
 74
6
 0
VERTEX
 8
6
 10
0
 20
0
 30
0
 70
128
 71
4
 72
3
 73
5
 74
5
 0
SEQEND
 0
POLYLINE
 8
5
 66
1
 10
0.0
 20
0.0
 30
0.0
 70
64
 71
37
 72
31
 0
VERTEX
 8
5
 10
-49.242
 20
6.9417
 30
9.9112
 70
192
 0
VERTEX
 8
5
 10
-49.242
 20
6.9417
 30
9.9112
 70
192
 0
VERTEX
 8
5
 10
-48.6593
 20
6.9417
 30
10.6418
 70
192
 0
VERTEX
 8
5
 10
-48.6593
 20
6.9417
 30
10.6418
 70
192
 0
VERTEX
 8
5
 10
-47.8173
 20
6.9417
 30
11.0473
 70
192
 0
VERTEX
 8
5
 10
-47.8173
 20
6.9417
 30
11.0473
 70
192
 0
VERTEX
 8
5
 10
-46.8827
 20
6.9417
 30
11.0473
 70
192
 0
VERTEX
 8
5
 10
-46.8827
 20
6.9417
 30
11.0473
 70
192
 0
VERTEX
 8
5
 10
-46.0407
 20
6.9417
 30
10.6418
 70
192
 0
VERTEX
 8
5
 10
-46.0407
 20
6.9417
 30
10.6418
 70
192
 0
VERTEX
 8
5
 10
-45.458
 20
6.9417
 30
9.9112
 70
192
 0
VERTEX
 8
5
 10
-45.458
 20
6.9417
 30
9.9112
 70
192
 0
VERTEX
 8
5
 10
-44.1968
 20
7.75
 30
10.5189
 70
192
 0
VERTEX
 8
5
 10
-44.1968
 20
7.75
 30
10.5189
 70
192
 0
VERTEX
 8
5
 10
-45.1681
 20
7.75
 30
11.7367
 70
192
 0
VERTEX
 8
5
 10
-45.1681
 20
7.75
 30
11.7367
 70
192
 0
VERTEX
 8
5
 10
-46.5713
 20
7.75
 30
12.4123
 70
192
 0
VERTEX
 8
5
 10
-46.5713
 20
7.75
 30
12.4123
 70
192
 0
VERTEX
 8
5
 10
-48.1287
 20
7.75
 30
12.4123
 70
192
 0
VERTEX
 8
5
 10
-48.1287
 20
7.75
 30
12.4123
 70
192
 0
VERTEX
 8
5
 10
-49.5319
 20
7.75
 30
11.7367
 70
192
 0
VERTEX
 8
5
 10
-49.5319
 20
7.75
 30
11.7367
 70
192
 0
VERTEX
 8
5
 10
-50.5032
 20
7.75
 30
10.5189
 70
192
 0
VERTEX
 8
5
 10
-50.5032
 20
7.75
 30
10.5189
 70
192
 0
VERTEX
 8
5
 10
-44.1972
 20
16.71
 30
10.5193
 70
192
 0
VERTEX
 8
5
 10
-45.1677
 20
16.71
 30
11.7359
 70
192
 0
VERTEX
 8
5
 10
-46.5703
 20
16.71
 30
12.412
 70
192
 0
VERTEX
 8
5
 10
-48.1297
 20
16.71
 30
12.412
 70
192
 0
VERTEX
 8
5
 10
-49.5323
 20
16.71
 30
11.7359
 70
192
 0
VERTEX
 8
5
 10
-50.5028
 20
16.71
 30
10.5193
 70
192
 0
VERTEX
 8
5
 10
-49.45
 20
0.25
 30
9
 70
192
 0
VERTEX
 8
5
 10
-45.4581
 20
0.25
 30
9.9114
 70
192
 0
VERTEX
 8
5
 10
-46.0409
 20
0.25
 30
10.642
 70
192
 0
VERTEX
 8
5
 10
-46.8828
 20
0.25
 30
11.0474
 70
192
 0
VERTEX
 8
5
 10
-47.8172
 20
0.25
 30
11.0474
 70
192
 0
VERTEX
 8
5
 10
-48.6591
 20
0.25
 30
10.642
 70
192
 0
VERTEX
 8
5
 10
-49.2419
 20
0.25
 30
9.9114
 70
192
 0
VERTEX
 8
5
 10
0
 20
0
 30
0
 70
128
 71
1
 72
3
 73
23
 74
23
 0
VERTEX
 8
5
 10
0
 20
0
 30
0
 70
128
 71
4
 72
2
 73
37
 74
37
 0
VERTEX
 8
5
 10
0
 20
0
 30
0
 70
128
 71
2
 72
31
 73
37
 74
37
 0
VERTEX
 8
5
 10
0
 20
0
 30
0
 70
128
 71
3
 72
5
 73
21
 74
21
 0
VERTEX
 8
5
 10
0
 20
0
 30
0
 70
128
 71
6
 72
4
 73
36
 74
36
 0
VERTEX
 8
5
 10
0
 20
0
 30
0
 70
128
 71
3
 72
21
 73
23
 74
23
 0
VERTEX
 8
5
 10
0
 20
0
 30
0
 70
128
 71
36
 72
4
 73
37
 74
37
 0
VERTEX
 8
5
 10
0
 20
0
 30
0
 70
128
 71
5
 72
7
 73
17
 74
17
 0
VERTEX
 8
5
 10
0
 20
0
 30
0
 70
128
 71
8
 72
6
 73
35
 74
35
 0
VERTEX
 8
5
 10
0
 20
0
 30
0
 70
128
 71
5
 72
17
 73
19
 74
19
 0
VERTEX
 8
5
 10
0
 20
0
 30
0
 70
128
 71
5
 72
19
 73
21
 74
21
 0
VERTEX
 8
5
 10
0
 20
0
 30
0
 70
128
 71
35
 72
6
 73
36
 74
36
 0
VERTEX
 8
5
 10
0
 20
0
 30
0
 70
128
 71
7
 72
9
 73
15
 74
15
 0
VERTEX
 8
5
 10
0
 20
0
 30
0
 70
128
 71
10
 72
8
 73
33
 74
33
 0
VERTEX
 8
5
 10
0
 20
0
 30
0
 70
128
 71
7
 72
15
 73
17
 74
17
 0
VERTEX
 8
5
 10
0
 20
0
 30
0
 70
128
 71
33
 72
8
 73
34
 74
34
 0
VERTEX
 8
5
 10
0
 20
0
 30
0
 70
128
 71
34
 72
8
 73
35
 74
35
 0
VERTEX
 8
5
 10
0
 20
0
 30
0
 70
128
 71
9
 72
11
 73
13
 74
13
 0
VERTEX
 8
5
 10
0
 20
0
 30
0
 70
128
 71
12
 72
10
 73
32
 74
32
 0
VERTEX
 8
5
 10
0
 20
0
 30
0
 70
128
 71
9
 72
13
 73
15
 74
15
 0
VERTEX
 8
5
 10
0
 20
0
 30
0
 70
128
 71
32
 72
10
 73
33
 74
33
 0
VERTEX
 8
5
 10
0
 20
0
 30
0
 70
128
 71
16
 72
14
 73
26
 74
26
 0
VERTEX
 8
5
 10
0
 20
0
 30
0
 70
128
 71
14
 72
25
 73
26
 74
26
 0
VERTEX
 8
5
 10
0
 20
0
 30
0
 70
128
 71
18
 72
16
 73
27
 74
27
 0
VERTEX
 8
5
 10
0
 20
0
 30
0
 70
128
 71
16
 72
26
 73
27
 74
27
 0
VERTEX
 8
5
 10
0
 20
0
 30
0
 70
128
 71
20
 72
18
 73
27
 74
27
 0
VERTEX
 8
5
 10
0
 20
0
 30
0
 70
128
 71
22
 72
20
 73
28
 74
28
 0
VERTEX
 8
5
 10
0
 20
0
 30
0
 70
128
 71
20
 72
27
 73
28
 74
28
 0
VERTEX
 8
5
 10
0
 20
0
 30
0
 70
128
 71
24
 72
22
 73
29
 74
29
 0
VERTEX
 8
5
 10
0
 20
0
 30
0
 70
128
 71
22
 72
28
 73
29
 74
29
 0
VERTEX
 8
5
 10
0
 20
0
 30
0
 70
128
 71
24
 72
29
 73
30
 74
30
 0
SEQEND
 0
POLYLINE
 8
4
 66
1
 10
0.0
 20
0.0
 30
0.0
 70
64
 71
9
 72
5
 0
VERTEX
 8
4
 10
-50.85
 20
16.71
 30
9
 70
192
 0
VERTEX
 8
4
 10
-50.5028
 20
16.71
 30
7.4807
 70
192
 0
VERTEX
 8
4
 10
-49.5323
 20
16.71
 30
6.2641
 70
192
 0
VERTEX
 8
4
 10
-48.1297
 20
16.71
 30
5.588
 70
192
 0
VERTEX
 8
4
 10
-46.5703
 20
16.71
 30
5.588
 70
192
 0
VERTEX
 8
4
 10
-45.1677
 20
16.71
 30
6.2641
 70
192
 0
VERTEX
 8
4
 10
-44.1972
 20
16.71
 30
7.4807
 70
192
 0
VERTEX
 8
4
 10
-44.1972
 20
16.71
 30
10.5193
 70
192
 0
VERTEX
 8
4
 10
-50.5028
 20
16.71
 30
10.5193
 70
192
 0
VERTEX
 8
4
 10
0
 20
0
 30
0
 70
128
 71
8
 72
1
 73
9
 74
9
 0
VERTEX
 8
4
 10
0
 20
0
 30
0
 70
128
 71
3
 72
2
 73
7
 74
7
 0
VERTEX
 8
4
 10
0
 20
0
 30
0
 70
128
 71
4
 72
3
 73
6
 74
6
 0
VERTEX
 8
4
 10
0
 20
0
 30
0
 70
128
 71
6
 72
3
 73
7
 74
7
 0
VERTEX
 8
4
 10
0
 20
0
 30
0
 70
128
 71
5
 72
4
 73
6
 74
6
 0
SEQEND
 0
POLYLINE
 8
3
 66
1
 10
0.0
 20
0.0
 30
0.0
 70
64
 71
3
 72
1
 0
VERTEX
 8
3
 10
-43.85
 20
16.71
 30
9
 70
192
 0
VERTEX
 8
3
 10
-44.1968
 20
7.75
 30
10.5189
 70
192
 0
VERTEX
 8
3
 10
-44.1972
 20
16.71
 30
10.5193
 70
192
 0
VERTEX
 8
3
 10
0
 20
0
 30
0
 70
128
 71
2
 72
1
 73
3
 74
3
 0
SEQEND
 0
POLYLINE
 8
2
 66
1
 10
0.0
 20
0.0
 30
0.0
 70
64
 71
5
 72
3
 0
VERTEX
 8
2
 10
-43.85
 20
16.71
 30
9
 70
192
 0
VERTEX
 8
2
 10
-50.85
 20
16.71
 30
9
 70
192
 0
VERTEX
 8
2
 10
-50.5028
 20
16.71
 30
7.4807
 70
192
 0
VERTEX
 8
2
 10
-44.1972
 20
16.71
 30
7.4807
 70
192
 0
VERTEX
 8
2
 10
-44.1972
 20
16.71
 30
10.5193
 70
192
 0
VERTEX
 8
2
 10
0
 20
0
 30
0
 70
128
 71
2
 72
1
 73
3
 74
3
 0
VERTEX
 8
2
 10
0
 20
0
 30
0
 70
128
 71
1
 72
2
 73
5
 74
5
 0
VERTEX
 8
2
 10
0
 20
0
 30
0
 70
128
 71
3
 72
1
 73
4
 74
4
 0
SEQEND
 0
POLYLINE
 8
1
 66
1
 10
0.0
 20
0.0
 30
0.0
 70
64
 71
318
 72
258
 0
VERTEX
 8
1
 10
-55.45
 20
-4.25
 30
0
 70
192
 0
VERTEX
 8
1
 10
-55.45
 20
-4.25
 30
0
 70
192
 0
VERTEX
 8
1
 10
-55.45
 20
-4.25
 30
0
 70
192
 0
VERTEX
 8
1
 10
-53.7
 20
-4.25
 30
0
 70
192
 0
VERTEX
 8
1
 10
-53.7
 20
-4.25
 30
0
 70
192
 0
VERTEX
 8
1
 10
-53.7
 20
-4.25
 30
0
 70
192
 0
VERTEX
 8
1
 10
-53.7
 20
-8.25
 30
0
 70
192
 0
VERTEX
 8
1
 10
-53.7
 20
-8.25
 30
0
 70
192
 0
VERTEX
 8
1
 10
-53.7
 20
-8.25
 30
0
 70
192
 0
VERTEX
 8
1
 10
53.7
 20
-8.25
 30
0
 70
192
 0
VERTEX
 8
1
 10
53.7
 20
-8.25
 30
0
 70
192
 0
VERTEX
 8
1
 10
53.7
 20
-8.25
 30
0
 70
192
 0
VERTEX
 8
1
 10
53.7
 20
-4.25
 30
0
 70
192
 0
VERTEX
 8
1
 10
53.7
 20
-4.25
 30
0
 70
192
 0
VERTEX
 8
1
 10
53.7
 20
-4.25
 30
0
 70
192
 0
VERTEX
 8
1
 10
55.45
 20
-4.25
 30
0
 70
192
 0
VERTEX
 8
1
 10
55.45
 20
-4.25
 30
0
 70
192
 0
VERTEX
 8
1
 10
55.45
 20
-4.25
 30
0
 70
192
 0
VERTEX
 8
1
 10
55.45
 20
17.25
 30
0
 70
192
 0
VERTEX
 8
1
 10
55.45
 20
17.25
 30
0
 70
192
 0
VERTEX
 8
1
 10
55.45
 20
17.25
 30
0
 70
192
 0
VERTEX
 8
1
 10
-55.45
 20
17.25
 30
0
 70
192
 0
VERTEX
 8
1
 10
-55.45
 20
17.25
 30
0
 70
192
 0
VERTEX
 8
1
 10
-55.45
 20
17.25
 30
0
 70
192
 0
VERTEX
 8
1
 10
-55.45
 20
17.25
 30
18
 70
192
 0
VERTEX
 8
1
 10
-55.45
 20
17.25
 30
18
 70
192
 0
VERTEX
 8
1
 10
-55.45
 20
17.25
 30
18
 70
192
 0
VERTEX
 8
1
 10
55.45
 20
17.25
 30
18
 70
192
 0
VERTEX
 8
1
 10
55.45
 20
17.25
 30
18
 70
192
 0
VERTEX
 8
1
 10
55.45
 20
17.25
 30
18
 70
192
 0
VERTEX
 8
1
 10
55.45
 20
-8.25
 30
18
 70
192
 0
VERTEX
 8
1
 10
55.45
 20
-8.25
 30
18
 70
192
 0
VERTEX
 8
1
 10
55.45
 20
-8.25
 30
18
 70
192
 0
VERTEX
 8
1
 10
53.7
 20
-8.25
 30
18
 70
192
 0
VERTEX
 8
1
 10
53.7
 20
-8.25
 30
18
 70
192
 0
VERTEX
 8
1
 10
53.7
 20
-8.25
 30
18
 70
192
 0
VERTEX
 8
1
 10
53.7
 20
-8.25
 30
18
 70
192
 0
VERTEX
 8
1
 10
-53.7
 20
-8.25
 30
18
 70
192
 0
VERTEX
 8
1
 10
-53.7
 20
-8.25
 30
18
 70
192
 0
VERTEX
 8
1
 10
-53.7
 20
-8.25
 30
18
 70
192
 0
VERTEX
 8
1
 10
-53.7
 20
-8.25
 30
18
 70
192
 0
VERTEX
 8
1
 10
-55.45
 20
-8.25
 30
18
 70
192
 0
VERTEX
 8
1
 10
-55.45
 20
-8.25
 30
18
 70
192
 0
VERTEX
 8
1
 10
-55.45
 20
-8.25
 30
18
 70
192
 0
VERTEX
 8
1
 10
55.7
 20
-8.25
 30
17.75
 70
192
 0
VERTEX
 8
1
 10
55.7
 20
-8.25
 30
17.75
 70
192
 0
VERTEX
 8
1
 10
55.7
 20
-8.25
 30
17.75
 70
192
 0
VERTEX
 8
1
 10
55.7
 20
17.25
 30
17.75
 70
192
 0
VERTEX
 8
1
 10
55.7
 20
17.25
 30
17.75
 70
192
 0
VERTEX
 8
1
 10
55.7
 20
17.25
 30
17.75
 70
192
 0
VERTEX
 8
1
 10
55.7
 20
17.25
 30
0.25
 70
192
 0
VERTEX
 8
1
 10
55.7
 20
17.25
 30
0.25
 70
192
 0
VERTEX
 8
1
 10
55.7
 20
17.25
 30
0.25
 70
192
 0
VERTEX
 8
1
 10
55.7
 20
-4.25
 30
0.25
 70
192
 0
VERTEX
 8
1
 10
55.7
 20
-4.25
 30
0.25
 70
192
 0
VERTEX
 8
1
 10
55.7
 20
-4.25
 30
0.25
 70
192
 0
VERTEX
 8
1
 10
55.7
 20
-4.25
 30
3.134
 70
192
 0
VERTEX
 8
1
 10
55.7
 20
-4.25
 30
3.134
 70
192
 0
VERTEX
 8
1
 10
55.7
 20
-4.25
 30
3.134
 70
192
 0
VERTEX
 8
1
 10
55.7
 20
-2.4529
 30
4.9017
 70
192
 0
VERTEX
 8
1
 10
55.7
 20
-2.4529
 30
4.9017
 70
192
 0
VERTEX
 8
1
 10
55.7
 20
-1.3858
 30
7.1855
 70
192
 0
VERTEX
 8
1
 10
55.7
 20
-1.3858
 30
7.1855
 70
192
 0
VERTEX
 8
1
 10
55.7
 20
-1.185
 30
9.6983
 70
192
 0
VERTEX
 8
1
 10
55.7
 20
-1.185
 30
9.6983
 70
192
 0
VERTEX
 8
1
 10
55.7
 20
-1.8738
 30
12.1232
 70
192
 0
VERTEX
 8
1
 10
55.7
 20
-1.8738
 30
12.1232
 70
192
 0
VERTEX
 8
1
 10
55.7
 20
-3.3674
 30
14.1539
 70
192
 0
VERTEX
 8
1
 10
55.7
 20
-3.3674
 30
14.1539
 70
192
 0
VERTEX
 8
1
 10
55.7
 20
-5.4758
 30
15.5356
 70
192
 0
VERTEX
 8
1
 10
55.7
 20
-5.4758
 30
15.5356
 70
192
 0
VERTEX
 8
1
 10
55.7
 20
-5.4758
 30
15.5356
 70
192
 0
VERTEX
 8
1
 10
55.7
 20
-8.25
 30
16.7132
 70
192
 0
VERTEX
 8
1
 10
55.7
 20
-8.25
 30
16.7132
 70
192
 0
VERTEX
 8
1
 10
55.7
 20
-8.25
 30
16.7132
 70
192
 0
VERTEX
 8
1
 10
-55.7
 20
17.25
 30
17.75
 70
192
 0
VERTEX
 8
1
 10
-55.7
 20
17.25
 30
17.75
 70
192
 0
VERTEX
 8
1
 10
-55.7
 20
17.25
 30
17.75
 70
192
 0
VERTEX
 8
1
 10
-55.7
 20
17.25
 30
0.25
 70
192
 0
VERTEX
 8
1
 10
-55.7
 20
17.25
 30
0.25
 70
192
 0
VERTEX
 8
1
 10
-55.7
 20
17.25
 30
0.25
 70
192
 0
VERTEX
 8
1
 10
-55.6265
 20
17.25
 30
0.0735
 70
192
 0
VERTEX
 8
1
 10
-55.6265
 20
17.25
 30
0.0735
 70
192
 0
VERTEX
 8
1
 10
55.6265
 20
17.25
 30
0.0735
 70
192
 0
VERTEX
 8
1
 10
55.6265
 20
17.25
 30
0.0735
 70
192
 0
VERTEX
 8
1
 10
55.6265
 20
17.25
 30
17.9265
 70
192
 0
VERTEX
 8
1
 10
55.6265
 20
17.25
 30
17.9265
 70
192
 0
VERTEX
 8
1
 10
-55.6265
 20
17.25
 30
17.9265
 70
192
 0
VERTEX
 8
1
 10
-55.6265
 20
17.25
 30
17.9265
 70
192
 0
VERTEX
 8
1
 10
-55.7
 20
-8.25
 30
17.75
 70
192
 0
VERTEX
 8
1
 10
-55.7
 20
-8.25
 30
17.75
 70
192
 0
VERTEX
 8
1
 10
-55.7
 20
-8.25
 30
17.75
 70
192
 0
VERTEX
 8
1
 10
-55.7
 20
-8.25
 30
16.7132
 70
192
 0
VERTEX
 8
1
 10
-55.7
 20
-8.25
 30
16.7132
 70
192
 0
VERTEX
 8
1
 10
-55.7
 20
-8.25
 30
16.7132
 70
192
 0
VERTEX
 8
1
 10
-55.7
 20
-5.4758
 30
15.5356
 70
192
 0
VERTEX
 8
1
 10
-55.7
 20
-5.4758
 30
15.5356
 70
192
 0
VERTEX
 8
1
 10
-55.7
 20
-5.4758
 30
15.5356
 70
192
 0
VERTEX
 8
1
 10
-55.7
 20
-3.3674
 30
14.1539
 70
192
 0
VERTEX
 8
1
 10
-55.7
 20
-3.3674
 30
14.1539
 70
192
 0
VERTEX
 8
1
 10
-55.7
 20
-1.8738
 30
12.1232
 70
192
 0
VERTEX
 8
1
 10
-55.7
 20
-1.8738
 30
12.1232
 70
192
 0
VERTEX
 8
1
 10
-55.7
 20
-1.185
 30
9.6983
 70
192
 0
VERTEX
 8
1
 10
-55.7
 20
-1.185
 30
9.6983
 70
192
 0
VERTEX
 8
1
 10
-55.7
 20
-1.3858
 30
7.1855
 70
192
 0
VERTEX
 8
1
 10
-55.7
 20
-1.3858
 30
7.1855
 70
192
 0
VERTEX
 8
1
 10
-55.7
 20
-2.4529
 30
4.9017
 70
192
 0
VERTEX
 8
1
 10
-55.7
 20
-2.4529
 30
4.9017
 70
192
 0
VERTEX
 8
1
 10
-55.7
 20
-4.25
 30
3.134
 70
192
 0
VERTEX
 8
1
 10
-55.7
 20
-4.25
 30
3.134
 70
192
 0
VERTEX
 8
1
 10
-55.7
 20
-4.25
 30
3.134
 70
192
 0
VERTEX
 8
1
 10
-55.7
 20
-4.25
 30
0.25
 70
192
 0
VERTEX
 8
1
 10
-55.7
 20
-4.25
 30
0.25
 70
192
 0
VERTEX
 8
1
 10
-55.7
 20
-4.25
 30
0.25
 70
192
 0
VERTEX
 8
1
 10
-53.7
 20
-11.3284
 30
0.5434
 70
192
 0
VERTEX
 8
1
 10
-53.7
 20
-11.3284
 30
0.5434
 70
192
 0
VERTEX
 8
1
 10
-53.7
 20
-14.034
 30
2.1048
 70
192
 0
VERTEX
 8
1
 10
-53.7
 20
-14.034
 30
2.1048
 70
192
 0
VERTEX
 8
1
 10
-53.7
 20
-16.0445
 30
4.5013
 70
192
 0
VERTEX
 8
1
 10
-53.7
 20
-16.0445
 30
4.5013
 70
192
 0
VERTEX
 8
1
 10
-53.7
 20
-17.1127
 30
7.4356
 70
192
 0
VERTEX
 8
1
 10
-53.7
 20
-17.1127
 30
7.4356
 70
192
 0
VERTEX
 8
1
 10
-53.7
 20
-17.1127
 30
10.5644
 70
192
 0
VERTEX
 8
1
 10
-53.7
 20
-17.1127
 30
10.5644
 70
192
 0
VERTEX
 8
1
 10
-53.7
 20
-16.0445
 30
13.4987
 70
192
 0
VERTEX
 8
1
 10
-53.7
 20
-16.0445
 30
13.4987
 70
192
 0
VERTEX
 8
1
 10
-53.7
 20
-14.034
 30
15.8952
 70
192
 0
VERTEX
 8
1
 10
-53.7
 20
-14.034
 30
15.8952
 70
192
 0
VERTEX
 8
1
 10
-53.7
 20
-11.3284
 30
17.4566
 70
192
 0
VERTEX
 8
1
 10
-53.7
 20
-11.3284
 30
17.4566
 70
192
 0
VERTEX
 8
1
 10
53.7
 20
-11.3284
 30
17.4566
 70
192
 0
VERTEX
 8
1
 10
53.7
 20
-11.3284
 30
17.4566
 70
192
 0
VERTEX
 8
1
 10
53.7
 20
-14.034
 30
15.8952
 70
192
 0
VERTEX
 8
1
 10
53.7
 20
-14.034
 30
15.8952
 70
192
 0
VERTEX
 8
1
 10
53.7
 20
-16.0445
 30
13.4987
 70
192
 0
VERTEX
 8
1
 10
53.7
 20
-16.0445
 30
13.4987
 70
192
 0
VERTEX
 8
1
 10
53.7
 20
-17.1127
 30
10.5644
 70
192
 0
VERTEX
 8
1
 10
53.7
 20
-17.1127
 30
10.5644
 70
192
 0
VERTEX
 8
1
 10
53.7
 20
-17.1127
 30
7.4356
 70
192
 0
VERTEX
 8
1
 10
53.7
 20
-17.1127
 30
7.4356
 70
192
 0
VERTEX
 8
1
 10
53.7
 20
-16.0445
 30
4.5013
 70
192
 0
VERTEX
 8
1
 10
53.7
 20
-16.0445
 30
4.5013
 70
192
 0
VERTEX
 8
1
 10
53.7
 20
-14.034
 30
2.1048
 70
192
 0
VERTEX
 8
1
 10
53.7
 20
-14.034
 30
2.1048
 70
192
 0
VERTEX
 8
1
 10
53.7
 20
-11.3284
 30
0.5434
 70
192
 0
VERTEX
 8
1
 10
53.7
 20
-11.3284
 30
0.5434
 70
192
 0
VERTEX
 8
1
 10
-53.7
 20
-5.4758
 30
15.5356
 70
192
 0
VERTEX
 8
1
 10
-53.7
 20
-5.4758
 30
15.5356
 70
192
 0
VERTEX
 8
1
 10
-53.7
 20
-5.4758
 30
15.5356
 70
192
 0
VERTEX
 8
1
 10
-53.7
 20
-8.25
 30
16.7132
 70
192
 0
VERTEX
 8
1
 10
-53.7
 20
-8.25
 30
16.7132
 70
192
 0
VERTEX
 8
1
 10
-53.7
 20
-8.25
 30
16.7132
 70
192
 0
VERTEX
 8
1
 10
-53.7
 20
-4.25
 30
3.134
 70
192
 0
VERTEX
 8
1
 10
-53.7
 20
-4.25
 30
3.134
 70
192
 0
VERTEX
 8
1
 10
-53.7
 20
-4.25
 30
3.134
 70
192
 0
VERTEX
 8
1
 10
-53.7
 20
-2.4529
 30
4.9017
 70
192
 0
VERTEX
 8
1
 10
-53.7
 20
-2.4529
 30
4.9017
 70
192
 0
VERTEX
 8
1
 10
-53.7
 20
-1.3858
 30
7.1855
 70
192
 0
VERTEX
 8
1
 10
-53.7
 20
-1.3858
 30
7.1855
 70
192
 0
VERTEX
 8
1
 10
-53.7
 20
-1.185
 30
9.6983
 70
192
 0
VERTEX
 8
1
 10
-53.7
 20
-1.185
 30
9.6983
 70
192
 0
VERTEX
 8
1
 10
-53.7
 20
-1.8738
 30
12.1232
 70
192
 0
VERTEX
 8
1
 10
-53.7
 20
-1.8738
 30
12.1232
 70
192
 0
VERTEX
 8
1
 10
-53.7
 20
-3.3674
 30
14.1539
 70
192
 0
VERTEX
 8
1
 10
-53.7
 20
-3.3674
 30
14.1539
 70
192
 0
VERTEX
 8
1
 10
-53.7
 20
-2.7
 30
9
 70
192
 0
VERTEX
 8
1
 10
-53.7
 20
-2.7
 30
9
 70
192
 0
VERTEX
 8
1
 10
-53.7
 20
-2.7
 30
9
 70
192
 0
VERTEX
 8
1
 10
-53.7
 20
-3.1231
 30
6.8755
 70
192
 0
VERTEX
 8
1
 10
-53.7
 20
-3.1231
 30
6.8755
 70
192
 0
VERTEX
 8
1
 10
-53.7
 20
-4.3249
 30
5.0766
 70
192
 0
VERTEX
 8
1
 10
-53.7
 20
-4.3249
 30
5.0766
 70
192
 0
VERTEX
 8
1
 10
-53.7
 20
-6.1271
 30
3.8721
 70
192
 0
VERTEX
 8
1
 10
-53.7
 20
-6.1271
 30
3.8721
 70
192
 0
VERTEX
 8
1
 10
-53.7
 20
-8.25
 30
3.4504
 70
192
 0
VERTEX
 8
1
 10
-53.7
 20
-8.25
 30
3.4504
 70
192
 0
VERTEX
 8
1
 10
-53.7
 20
-10.3729
 30
3.8721
 70
192
 0
VERTEX
 8
1
 10
-53.7
 20
-10.3729
 30
3.8721
 70
192
 0
VERTEX
 8
1
 10
-53.7
 20
-12.1751
 30
5.0766
 70
192
 0
VERTEX
 8
1
 10
-53.7
 20
-12.1751
 30
5.0766
 70
192
 0
VERTEX
 8
1
 10
-53.7
 20
-13.3769
 30
6.8755
 70
192
 0
VERTEX
 8
1
 10
-53.7
 20
-13.3769
 30
6.8755
 70
192
 0
VERTEX
 8
1
 10
-53.7
 20
-13.8
 30
9
 70
192
 0
VERTEX
 8
1
 10
-53.7
 20
-13.8
 30
9
 70
192
 0
VERTEX
 8
1
 10
-53.7
 20
-13.8
 30
9
 70
192
 0
VERTEX
 8
1
 10
-53.7
 20
-13.3769
 30
11.1245
 70
192
 0
VERTEX
 8
1
 10
-53.7
 20
-13.3769
 30
11.1245
 70
192
 0
VERTEX
 8
1
 10
-53.7
 20
-12.1751
 30
12.9234
 70
192
 0
VERTEX
 8
1
 10
-53.7
 20
-12.1751
 30
12.9234
 70
192
 0
VERTEX
 8
1
 10
-53.7
 20
-10.3729
 30
14.1279
 70
192
 0
VERTEX
 8
1
 10
-53.7
 20
-10.3729
 30
14.1279
 70
192
 0
VERTEX
 8
1
 10
-53.7
 20
-8.25
 30
14.5496
 70
192
 0
VERTEX
 8
1
 10
-53.7
 20
-8.25
 30
14.5496
 70
192
 0
VERTEX
 8
1
 10
-53.7
 20
-6.1271
 30
14.1279
 70
192
 0
VERTEX
 8
1
 10
-53.7
 20
-6.1271
 30
14.1279
 70
192
 0
VERTEX
 8
1
 10
-53.7
 20
-4.3249
 30
12.9234
 70
192
 0
VERTEX
 8
1
 10
-53.7
 20
-4.3249
 30
12.9234
 70
192
 0
VERTEX
 8
1
 10
-53.7
 20
-3.1231
 30
11.1245
 70
192
 0
VERTEX
 8
1
 10
-53.7
 20
-3.1231
 30
11.1245
 70
192
 0
VERTEX
 8
1
 10
-45.25
 20
6.9417
 30
9
 70
192
 0
VERTEX
 8
1
 10
-45.25
 20
6.9417
 30
9
 70
192
 0
VERTEX
 8
1
 10
-45.25
 20
6.9417
 30
9
 70
192
 0
VERTEX
 8
1
 10
-45.25
 20
6.9417
 30
9
 70
192
 0
VERTEX
 8
1
 10
-45.458
 20
6.9417
 30
8.0888
 70
192
 0
VERTEX
 8
1
 10
-45.458
 20
6.9417
 30
8.0888
 70
192
 0
VERTEX
 8
1
 10
-46.0407
 20
6.9417
 30
7.3582
 70
192
 0
VERTEX
 8
1
 10
-46.0407
 20
6.9417
 30
7.3582
 70
192
 0
VERTEX
 8
1
 10
-46.8827
 20
6.9417
 30
6.9527
 70
192
 0
VERTEX
 8
1
 10
-46.8827
 20
6.9417
 30
6.9527
 70
192
 0
VERTEX
 8
1
 10
-47.8173
 20
6.9417
 30
6.9527
 70
192
 0
VERTEX
 8
1
 10
-47.8173
 20
6.9417
 30
6.9527
 70
192
 0
VERTEX
 8
1
 10
-48.6593
 20
6.9417
 30
7.3582
 70
192
 0
VERTEX
 8
1
 10
-48.6593
 20
6.9417
 30
7.3582
 70
192
 0
VERTEX
 8
1
 10
-49.242
 20
6.9417
 30
8.0888
 70
192
 0
VERTEX
 8
1
 10
-49.242
 20
6.9417
 30
8.0888
 70
192
 0
VERTEX
 8
1
 10
-49.45
 20
6.9417
 30
9
 70
192
 0
VERTEX
 8
1
 10
-49.45
 20
6.9417
 30
9
 70
192
 0
VERTEX
 8
1
 10
-49.45
 20
6.9417
 30
9
 70
192
 0
VERTEX
 8
1
 10
-49.45
 20
6.9417
 30
9
 70
192
 0
VERTEX
 8
1
 10
-50.85
 20
7.75
 30
9
 70
192
 0
VERTEX
 8
1
 10
-50.85
 20
7.75
 30
9
 70
192
 0
VERTEX
 8
1
 10
-50.85
 20
7.75
 30
9
 70
192
 0
VERTEX
 8
1
 10
-50.85
 20
7.75
 30
9
 70
192
 0
VERTEX
 8
1
 10
-50.5032
 20
7.75
 30
7.4811
 70
192
 0
VERTEX
 8
1
 10
-50.5032
 20
7.75
 30
7.4811
 70
192
 0
VERTEX
 8
1
 10
-49.5319
 20
7.75
 30
6.2633
 70
192
 0
VERTEX
 8
1
 10
-49.5319
 20
7.75
 30
6.2633
 70
192
 0
VERTEX
 8
1
 10
-48.1287
 20
7.75
 30
5.5877
 70
192
 0
VERTEX
 8
1
 10
-48.1287
 20
7.75
 30
5.5877
 70
192
 0
VERTEX
 8
1
 10
-46.5713
 20
7.75
 30
5.5877
 70
192
 0
VERTEX
 8
1
 10
-46.5713
 20
7.75
 30
5.5877
 70
192
 0
VERTEX
 8
1
 10
-45.1681
 20
7.75
 30
6.2633
 70
192
 0
VERTEX
 8
1
 10
-45.1681
 20
7.75
 30
6.2633
 70
192
 0
VERTEX
 8
1
 10
-44.1968
 20
7.75
 30
7.4811
 70
192
 0
VERTEX
 8
1
 10
-44.1968
 20
7.75
 30
7.4811
 70
192
 0
VERTEX
 8
1
 10
-43.85
 20
7.75
 30
9
 70
192
 0
VERTEX
 8
1
 10
-43.85
 20
7.75
 30
9
 70
192
 0
VERTEX
 8
1
 10
-43.85
 20
7.75
 30
9
 70
192
 0
VERTEX
 8
1
 10
-43.85
 20
7.75
 30
9
 70
192
 0
VERTEX
 8
1
 10
-43.85
 20
16.71
 30
9
 70
192
 0
VERTEX
 8
1
 10
-43.85
 20
16.71
 30
9
 70
192
 0
VERTEX
 8
1
 10
-50.85
 20
16.71
 30
9
 70
192
 0
VERTEX
 8
1
 10
-50.85
 20
16.71
 30
9
 70
192
 0
VERTEX
 8
1
 10
-50.5028
 20
16.71
 30
7.4807
 70
192
 0
VERTEX
 8
1
 10
-49.5323
 20
16.71
 30
6.2641
 70
192
 0
VERTEX
 8
1
 10
-48.1297
 20
16.71
 30
5.588
 70
192
 0
VERTEX
 8
1
 10
-46.5703
 20
16.71
 30
5.588
 70
192
 0
VERTEX
 8
1
 10
-45.1677
 20
16.71
 30
6.2641
 70
192
 0
VERTEX
 8
1
 10
-44.1972
 20
16.71
 30
7.4807
 70
192
 0
VERTEX
 8
1
 10
-49.242
 20
6.9417
 30
9.9112
 70
192
 0
VERTEX
 8
1
 10
-49.242
 20
6.9417
 30
9.9112
 70
192
 0
VERTEX
 8
1
 10
-45.458
 20
6.9417
 30
9.9112
 70
192
 0
VERTEX
 8
1
 10
-45.458
 20
6.9417
 30
9.9112
 70
192
 0
VERTEX
 8
1
 10
-44.1968
 20
7.75
 30
10.5189
 70
192
 0
VERTEX
 8
1
 10
-44.1968
 20
7.75
 30
10.5189
 70
192
 0
VERTEX
 8
1
 10
-50.5032
 20
7.75
 30
10.5189
 70
192
 0
VERTEX
 8
1
 10
-50.5032
 20
7.75
 30
10.5189
 70
192
 0
VERTEX
 8
1
 10
-50.5028
 20
16.71
 30
10.5193
 70
192
 0
VERTEX
 8
1
 10
-49.45
 20
0.25
 30
9
 70
192
 0
VERTEX
 8
1
 10
-49.45
 20
0.25
 30
9
 70
192
 0
VERTEX
 8
1
 10
-49.2419
 20
0.25
 30
8.0886
 70
192
 0
VERTEX
 8
1
 10
-48.6591
 20
0.25
 30
7.358
 70
192
 0
VERTEX
 8
1
 10
-47.8172
 20
0.25
 30
6.9526
 70
192
 0
VERTEX
 8
1
 10
-46.8828
 20
0.25
 30
6.9526
 70
192
 0
VERTEX
 8
1
 10
-46.0409
 20
0.25
 30
7.358
 70
192
 0
VERTEX
 8
1
 10
-45.4581
 20
0.25
 30
8.0886
 70
192
 0
VERTEX
 8
1
 10
-45.25
 20
0.25
 30
9
 70
192
 0
VERTEX
 8
1
 10
-45.25
 20
0.25
 30
9
 70
192
 0
VERTEX
 8
1
 10
-45.4581
 20
0.25
 30
9.9114
 70
192
 0
VERTEX
 8
1
 10
53.7
 20
-4.25
 30
3.134
 70
192
 0
VERTEX
 8
1
 10
53.7
 20
-4.25
 30
3.134
 70
192
 0
VERTEX
 8
1
 10
53.7
 20
-4.25
 30
3.134
 70
192
 0
VERTEX
 8
1
 10
53.7
 20
-8.25
 30
16.7132
 70
192
 0
VERTEX
 8
1
 10
53.7
 20
-8.25
 30
16.7132
 70
192
 0
VERTEX
 8
1
 10
53.7
 20
-8.25
 30
16.7132
 70
192
 0
VERTEX
 8
1
 10
53.7
 20
-5.4758
 30
15.5356
 70
192
 0
VERTEX
 8
1
 10
53.7
 20
-5.4758
 30
15.5356
 70
192
 0
VERTEX
 8
1
 10
53.7
 20
-5.4758
 30
15.5356
 70
192
 0
VERTEX
 8
1
 10
53.7
 20
-3.3674
 30
14.1539
 70
192
 0
VERTEX
 8
1
 10
53.7
 20
-1.8738
 30
12.1232
 70
192
 0
VERTEX
 8
1
 10
53.7
 20
-1.185
 30
9.6983
 70
192
 0
VERTEX
 8
1
 10
53.7
 20
-1.3858
 30
7.1855
 70
192
 0
VERTEX
 8
1
 10
53.7
 20
-2.4529
 30
4.9017
 70
192
 0
VERTEX
 8
1
 10
53.7
 20
-8.25
 30
14.5496
 70
192
 0
VERTEX
 8
1
 10
53.7
 20
-10.3729
 30
14.1279
 70
192
 0
VERTEX
 8
1
 10
53.7
 20
-12.1751
 30
12.9234
 70
192
 0
VERTEX
 8
1
 10
53.7
 20
-13.3769
 30
11.1245
 70
192
 0
VERTEX
 8
1
 10
53.7
 20
-13.8
 30
9
 70
192
 0
VERTEX
 8
1
 10
53.7
 20
-13.3769
 30
6.8755
 70
192
 0
VERTEX
 8
1
 10
53.7
 20
-12.1751
 30
5.0766
 70
192
 0
VERTEX
 8
1
 10
53.7
 20
-10.3729
 30
3.8721
 70
192
 0
VERTEX
 8
1
 10
53.7
 20
-8.25
 30
3.4504
 70
192
 0
VERTEX
 8
1
 10
-55.6265
 20
-8.25
 30
17.9265
 70
192
 0
VERTEX
 8
1
 10
-55.6265
 20
-8.25
 30
17.9265
 70
192
 0
VERTEX
 8
1
 10
55.6265
 20
-8.25
 30
17.9265
 70
192
 0
VERTEX
 8
1
 10
55.6265
 20
-8.25
 30
17.9265
 70
192
 0
VERTEX
 8
1
 10
-55.6265
 20
-4.25
 30
0.0735
 70
192
 0
VERTEX
 8
1
 10
-55.6265
 20
-4.25
 30
0.0735
 70
192
 0
VERTEX
 8
1
 10
55.6265
 20
-4.25
 30
0.0735
 70
192
 0
VERTEX
 8
1
 10
55.6265
 20
-4.25
 30
0.0735
 70
192
 0
VERTEX
 8
1
 10
-53.2
 20
-13.3
 30
9
 70
192
 0
VERTEX
 8
1
 10
-53.2
 20
-13.3
 30
9
 70
192
 0
VERTEX
 8
1
 10
-53.2
 20
-12.9156
 30
7.0675
 70
192
 0
VERTEX
 8
1
 10
-53.2
 20
-11.8209
 30
5.4291
 70
192
 0
VERTEX
 8
1
 10
-53.2
 20
-10.1825
 30
4.3344
 70
192
 0
VERTEX
 8
1
 10
-53.2
 20
-8.25
 30
3.95
 70
192
 0
VERTEX
 8
1
 10
-53.2
 20
-6.3174
 30
4.3344
 70
192
 0
VERTEX
 8
1
 10
-53.2
 20
-4.6791
 30
5.4291
 70
192
 0
VERTEX
 8
1
 10
-53.2
 20
-3.5844
 30
7.0675
 70
192
 0
VERTEX
 8
1
 10
-53.2
 20
-3.2
 30
9
 70
192
 0
VERTEX
 8
1
 10
-53.2
 20
-3.2
 30
9
 70
192
 0
VERTEX
 8
1
 10
-53.2
 20
-3.5844
 30
10.9325
 70
192
 0
VERTEX
 8
1
 10
-53.2
 20
-4.6791
 30
12.5709
 70
192
 0
VERTEX
 8
1
 10
-53.2
 20
-6.3174
 30
13.6656
 70
192
 0
VERTEX
 8
1
 10
-53.2
 20
-8.25
 30
14.05
 70
192
 0
VERTEX
 8
1
 10
-53.2
 20
-10.1825
 30
13.6656
 70
192
 0
VERTEX
 8
1
 10
-53.2
 20
-11.8209
 30
12.5709
 70
192
 0
VERTEX
 8
1
 10
-53.2
 20
-12.9156
 30
10.9325
 70
192
 0
VERTEX
 8
1
 10
0
 20
0
 30
0
 70
128
 71
1
 72
4
 73
19
 74
19
 0
VERTEX
 8
1
 10
0
 20
0
 30
0
 70
128
 71
6
 72
2
 73
155
 74
155
 0
VERTEX
 8
1
 10
0
 20
0
 30
0
 70
128
 71
1
 72
19
 73
22
 74
22
 0
VERTEX
 8
1
 10
0
 20
0
 30
0
 70
128
 71
3
 72
24
 73
298
 74
298
 0
VERTEX
 8
1
 10
0
 20
0
 30
0
 70
128
 71
155
 72
2
 73
297
 74
297
 0
VERTEX
 8
1
 10
0
 20
0
 30
0
 70
128
 71
4
 72
7
 73
19
 74
19
 0
VERTEX
 8
1
 10
0
 20
0
 30
0
 70
128
 71
9
 72
5
 73
116
 74
116
 0
VERTEX
 8
1
 10
0
 20
0
 30
0
 70
128
 71
116
 72
5
 73
118
 74
118
 0
VERTEX
 8
1
 10
0
 20
0
 30
0
 70
128
 71
118
 72
5
 73
153
 74
153
 0
VERTEX
 8
1
 10
0
 20
0
 30
0
 70
128
 71
7
 72
10
 73
13
 74
13
 0
VERTEX
 8
1
 10
0
 20
0
 30
0
 70
128
 71
11
 72
8
 73
145
 74
145
 0
VERTEX
 8
1
 10
0
 20
0
 30
0
 70
128
 71
7
 72
13
 73
19
 74
19
 0
VERTEX
 8
1
 10
0
 20
0
 30
0
 70
128
 71
8
 72
115
 73
145
 74
145
 0
VERTEX
 8
1
 10
0
 20
0
 30
0
 70
128
 71
14
 72
12
 73
270
 74
270
 0
VERTEX
 8
1
 10
0
 20
0
 30
0
 70
128
 71
12
 72
146
 73
270
 74
270
 0
VERTEX
 8
1
 10
0
 20
0
 30
0
 70
128
 71
13
 72
16
 73
19
 74
19
 0
VERTEX
 8
1
 10
0
 20
0
 30
0
 70
128
 71
17
 72
15
 73
299
 74
299
 0
VERTEX
 8
1
 10
0
 20
0
 30
0
 70
128
 71
55
 72
15
 73
59
 74
59
 0
VERTEX
 8
1
 10
0
 20
0
 30
0
 70
128
 71
15
 72
55
 73
299
 74
299
 0
VERTEX
 8
1
 10
0
 20
0
 30
0
 70
128
 71
59
 72
15
 73
272
 74
272
 0
VERTEX
 8
1
 10
0
 20
0
 30
0
 70
128
 71
21
 72
18
 73
85
 74
85
 0
VERTEX
 8
1
 10
0
 20
0
 30
0
 70
128
 71
85
 72
18
 73
300
 74
300
 0
VERTEX
 8
1
 10
0
 20
0
 30
0
 70
128
 71
23
 72
20
 73
29
 74
29
 0
VERTEX
 8
1
 10
0
 20
0
 30
0
 70
128
 71
29
 72
20
 73
86
 74
86
 0
VERTEX
 8
1
 10
0
 20
0
 30
0
 70
128
 71
20
 72
84
 73
86
 74
86
 0
VERTEX
 8
1
 10
0
 20
0
 30
0
 70
128
 71
26
 72
23
 73
29
 74
29
 0
VERTEX
 8
1
 10
0
 20
0
 30
0
 70
128
 71
23
 72
26
 73
82
 74
82
 0
VERTEX
 8
1
 10
0
 20
0
 30
0
 70
128
 71
24
 72
83
 73
298
 74
298
 0
VERTEX
 8
1
 10
0
 20
0
 30
0
 70
128
 71
25
 72
28
 73
31
 74
31
 0
VERTEX
 8
1
 10
0
 20
0
 30
0
 70
128
 71
25
 72
31
 73
34
 74
34
 0
VERTEX
 8
1
 10
0
 20
0
 30
0
 70
128
 71
25
 72
34
 73
38
 74
38
 0
VERTEX
 8
1
 10
0
 20
0
 30
0
 70
128
 71
25
 72
38
 73
42
 74
42
 0
VERTEX
 8
1
 10
0
 20
0
 30
0
 70
128
 71
27
 72
44
 73
89
 74
89
 0
VERTEX
 8
1
 10
0
 20
0
 30
0
 70
128
 71
82
 72
26
 73
88
 74
88
 0
VERTEX
 8
1
 10
0
 20
0
 30
0
 70
128
 71
33
 72
30
 73
296
 74
296
 0
VERTEX
 8
1
 10
0
 20
0
 30
0
 70
128
 71
30
 72
87
 73
296
 74
296
 0
VERTEX
 8
1
 10
0
 20
0
 30
0
 70
128
 71
37
 72
32
 73
74
 74
74
 0
VERTEX
 8
1
 10
0
 20
0
 30
0
 70
128
 71
74
 72
32
 73
295
 74
295
 0
VERTEX
 8
1
 10
0
 20
0
 30
0
 70
128
 71
39
 72
35
 73
129
 74
129
 0
VERTEX
 8
1
 10
0
 20
0
 30
0
 70
128
 71
37
 72
74
 73
274
 74
274
 0
VERTEX
 8
1
 10
0
 20
0
 30
0
 70
128
 71
129
 72
35
 73
131
 74
131
 0
VERTEX
 8
1
 10
0
 20
0
 30
0
 70
128
 71
132
 72
36
 73
273
 74
273
 0
VERTEX
 8
1
 10
0
 20
0
 30
0
 70
128
 71
43
 72
41
 73
151
 74
151
 0
VERTEX
 8
1
 10
0
 20
0
 30
0
 70
128
 71
40
 72
130
 73
150
 74
150
 0
VERTEX
 8
1
 10
0
 20
0
 30
0
 70
128
 71
89
 72
44
 73
294
 74
294
 0
VERTEX
 8
1
 10
0
 20
0
 30
0
 70
128
 71
43
 72
151
 73
293
 74
293
 0
VERTEX
 8
1
 10
0
 20
0
 30
0
 70
128
 71
45
 72
48
 73
51
 74
51
 0
VERTEX
 8
1
 10
0
 20
0
 30
0
 70
128
 71
50
 72
47
 73
87
 74
87
 0
VERTEX
 8
1
 10
0
 20
0
 30
0
 70
128
 71
45
 72
51
 73
68
 74
68
 0
VERTEX
 8
1
 10
0
 20
0
 30
0
 70
128
 71
45
 72
68
 73
70
 74
70
 0
VERTEX
 8
1
 10
0
 20
0
 30
0
 70
128
 71
45
 72
70
 73
73
 74
73
 0
VERTEX
 8
1
 10
0
 20
0
 30
0
 70
128
 71
46
 72
74
 73
295
 74
295
 0
VERTEX
 8
1
 10
0
 20
0
 30
0
 70
128
 71
87
 72
47
 73
296
 74
296
 0
VERTEX
 8
1
 10
0
 20
0
 30
0
 70
128
 71
52
 72
49
 73
84
 74
84
 0
VERTEX
 8
1
 10
0
 20
0
 30
0
 70
128
 71
84
 72
49
 73
86
 74
86
 0
VERTEX
 8
1
 10
0
 20
0
 30
0
 70
128
 71
51
 72
54
 73
57
 74
57
 0
VERTEX
 8
1
 10
0
 20
0
 30
0
 70
128
 71
56
 72
53
 73
300
 74
300
 0
VERTEX
 8
1
 10
0
 20
0
 30
0
 70
128
 71
51
 72
57
 73
60
 74
60
 0
VERTEX
 8
1
 10
0
 20
0
 30
0
 70
128
 71
51
 72
60
 73
62
 74
62
 0
VERTEX
 8
1
 10
0
 20
0
 30
0
 70
128
 71
51
 72
62
 73
64
 74
64
 0
VERTEX
 8
1
 10
0
 20
0
 30
0
 70
128
 71
51
 72
64
 73
66
 74
66
 0
VERTEX
 8
1
 10
0
 20
0
 30
0
 70
128
 71
51
 72
66
 73
68
 74
68
 0
VERTEX
 8
1
 10
0
 20
0
 30
0
 70
128
 71
53
 72
85
 73
300
 74
300
 0
VERTEX
 8
1
 10
0
 20
0
 30
0
 70
128
 71
61
 72
58
 73
271
 74
271
 0
VERTEX
 8
1
 10
0
 20
0
 30
0
 70
128
 71
63
 72
61
 73
283
 74
283
 0
VERTEX
 8
1
 10
0
 20
0
 30
0
 70
128
 71
61
 72
271
 73
283
 74
283
 0
VERTEX
 8
1
 10
0
 20
0
 30
0
 70
128
 71
65
 72
63
 73
282
 74
282
 0
VERTEX
 8
1
 10
0
 20
0
 30
0
 70
128
 71
282
 72
63
 73
283
 74
283
 0
VERTEX
 8
1
 10
0
 20
0
 30
0
 70
128
 71
67
 72
65
 73
281
 74
281
 0
VERTEX
 8
1
 10
0
 20
0
 30
0
 70
128
 71
281
 72
65
 73
282
 74
282
 0
VERTEX
 8
1
 10
0
 20
0
 30
0
 70
128
 71
69
 72
67
 73
280
 74
280
 0
VERTEX
 8
1
 10
0
 20
0
 30
0
 70
128
 71
280
 72
67
 73
281
 74
281
 0
VERTEX
 8
1
 10
0
 20
0
 30
0
 70
128
 71
71
 72
69
 73
279
 74
279
 0
VERTEX
 8
1
 10
0
 20
0
 30
0
 70
128
 71
279
 72
69
 73
280
 74
280
 0
VERTEX
 8
1
 10
0
 20
0
 30
0
 70
128
 71
75
 72
72
 73
278
 74
278
 0
VERTEX
 8
1
 10
0
 20
0
 30
0
 70
128
 71
277
 72
71
 73
279
 74
279
 0
VERTEX
 8
1
 10
0
 20
0
 30
0
 70
128
 71
275
 72
75
 73
278
 74
278
 0
VERTEX
 8
1
 10
0
 20
0
 30
0
 70
128
 71
76
 72
79
 73
88
 74
88
 0
VERTEX
 8
1
 10
0
 20
0
 30
0
 70
128
 71
80
 72
77
 73
112
 74
112
 0
VERTEX
 8
1
 10
0
 20
0
 30
0
 70
128
 71
78
 72
89
 73
294
 74
294
 0
VERTEX
 8
1
 10
0
 20
0
 30
0
 70
128
 71
77
 72
90
 73
93
 74
93
 0
VERTEX
 8
1
 10
0
 20
0
 30
0
 70
128
 71
92
 72
78
 73
294
 74
294
 0
VERTEX
 8
1
 10
0
 20
0
 30
0
 70
128
 71
77
 72
93
 73
96
 74
96
 0
VERTEX
 8
1
 10
0
 20
0
 30
0
 70
128
 71
77
 72
96
 73
99
 74
99
 0
VERTEX
 8
1
 10
0
 20
0
 30
0
 70
128
 71
77
 72
99
 73
101
 74
101
 0
VERTEX
 8
1
 10
0
 20
0
 30
0
 70
128
 71
77
 72
101
 73
103
 74
103
 0
VERTEX
 8
1
 10
0
 20
0
 30
0
 70
128
 71
77
 72
103
 73
105
 74
105
 0
VERTEX
 8
1
 10
0
 20
0
 30
0
 70
128
 71
77
 72
105
 73
112
 74
112
 0
VERTEX
 8
1
 10
0
 20
0
 30
0
 70
128
 71
79
 72
82
 73
88
 74
88
 0
VERTEX
 8
1
 10
0
 20
0
 30
0
 70
128
 71
83
 72
81
 73
114
 74
114
 0
VERTEX
 8
1
 10
0
 20
0
 30
0
 70
128
 71
83
 72
114
 73
298
 74
298
 0
VERTEX
 8
1
 10
0
 20
0
 30
0
 70
128
 71
94
 72
91
 73
151
 74
151
 0
VERTEX
 8
1
 10
0
 20
0
 30
0
 70
128
 71
151
 72
91
 73
293
 74
293
 0
VERTEX
 8
1
 10
0
 20
0
 30
0
 70
128
 71
98
 72
95
 73
152
 74
152
 0
VERTEX
 8
1
 10
0
 20
0
 30
0
 70
128
 71
100
 72
97
 73
148
 74
148
 0
VERTEX
 8
1
 10
0
 20
0
 30
0
 70
128
 71
149
 72
98
 73
152
 74
152
 0
VERTEX
 8
1
 10
0
 20
0
 30
0
 70
128
 71
102
 72
100
 73
165
 74
165
 0
VERTEX
 8
1
 10
0
 20
0
 30
0
 70
128
 71
100
 72
148
 73
165
 74
165
 0
VERTEX
 8
1
 10
0
 20
0
 30
0
 70
128
 71
104
 72
102
 73
163
 74
163
 0
VERTEX
 8
1
 10
0
 20
0
 30
0
 70
128
 71
163
 72
102
 73
165
 74
165
 0
VERTEX
 8
1
 10
0
 20
0
 30
0
 70
128
 71
106
 72
104
 73
159
 74
159
 0
VERTEX
 8
1
 10
0
 20
0
 30
0
 70
128
 71
159
 72
104
 73
161
 74
161
 0
VERTEX
 8
1
 10
0
 20
0
 30
0
 70
128
 71
161
 72
104
 73
163
 74
163
 0
VERTEX
 8
1
 10
0
 20
0
 30
0
 70
128
 71
105
 72
107
 73
112
 74
112
 0
VERTEX
 8
1
 10
0
 20
0
 30
0
 70
128
 71
108
 72
106
 73
159
 74
159
 0
VERTEX
 8
1
 10
0
 20
0
 30
0
 70
128
 71
107
 72
109
 73
112
 74
112
 0
VERTEX
 8
1
 10
0
 20
0
 30
0
 70
128
 71
110
 72
108
 73
157
 74
157
 0
VERTEX
 8
1
 10
0
 20
0
 30
0
 70
128
 71
157
 72
108
 73
159
 74
159
 0
VERTEX
 8
1
 10
0
 20
0
 30
0
 70
128
 71
113
 72
111
 73
155
 74
155
 0
VERTEX
 8
1
 10
0
 20
0
 30
0
 70
128
 71
154
 72
110
 73
157
 74
157
 0
VERTEX
 8
1
 10
0
 20
0
 30
0
 70
128
 71
113
 72
155
 73
297
 74
297
 0
VERTEX
 8
1
 10
0
 20
0
 30
0
 70
128
 71
115
 72
117
 73
143
 74
143
 0
VERTEX
 8
1
 10
0
 20
0
 30
0
 70
128
 71
115
 72
143
 73
145
 74
145
 0
VERTEX
 8
1
 10
0
 20
0
 30
0
 70
128
 71
117
 72
119
 73
141
 74
141
 0
VERTEX
 8
1
 10
0
 20
0
 30
0
 70
128
 71
120
 72
118
 73
175
 74
175
 0
VERTEX
 8
1
 10
0
 20
0
 30
0
 70
128
 71
117
 72
141
 73
143
 74
143
 0
VERTEX
 8
1
 10
0
 20
0
 30
0
 70
128
 71
118
 72
153
 73
175
 74
175
 0
VERTEX
 8
1
 10
0
 20
0
 30
0
 70
128
 71
119
 72
121
 73
139
 74
139
 0
VERTEX
 8
1
 10
0
 20
0
 30
0
 70
128
 71
122
 72
120
 73
179
 74
179
 0
VERTEX
 8
1
 10
0
 20
0
 30
0
 70
128
 71
119
 72
139
 73
141
 74
141
 0
VERTEX
 8
1
 10
0
 20
0
 30
0
 70
128
 71
120
 72
175
 73
177
 74
177
 0
VERTEX
 8
1
 10
0
 20
0
 30
0
 70
128
 71
120
 72
177
 73
179
 74
179
 0
VERTEX
 8
1
 10
0
 20
0
 30
0
 70
128
 71
121
 72
123
 73
137
 74
137
 0
VERTEX
 8
1
 10
0
 20
0
 30
0
 70
128
 71
124
 72
122
 73
183
 74
183
 0
VERTEX
 8
1
 10
0
 20
0
 30
0
 70
128
 71
121
 72
137
 73
139
 74
139
 0
VERTEX
 8
1
 10
0
 20
0
 30
0
 70
128
 71
122
 72
179
 73
181
 74
181
 0
VERTEX
 8
1
 10
0
 20
0
 30
0
 70
128
 71
122
 72
181
 73
183
 74
183
 0
VERTEX
 8
1
 10
0
 20
0
 30
0
 70
128
 71
123
 72
125
 73
135
 74
135
 0
VERTEX
 8
1
 10
0
 20
0
 30
0
 70
128
 71
126
 72
124
 73
186
 74
186
 0
VERTEX
 8
1
 10
0
 20
0
 30
0
 70
128
 71
123
 72
135
 73
137
 74
137
 0
VERTEX
 8
1
 10
0
 20
0
 30
0
 70
128
 71
124
 72
183
 73
186
 74
186
 0
VERTEX
 8
1
 10
0
 20
0
 30
0
 70
128
 71
125
 72
127
 73
133
 74
133
 0
VERTEX
 8
1
 10
0
 20
0
 30
0
 70
128
 71
128
 72
126
 73
190
 74
190
 0
VERTEX
 8
1
 10
0
 20
0
 30
0
 70
128
 71
125
 72
133
 73
135
 74
135
 0
VERTEX
 8
1
 10
0
 20
0
 30
0
 70
128
 71
126
 72
186
 73
188
 74
188
 0
VERTEX
 8
1
 10
0
 20
0
 30
0
 70
128
 71
126
 72
188
 73
190
 74
190
 0
VERTEX
 8
1
 10
0
 20
0
 30
0
 70
128
 71
127
 72
129
 73
131
 74
131
 0
VERTEX
 8
1
 10
0
 20
0
 30
0
 70
128
 71
130
 72
128
 73
150
 74
150
 0
VERTEX
 8
1
 10
0
 20
0
 30
0
 70
128
 71
127
 72
131
 73
133
 74
133
 0
VERTEX
 8
1
 10
0
 20
0
 30
0
 70
128
 71
128
 72
147
 73
150
 74
150
 0
VERTEX
 8
1
 10
0
 20
0
 30
0
 70
128
 71
147
 72
128
 73
192
 74
192
 0
VERTEX
 8
1
 10
0
 20
0
 30
0
 70
128
 71
128
 72
190
 73
192
 74
192
 0
VERTEX
 8
1
 10
0
 20
0
 30
0
 70
128
 71
134
 72
132
 73
273
 74
273
 0
VERTEX
 8
1
 10
0
 20
0
 30
0
 70
128
 71
136
 72
134
 73
276
 74
276
 0
VERTEX
 8
1
 10
0
 20
0
 30
0
 70
128
 71
134
 72
273
 73
276
 74
276
 0
VERTEX
 8
1
 10
0
 20
0
 30
0
 70
128
 71
138
 72
136
 73
286
 74
286
 0
VERTEX
 8
1
 10
0
 20
0
 30
0
 70
128
 71
136
 72
276
 73
284
 74
284
 0
VERTEX
 8
1
 10
0
 20
0
 30
0
 70
128
 71
136
 72
284
 73
285
 74
285
 0
VERTEX
 8
1
 10
0
 20
0
 30
0
 70
128
 71
136
 72
285
 73
286
 74
286
 0
VERTEX
 8
1
 10
0
 20
0
 30
0
 70
128
 71
140
 72
138
 73
288
 74
288
 0
VERTEX
 8
1
 10
0
 20
0
 30
0
 70
128
 71
138
 72
286
 73
287
 74
287
 0
VERTEX
 8
1
 10
0
 20
0
 30
0
 70
128
 71
138
 72
287
 73
288
 74
288
 0
VERTEX
 8
1
 10
0
 20
0
 30
0
 70
128
 71
142
 72
140
 73
289
 74
289
 0
VERTEX
 8
1
 10
0
 20
0
 30
0
 70
128
 71
140
 72
288
 73
289
 74
289
 0
VERTEX
 8
1
 10
0
 20
0
 30
0
 70
128
 71
144
 72
142
 73
291
 74
291
 0
VERTEX
 8
1
 10
0
 20
0
 30
0
 70
128
 71
142
 72
289
 73
290
 74
290
 0
VERTEX
 8
1
 10
0
 20
0
 30
0
 70
128
 71
142
 72
290
 73
291
 74
291
 0
VERTEX
 8
1
 10
0
 20
0
 30
0
 70
128
 71
146
 72
144
 73
270
 74
270
 0
VERTEX
 8
1
 10
0
 20
0
 30
0
 70
128
 71
270
 72
144
 73
292
 74
292
 0
VERTEX
 8
1
 10
0
 20
0
 30
0
 70
128
 71
144
 72
291
 73
292
 74
292
 0
VERTEX
 8
1
 10
0
 20
0
 30
0
 70
128
 71
164
 72
147
 73
192
 74
192
 0
VERTEX
 8
1
 10
0
 20
0
 30
0
 70
128
 71
153
 72
156
 73
173
 74
173
 0
VERTEX
 8
1
 10
0
 20
0
 30
0
 70
128
 71
153
 72
173
 73
175
 74
175
 0
VERTEX
 8
1
 10
0
 20
0
 30
0
 70
128
 71
156
 72
158
 73
169
 74
169
 0
VERTEX
 8
1
 10
0
 20
0
 30
0
 70
128
 71
156
 72
169
 73
171
 74
171
 0
VERTEX
 8
1
 10
0
 20
0
 30
0
 70
128
 71
156
 72
171
 73
173
 74
173
 0
VERTEX
 8
1
 10
0
 20
0
 30
0
 70
128
 71
158
 72
160
 73
166
 74
166
 0
VERTEX
 8
1
 10
0
 20
0
 30
0
 70
128
 71
158
 72
166
 73
169
 74
169
 0
VERTEX
 8
1
 10
0
 20
0
 30
0
 70
128
 71
160
 72
162
 73
198
 74
198
 0
VERTEX
 8
1
 10
0
 20
0
 30
0
 70
128
 71
166
 72
160
 73
198
 74
198
 0
VERTEX
 8
1
 10
0
 20
0
 30
0
 70
128
 71
162
 72
164
 73
194
 74
194
 0
VERTEX
 8
1
 10
0
 20
0
 30
0
 70
128
 71
162
 72
194
 73
196
 74
196
 0
VERTEX
 8
1
 10
0
 20
0
 30
0
 70
128
 71
162
 72
196
 73
198
 74
198
 0
VERTEX
 8
1
 10
0
 20
0
 30
0
 70
128
 71
164
 72
192
 73
194
 74
194
 0
VERTEX
 8
1
 10
0
 20
0
 30
0
 70
128
 71
170
 72
167
 73
310
 74
310
 0
VERTEX
 8
1
 10
0
 20
0
 30
0
 70
128
 71
168
 72
199
 73
312
 74
312
 0
VERTEX
 8
1
 10
0
 20
0
 30
0
 70
128
 71
311
 72
168
 73
312
 74
312
 0
VERTEX
 8
1
 10
0
 20
0
 30
0
 70
128
 71
172
 72
170
 73
309
 74
309
 0
VERTEX
 8
1
 10
0
 20
0
 30
0
 70
128
 71
309
 72
170
 73
310
 74
310
 0
VERTEX
 8
1
 10
0
 20
0
 30
0
 70
128
 71
174
 72
172
 73
308
 74
308
 0
VERTEX
 8
1
 10
0
 20
0
 30
0
 70
128
 71
308
 72
172
 73
309
 74
309
 0
VERTEX
 8
1
 10
0
 20
0
 30
0
 70
128
 71
176
 72
174
 73
307
 74
307
 0
VERTEX
 8
1
 10
0
 20
0
 30
0
 70
128
 71
307
 72
174
 73
308
 74
308
 0
VERTEX
 8
1
 10
0
 20
0
 30
0
 70
128
 71
178
 72
176
 73
306
 74
306
 0
VERTEX
 8
1
 10
0
 20
0
 30
0
 70
128
 71
306
 72
176
 73
307
 74
307
 0
VERTEX
 8
1
 10
0
 20
0
 30
0
 70
128
 71
180
 72
178
 73
305
 74
305
 0
VERTEX
 8
1
 10
0
 20
0
 30
0
 70
128
 71
305
 72
178
 73
306
 74
306
 0
VERTEX
 8
1
 10
0
 20
0
 30
0
 70
128
 71
182
 72
180
 73
304
 74
304
 0
VERTEX
 8
1
 10
0
 20
0
 30
0
 70
128
 71
304
 72
180
 73
305
 74
305
 0
VERTEX
 8
1
 10
0
 20
0
 30
0
 70
128
 71
184
 72
182
 73
303
 74
303
 0
VERTEX
 8
1
 10
0
 20
0
 30
0
 70
128
 71
303
 72
182
 73
304
 74
304
 0
VERTEX
 8
1
 10
0
 20
0
 30
0
 70
128
 71
187
 72
185
 73
302
 74
302
 0
VERTEX
 8
1
 10
0
 20
0
 30
0
 70
128
 71
301
 72
184
 73
303
 74
303
 0
VERTEX
 8
1
 10
0
 20
0
 30
0
 70
128
 71
189
 72
187
 73
318
 74
318
 0
VERTEX
 8
1
 10
0
 20
0
 30
0
 70
128
 71
187
 72
302
 73
318
 74
318
 0
VERTEX
 8
1
 10
0
 20
0
 30
0
 70
128
 71
191
 72
189
 73
317
 74
317
 0
VERTEX
 8
1
 10
0
 20
0
 30
0
 70
128
 71
317
 72
189
 73
318
 74
318
 0
VERTEX
 8
1
 10
0
 20
0
 30
0
 70
128
 71
193
 72
191
 73
316
 74
316
 0
VERTEX
 8
1
 10
0
 20
0
 30
0
 70
128
 71
316
 72
191
 73
317
 74
317
 0
VERTEX
 8
1
 10
0
 20
0
 30
0
 70
128
 71
195
 72
193
 73
315
 74
315
 0
VERTEX
 8
1
 10
0
 20
0
 30
0
 70
128
 71
315
 72
193
 73
316
 74
316
 0
VERTEX
 8
1
 10
0
 20
0
 30
0
 70
128
 71
197
 72
195
 73
314
 74
314
 0
VERTEX
 8
1
 10
0
 20
0
 30
0
 70
128
 71
314
 72
195
 73
315
 74
315
 0
VERTEX
 8
1
 10
0
 20
0
 30
0
 70
128
 71
199
 72
197
 73
313
 74
313
 0
VERTEX
 8
1
 10
0
 20
0
 30
0
 70
128
 71
313
 72
197
 73
314
 74
314
 0
VERTEX
 8
1
 10
0
 20
0
 30
0
 70
128
 71
312
 72
199
 73
313
 74
313
 0
VERTEX
 8
1
 10
0
 20
0
 30
0
 70
128
 71
200
 72
204
 73
234
 74
234
 0
VERTEX
 8
1
 10
0
 20
0
 30
0
 70
128
 71
205
 72
202
 73
267
 74
267
 0
VERTEX
 8
1
 10
0
 20
0
 30
0
 70
128
 71
200
 72
234
 73
236
 74
236
 0
VERTEX
 8
1
 10
0
 20
0
 30
0
 70
128
 71
201
 72
238
 73
252
 74
252
 0
VERTEX
 8
1
 10
0
 20
0
 30
0
 70
128
 71
203
 72
253
 73
269
 74
269
 0
VERTEX
 8
1
 10
0
 20
0
 30
0
 70
128
 71
268
 72
203
 73
269
 74
269
 0
VERTEX
 8
1
 10
0
 20
0
 30
0
 70
128
 71
204
 72
206
 73
234
 74
234
 0
VERTEX
 8
1
 10
0
 20
0
 30
0
 70
128
 71
207
 72
205
 73
266
 74
266
 0
VERTEX
 8
1
 10
0
 20
0
 30
0
 70
128
 71
266
 72
205
 73
267
 74
267
 0
VERTEX
 8
1
 10
0
 20
0
 30
0
 70
128
 71
206
 72
208
 73
232
 74
232
 0
VERTEX
 8
1
 10
0
 20
0
 30
0
 70
128
 71
209
 72
207
 73
265
 74
265
 0
VERTEX
 8
1
 10
0
 20
0
 30
0
 70
128
 71
206
 72
232
 73
234
 74
234
 0
VERTEX
 8
1
 10
0
 20
0
 30
0
 70
128
 71
265
 72
207
 73
266
 74
266
 0
VERTEX
 8
1
 10
0
 20
0
 30
0
 70
128
 71
208
 72
210
 73
228
 74
228
 0
VERTEX
 8
1
 10
0
 20
0
 30
0
 70
128
 71
211
 72
209
 73
264
 74
264
 0
VERTEX
 8
1
 10
0
 20
0
 30
0
 70
128
 71
208
 72
228
 73
230
 74
230
 0
VERTEX
 8
1
 10
0
 20
0
 30
0
 70
128
 71
208
 72
230
 73
232
 74
232
 0
VERTEX
 8
1
 10
0
 20
0
 30
0
 70
128
 71
264
 72
209
 73
265
 74
265
 0
VERTEX
 8
1
 10
0
 20
0
 30
0
 70
128
 71
210
 72
212
 73
226
 74
226
 0
VERTEX
 8
1
 10
0
 20
0
 30
0
 70
128
 71
213
 72
211
 73
262
 74
262
 0
VERTEX
 8
1
 10
0
 20
0
 30
0
 70
128
 71
210
 72
226
 73
228
 74
228
 0
VERTEX
 8
1
 10
0
 20
0
 30
0
 70
128
 71
262
 72
211
 73
263
 74
263
 0
VERTEX
 8
1
 10
0
 20
0
 30
0
 70
128
 71
263
 72
211
 73
264
 74
264
 0
VERTEX
 8
1
 10
0
 20
0
 30
0
 70
128
 71
212
 72
214
 73
224
 74
224
 0
VERTEX
 8
1
 10
0
 20
0
 30
0
 70
128
 71
215
 72
213
 73
261
 74
261
 0
VERTEX
 8
1
 10
0
 20
0
 30
0
 70
128
 71
212
 72
224
 73
226
 74
226
 0
VERTEX
 8
1
 10
0
 20
0
 30
0
 70
128
 71
261
 72
213
 73
262
 74
262
 0
VERTEX
 8
1
 10
0
 20
0
 30
0
 70
128
 71
214
 72
216
 73
220
 74
220
 0
VERTEX
 8
1
 10
0
 20
0
 30
0
 70
128
 71
218
 72
215
 73
261
 74
261
 0
VERTEX
 8
1
 10
0
 20
0
 30
0
 70
128
 71
214
 72
220
 73
224
 74
224
 0
VERTEX
 8
1
 10
0
 20
0
 30
0
 70
128
 71
222
 72
217
 73
256
 74
256
 0
VERTEX
 8
1
 10
0
 20
0
 30
0
 70
128
 71
217
 72
250
 73
256
 74
256
 0
VERTEX
 8
1
 10
0
 20
0
 30
0
 70
128
 71
251
 72
219
 73
260
 74
260
 0
VERTEX
 8
1
 10
0
 20
0
 30
0
 70
128
 71
259
 72
218
 73
261
 74
261
 0
VERTEX
 8
1
 10
0
 20
0
 30
0
 70
128
 71
225
 72
221
 73
242
 74
242
 0
VERTEX
 8
1
 10
0
 20
0
 30
0
 70
128
 71
243
 72
223
 73
258
 74
258
 0
VERTEX
 8
1
 10
0
 20
0
 30
0
 70
128
 71
223
 72
257
 73
258
 74
258
 0
VERTEX
 8
1
 10
0
 20
0
 30
0
 70
128
 71
227
 72
225
 73
245
 74
245
 0
VERTEX
 8
1
 10
0
 20
0
 30
0
 70
128
 71
225
 72
242
 73
244
 74
244
 0
VERTEX
 8
1
 10
0
 20
0
 30
0
 70
128
 71
225
 72
244
 73
245
 74
245
 0
VERTEX
 8
1
 10
0
 20
0
 30
0
 70
128
 71
229
 72
227
 73
246
 74
246
 0
VERTEX
 8
1
 10
0
 20
0
 30
0
 70
128
 71
227
 72
245
 73
246
 74
246
 0
VERTEX
 8
1
 10
0
 20
0
 30
0
 70
128
 71
231
 72
229
 73
246
 74
246
 0
VERTEX
 8
1
 10
0
 20
0
 30
0
 70
128
 71
233
 72
231
 73
247
 74
247
 0
VERTEX
 8
1
 10
0
 20
0
 30
0
 70
128
 71
231
 72
246
 73
247
 74
247
 0
VERTEX
 8
1
 10
0
 20
0
 30
0
 70
128
 71
235
 72
233
 73
248
 74
248
 0
VERTEX
 8
1
 10
0
 20
0
 30
0
 70
128
 71
233
 72
247
 73
248
 74
248
 0
VERTEX
 8
1
 10
0
 20
0
 30
0
 70
128
 71
237
 72
235
 73
249
 74
249
 0
VERTEX
 8
1
 10
0
 20
0
 30
0
 70
128
 71
235
 72
248
 73
249
 74
249
 0
VERTEX
 8
1
 10
0
 20
0
 30
0
 70
128
 71
240
 72
237
 73
249
 74
249
 0
VERTEX
 8
1
 10
0
 20
0
 30
0
 70
128
 71
239
 72
241
 73
255
 74
255
 0
VERTEX
 8
1
 10
0
 20
0
 30
0
 70
128
 71
252
 72
238
 73
254
 74
254
 0
SEQEND
 0
ENDSEC
 0
EOF
