  0
SECTION
  2
HEADER
  9
$ACADVER
  1
AC1009
  9
$DWGCODEPAGE
  3
ansi_1251
  9
$INSBASE
 10
0.0
 20
0.0
 30
0.0
  9
$EXTMIN
 10
-109.6822828292847
 20
-714.7498802185058
 30
-125.0000009536743
  9
$EXTMAX
 10
109.6822828292847
 20
75.7363631249962
 30
94.99999709129332
  9
$LIMMIN
 10
0.0
 20
0.0
  9
$LIMMAX
 10
420.0
 20
297.0
  9
$ORTHOMODE
 70
     0
  9
$REGENMODE
 70
     1
  9
$FILLMODE
 70
     1
  9
$QTEXTMODE
 70
     0
  9
$MIRRTEXT
 70
     1
  9
$DRAGMODE
 70
     2
  9
$LTSCALE
 40
1.0
  9
$OSMODE
 70
    37
  9
$ATTMODE
 70
     1
  9
$TEXTSIZE
 40
2.5
  9
$TRACEWID
 40
1.0
  9
$TEXTSTYLE
  7
STANDARD
  9
$CLAYER
  8
0
  9
$CELTYPE
  6
BYLAYER
  9
$CECOLOR
 62
   256
  9
$DIMSCALE
 40
1.0
  9
$DIMASZ
 40
2.5
  9
$DIMEXO
 40
0.625
  9
$DIMDLI
 40
3.75
  9
$DIMRND
 40
0.0
  9
$DIMDLE
 40
0.0
  9
$DIMEXE
 40
1.25
  9
$DIMTP
 40
0.0
  9
$DIMTM
 40
0.0
  9
$DIMTXT
 40
2.5
  9
$DIMCEN
 40
2.5
  9
$DIMTSZ
 40
0.0
  9
$DIMTOL
 70
     0
  9
$DIMLIM
 70
     0
  9
$DIMTIH
 70
     0
  9
$DIMTOH
 70
     0
  9
$DIMSE1
 70
     0
  9
$DIMSE2
 70
     0
  9
$DIMTAD
 70
     1
  9
$DIMZIN
 70
     8
  9
$DIMBLK
  1

  9
$DIMASO
 70
     1
  9
$DIMSHO
 70
     1
  9
$DIMPOST
  1

  9
$DIMAPOST
  1

  9
$DIMALT
 70
     0
  9
$DIMALTD
 70
     3
  9
$DIMALTF
 40
0.03937007874016
  9
$DIMLFAC
 40
1.0
  9
$DIMTOFL
 70
     1
  9
$DIMTVP
 40
0.0
  9
$DIMTIX
 70
     0
  9
$DIMSOXD
 70
     0
  9
$DIMSAH
 70
     0
  9
$DIMBLK1
  1

  9
$DIMBLK2
  1

  9
$DIMSTYLE
  2
ISO-25
  9
$DIMCLRD
 70
     0
  9
$DIMCLRE
 70
     0
  9
$DIMCLRT
 70
     0
  9
$DIMTFAC
 40
1.0
  9
$DIMGAP
 40
0.625
  9
$LUNITS
 70
     2
  9
$LUPREC
 70
     4
  9
$SKETCHINC
 40
1.0
  9
$FILLETRAD
 40
10.0
  9
$AUNITS
 70
     0
  9
$AUPREC
 70
     0
  9
$MENU
  1
.
  9
$ELEVATION
 40
0.0
  9
$PELEVATION
 40
0.0
  9
$THICKNESS
 40
0.0
  9
$LIMCHECK
 70
     0
  9
$CHAMFERA
 40
10.0
  9
$CHAMFERB
 40
10.0
  9
$SKPOLY
 70
     0
  9
$TDCREATE
 40
2305814.413136574
  9
$TDUPDATE
 40
2305814.413136586
  9
$TDINDWG
 40
0.0000000116
  9
$TDUSRTIMER
 40
0.0000000116
  9
$USRTIMER
 70
     1
  9
$ANGBASE
 50
0.0
  9
$ANGDIR
 70
     0
  9
$PDMODE
 70
     0
  9
$PDSIZE
 40
0.0
  9
$PLINEWID
 40
0.0
  9
$COORDS
 70
     1
  9
$SPLFRAME
 70
     0
  9
$SPLINETYPE
 70
     6
  9
$SPLINESEGS
 70
     8
  9
$ATTDIA
 70
     0
  9
$ATTREQ
 70
     1
  9
$HANDLING
 70
     1
  9
$HANDSEED
  5
2EF
  9
$SURFTAB1
 70
     6
  9
$SURFTAB2
 70
     6
  9
$SURFTYPE
 70
     6
  9
$SURFU
 70
     6
  9
$SURFV
 70
     6
  9
$UCSNAME
  2

  9
$UCSORG
 10
0.0
 20
0.0
 30
0.0
  9
$UCSXDIR
 10
1.0
 20
0.0
 30
0.0
  9
$UCSYDIR
 10
0.0
 20
1.0
 30
0.0
  9
$PUCSNAME
  2

  9
$PUCSORG
 10
0.0
 20
0.0
 30
0.0
  9
$PUCSXDIR
 10
1.0
 20
0.0
 30
0.0
  9
$PUCSYDIR
 10
0.0
 20
1.0
 30
0.0
  9
$USERI1
 70
     0
  9
$USERI2
 70
     0
  9
$USERI3
 70
     0
  9
$USERI4
 70
     0
  9
$USERI5
 70
     0
  9
$USERR1
 40
0.0
  9
$USERR2
 40
0.0
  9
$USERR3
 40
0.0
  9
$USERR4
 40
0.0
  9
$USERR5
 40
0.0
  9
$WORLDVIEW
 70
     1
  9
$SHADEDGE
 70
     3
  9
$SHADEDIF
 70
    70
  9
$TILEMODE
 70
     1
  9
$MAXACTVP
 70
    64
  9
$PLIMCHECK
 70
     0
  9
$PEXTMIN
 10
1.000000000000000E+20
 20
1.000000000000000E+20
 30
1.000000000000000E+20
  9
$PEXTMAX
 10
-1.000000000000000E+20
 20
-1.000000000000000E+20
 30
-1.000000000000000E+20
  9
$PLIMMIN
 10
0.0
 20
0.0
  9
$PLIMMAX
 10
420.0
 20
297.0
  9
$UNITMODE
 70
     0
  9
$VISRETAIN
 70
     1
  9
$PLINEGEN
 70
     0
  9
$PSLTSCALE
 70
     1
  0
ENDSEC
  0
SECTION
  2
TABLES
  0
TABLE
  2
VPORT
 70
     1
  0
VPORT
  2
*ACTIVE
 70
     0
 10
0.0
 20
0.0
 11
1.0
 21
1.0
 12
0.0
 22
-352.3749389648438
 13
0.0
 23
0.0
 14
10.0
 24
10.0
 15
10.0
 25
10.0
 16
0.0
 26
0.0
 36
1.0
 17
0.0
 27
0.0
 37
0.0
 40
739.2448754882813
 41
0.3026762330956379
 42
50.0
 43
0.0
 44
0.0
 50
0.0
 51
0.0
 71
     0
 72
   100
 73
     1
 74
     3
 75
     0
 76
     0
 77
     0
 78
     0
  0
ENDTAB
  0
TABLE
  2
LTYPE
 70
    11
  0
LTYPE
  2
CONTINUOUS
 70
     0
  3
Solid line
 72
    65
 73
     0
 40
0.0
  0
LTYPE
  2
BORDER
 70
     0
  3
__ __ . __ __ . __ 
 72
    65
 73
     6
 40
0.875
 49
0.25
 49
-0.125
 49
0.25
 49
-0.125
 49
0.0
 49
-0.125
  0
LTYPE
  2
CENTER
 70
     0
  3
___ _ ___ _ ___ _ _
 72
    65
 73
     4
 40
1.125
 49
0.75
 49
-0.125
 49
0.125
 49
-0.125
  0
LTYPE
  2
DASHDOT
 70
     0
  3
_._._._._._._._._._
 72
    65
 73
     4
 40
0.5
 49
0.25
 49
-0.125
 49
0.0
 49
-0.125
  0
LTYPE
  2
DASHED
 70
     0
  3
_ _ _ _ _ _ _ _ _ _
 72
    65
 73
     2
 40
0.375
 49
0.25
 49
-0.125
  0
LTYPE
  2
DIVIDE
 70
     0
  3
__..__..__..__..__.
 72
    65
 73
     6
 40
0.625
 49
0.25
 49
-0.125
 49
0.0
 49
-0.125
 49
0.0
 49
-0.125
  0
LTYPE
  2
DOT
 70
     0
  3
...................
 72
    65
 73
     2
 40
0.125
 49
0.0
 49
-0.125
  0
LTYPE
  2
HIDDEN
 70
     0
  3
__ __ __ __ __ __ _
 72
    65
 73
     2
 40
0.1875
 49
0.125
 49
-0.0625
  0
LTYPE
  2
PHANTOM
 70
     0
  3
___ _ _ ___ _ _ ___
 72
    65
 73
     6
 40
1.25
 49
0.625
 49
-0.125
 49
0.125
 49
-0.125
 49
0.125
 49
-0.125
  0
LTYPE
  2
CUTTING
 70
     0
  3
________ _ _ ______
 72
    65
 73
     6
 40
1.4675
 49
1.0
 49
-0.0725
 49
0.125
 49
-0.0725
 49
0.125
 49
-0.0725
  0
LTYPE
  2
STITCH
 70
     0
  3
_ _ _ _ _ _ _ _ _ _
 72
    65
 73
     2
 40
0.145
 49
0.0725
 49
-0.0725
  0
ENDTAB
  0
TABLE
  2
LAYER
 70
     3
  0
LAYER
  2
0
 70
     0
 62
     7
  6
CONTINUOUS
  0
LAYER
  2
LAYER1
 70
     0
 62
     7
  6
CONTINUOUS
  0
LAYER
  2
STEPIMPORT_T4236_MK1_3DPL
 70
     0
 62
     7
  6
CONTINUOUS
  0
ENDTAB
  0
TABLE
  2
STYLE
 70
     1
  0
STYLE
  2
STANDARD
 70
     0
 40
0.0
 41
1.0
 50
0.0
 71
     0
 42
2.5
  3
txt
  4

  0
ENDTAB
  0
TABLE
  2
VIEW
 70
     0
  0
ENDTAB
  0
TABLE
  2
UCS
 70
     0
  0
ENDTAB
  0
TABLE
  2
APPID
 70
     2
  0
APPID
  2
ACAD
 70
     0
  0
APPID
  2
ENCORE_SOFTWARE_VIACAD
 70
     0
  0
ENDTAB
  0
TABLE
  2
DIMSTYLE
 70
     1
  0
DIMSTYLE
  2
ISO-25
 70
     0
  3

  4

  5

  6

  7

 40
1.0
 41
2.5
 42
0.625
 43
3.75
 44
1.25
 45
0.0
 46
0.0
 47
0.0
 48
0.0
140
2.5
141
2.5
142
0.0
143
0.03937007874016
144
1.0
145
0.0
146
1.0
147
0.625
 71
     0
 72
     0
 73
     0
 74
     0
 75
     0
 76
     0
 77
     1
 78
     8
170
     0
171
     3
172
     1
173
     0
174
     0
175
     0
176
     0
177
     0
178
     0
  0
ENDTAB
  0
ENDSEC
  0
SECTION
  2
BLOCKS
  0
BLOCK
  8
0
  2
$MODEL_SPACE
 70
     0
 10
0.0
 20
0.0
 30
0.0
  3
$MODEL_SPACE
  1

  0
ENDBLK
  5
21
  8
0
  0
BLOCK
 67
     1
  8
0
  2
$PAPER_SPACE
 70
     0
 10
0.0
 20
0.0
 30
0.0
  3
$PAPER_SPACE
  1

  0
ENDBLK
  5
1D
 67
     1
  8
0
  0
ENDSEC
  0
SECTION
  2
ENTITIES
  0
POLYLINE
  5
4D
  8
STEPIMPORT_T4236_MK1_3DPL
 62
     7
 66
     1
 10
0.0
 20
0.0
 30
0.0
 70
    64
 71
     4
 72
     2
  0
VERTEX
  5
4E
  8
0
 10
0.0
 20
10.0
 30
-10.0
 70
   192
  0
VERTEX
  5
4F
  8
0
 10
0.0
 20
10.0
 30
10.0
 70
   192
  0
VERTEX
  5
50
  8
0
 10
0.0
 20
-10.0
 30
10.0
 70
   192
  0
VERTEX
  5
51
  8
0
 10
0.0
 20
-10.0
 30
-10.0
 70
   192
  0
VERTEX
  5
52
  8
0
 10
0.0
 20
0.0
 30
0.0
 70
   128
 71
     2
 72
     3
 73
     1
  0
VERTEX
  5
53
  8
0
 10
0.0
 20
0.0
 30
0.0
 70
   128
 71
     1
 72
     3
 73
     4
  0
SEQEND
  5
54
  8
STEPIMPORT_T4236_MK1_3DPL
 62
     7
  0
POLYLINE
  5
55
  8
STEPIMPORT_T4236_MK1_3DPL
 62
     7
 66
     1
 10
0.0
 20
0.0
 30
0.0
 70
    64
 71
     4
 72
     2
  0
VERTEX
  5
56
  8
0
 10
-10.0
 20
10.0
 30
0.0
 70
   192
  0
VERTEX
  5
57
  8
0
 10
10.0
 20
10.0
 30
0.0
 70
   192
  0
VERTEX
  5
58
  8
0
 10
10.0
 20
-10.0
 30
0.0
 70
   192
  0
VERTEX
  5
59
  8
0
 10
-10.0
 20
-10.0
 30
0.0
 70
   192
  0
VERTEX
  5
5A
  8
0
 10
0.0
 20
0.0
 30
0.0
 70
   128
 71
     2
 72
     3
 73
     1
  0
VERTEX
  5
5B
  8
0
 10
0.0
 20
0.0
 30
0.0
 70
   128
 71
     1
 72
     3
 73
     4
  0
SEQEND
  5
5C
  8
STEPIMPORT_T4236_MK1_3DPL
 62
     7
  0
POLYLINE
  5
5D
  8
STEPIMPORT_T4236_MK1_3DPL
 62
     7
 66
     1
 10
0.0
 20
0.0
 30
0.0
 70
    64
 71
     4
 72
     2
  0
VERTEX
  5
5E
  8
0
 10
-10.0
 20
0.0
 30
-10.0
 70
   192
  0
VERTEX
  5
5F
  8
0
 10
-10.0
 20
0.0
 30
10.0
 70
   192
  0
VERTEX
  5
60
  8
0
 10
10.0
 20
0.0
 30
10.0
 70
   192
  0
VERTEX
  5
61
  8
0
 10
10.0
 20
0.0
 30
-10.0
 70
   192
  0
VERTEX
  5
62
  8
0
 10
0.0
 20
0.0
 30
0.0
 70
   128
 71
     2
 72
     3
 73
     1
  0
VERTEX
  5
63
  8
0
 10
0.0
 20
0.0
 30
0.0
 70
   128
 71
     1
 72
     3
 73
     4
  0
SEQEND
  5
64
  8
STEPIMPORT_T4236_MK1_3DPL
 62
     7
  0
POLYLINE
  5
65
  8
LAYER1
 62
     7
 66
     1
 10
0.0
 20
0.0
 30
0.0
 70
    64
 71
     6
 72
     4
  0
VERTEX
  5
66
  8
0
 10
109.3438110351562
 20
-15.33504390716553
 30
-124.9582290649414
 70
   192
  0
VERTEX
  5
67
  8
0
 10
109.3141479492188
 20
-16.08852195739746
 30
-124.9795913696289
 70
   192
  0
VERTEX
  5
68
  8
0
 10
109.2857818603516
 20
-16.80840110778809
 30
-125.0
 70
   192
  0
VERTEX
  5
69
  8
0
 10
-109.2857818603516
 20
-16.80840110778809
 30
-125.0
 70
   192
  0
VERTEX
  5
6A
  8
0
 10
-109.3141479492188
 20
-16.08852195739746
 30
-124.9795913696289
 70
   192
  0
VERTEX
  5
6B
  8
0
 10
-109.3438110351562
 20
-15.33504390716553
 30
-124.9582290649414
 70
   192
  0
VERTEX
  5
6C
  8
0
 10
0.0
 20
0.0
 30
0.0
 70
   128
 71
     6
 72
     1
 73
     5
  0
VERTEX
  5
6D
  8
0
 10
0.0
 20
0.0
 30
0.0
 70
   128
 71
     5
 72
     1
 73
     2
  0
VERTEX
  5
6E
  8
0
 10
0.0
 20
0.0
 30
0.0
 70
   128
 71
     4
 72
     2
 73
     3
  0
VERTEX
  5
6F
  8
0
 10
0.0
 20
0.0
 30
0.0
 70
   128
 71
     4
 72
     5
 73
     2
  0
SEQEND
  5
70
  8
LAYER1
 62
     7
  0
POLYLINE
  5
71
  8
LAYER1
 62
     7
 66
     1
 10
0.0
 20
0.0
 30
0.0
 70
    64
 71
    24
 72
    22
  0
VERTEX
  5
72
  8
0
 10
-109.3438110351562
 20
-15.33504390716553
 30
-124.9582290649414
 70
   192
  0
VERTEX
  5
73
  8
0
 10
-109.4172210693359
 20
-13.36607933044434
 30
-124.679801940918
 70
   192
  0
VERTEX
  5
74
  8
0
 10
-109.4851379394531
 20
-11.40615844726562
 30
-124.1269912719727
 70
   192
  0
VERTEX
  5
75
  8
0
 10
-109.5442581176758
 20
-9.549627304077148
 30
-123.3192138671875
 70
   192
  0
VERTEX
  5
76
  8
0
 10
-109.5936126708984
 20
-7.83005428314209
 30
-122.2766952514648
 70
   192
  0
VERTEX
  5
77
  8
0
 10
-109.6328811645508
 20
-6.259851932525635
 30
-121.0084228515625
 70
   192
  0
VERTEX
  5
78
  8
0
 10
-109.661247253418
 20
-4.86634635925293
 30
-119.5313568115234
 70
   192
  0
VERTEX
  5
79
  8
0
 10
-109.6778106689453
 20
-3.689115047454834
 30
-117.8860931396484
 70
   192
  0
VERTEX
  5
7A
  8
0
 10
-109.6822814941406
 20
-2.747312545776367
 30
-116.1048583984375
 70
   192
  0
VERTEX
  5
7B
  8
0
 10
-109.674430847168
 20
-2.047570943832397
 30
-114.1957931518555
 70
   192
  0
VERTEX
  5
7C
  8
0
 10
-109.6541366577148
 20
-1.612181901931763
 30
-112.207893371582
 70
   192
  0
VERTEX
  5
7D
  8
0
 10
-109.621940612793
 20
-1.4500972032547
 30
-110.1973648071289
 70
   192
  0
VERTEX
  5
7E
  8
0
 10
109.621940612793
 20
-1.4500972032547
 30
-110.1973648071289
 70
   192
  0
VERTEX
  5
7F
  8
0
 10
109.6541366577148
 20
-1.612181901931763
 30
-112.207893371582
 70
   192
  0
VERTEX
  5
80
  8
0
 10
109.674430847168
 20
-2.047570943832397
 30
-114.1957931518555
 70
   192
  0
VERTEX
  5
81
  8
0
 10
109.6822814941406
 20
-2.747312545776367
 30
-116.1048583984375
 70
   192
  0
VERTEX
  5
82
  8
0
 10
109.6778106689453
 20
-3.689115047454834
 30
-117.8860931396484
 70
   192
  0
VERTEX
  5
83
  8
0
 10
109.661247253418
 20
-4.86634635925293
 30
-119.5313568115234
 70
   192
  0
VERTEX
  5
84
  8
0
 10
109.6328811645508
 20
-6.259851932525635
 30
-121.0084228515625
 70
   192
  0
VERTEX
  5
85
  8
0
 10
109.5936126708984
 20
-7.83005428314209
 30
-122.2766952514648
 70
   192
  0
VERTEX
  5
86
  8
0
 10
109.5442581176758
 20
-9.549627304077148
 30
-123.3192138671875
 70
   192
  0
VERTEX
  5
87
  8
0
 10
109.4851379394531
 20
-11.40615844726562
 30
-124.1269912719727
 70
   192
  0
VERTEX
  5
88
  8
0
 10
109.4172210693359
 20
-13.36607933044434
 30
-124.679801940918
 70
   192
  0
VERTEX
  5
89
  8
0
 10
109.3438110351562
 20
-15.33504390716553
 30
-124.9582290649414
 70
   192
  0
VERTEX
  5
8A
  8
0
 10
0.0
 20
0.0
 30
0.0
 70
   128
 71
    24
 72
     1
 73
    23
  0
VERTEX
  5
8B
  8
0
 10
0.0
 20
0.0
 30
0.0
 70
   128
 71
    23
 72
     1
 73
     2
  0
VERTEX
  5
8C
  8
0
 10
0.0
 20
0.0
 30
0.0
 70
   128
 71
    22
 72
     2
 73
     3
  0
VERTEX
  5
8D
  8
0
 10
0.0
 20
0.0
 30
0.0
 70
   128
 71
    21
 72
     3
 73
     4
  0
VERTEX
  5
8E
  8
0
 10
0.0
 20
0.0
 30
0.0
 70
   128
 71
     5
 72
    21
 73
     4
  0
VERTEX
  5
8F
  8
0
 10
0.0
 20
0.0
 30
0.0
 70
   128
 71
     5
 72
    20
 73
    21
  0
VERTEX
  5
90
  8
0
 10
0.0
 20
0.0
 30
0.0
 70
   128
 71
     5
 72
    19
 73
    20
  0
VERTEX
  5
91
  8
0
 10
0.0
 20
0.0
 30
0.0
 70
   128
 71
     5
 72
     6
 73
    19
  0
VERTEX
  5
92
  8
0
 10
0.0
 20
0.0
 30
0.0
 70
   128
 71
    19
 72
     6
 73
    18
  0
VERTEX
  5
93
  8
0
 10
0.0
 20
0.0
 30
0.0
 70
   128
 71
    18
 72
     6
 73
     7
  0
VERTEX
  5
94
  8
0
 10
0.0
 20
0.0
 30
0.0
 70
   128
 71
    17
 72
     7
 73
     8
  0
VERTEX
  5
95
  8
0
 10
0.0
 20
0.0
 30
0.0
 70
   128
 71
     9
 72
    17
 73
     8
  0
VERTEX
  5
96
  8
0
 10
0.0
 20
0.0
 30
0.0
 70
   128
 71
     9
 72
    16
 73
    17
  0
VERTEX
  5
97
  8
0
 10
0.0
 20
0.0
 30
0.0
 70
   128
 71
     9
 72
    15
 73
    16
  0
VERTEX
  5
98
  8
0
 10
0.0
 20
0.0
 30
0.0
 70
   128
 71
     9
 72
    10
 73
    15
  0
VERTEX
  5
99
  8
0
 10
0.0
 20
0.0
 30
0.0
 70
   128
 71
    15
 72
    10
 73
    14
  0
VERTEX
  5
9A
  8
0
 10
0.0
 20
0.0
 30
0.0
 70
   128
 71
    14
 72
    10
 73
    11
  0
VERTEX
  5
9B
  8
0
 10
0.0
 20
0.0
 30
0.0
 70
   128
 71
    13
 72
    11
 73
    12
  0
VERTEX
  5
9C
  8
0
 10
0.0
 20
0.0
 30
0.0
 70
   128
 71
    13
 72
    14
 73
    11
  0
VERTEX
  5
9D
  8
0
 10
0.0
 20
0.0
 30
0.0
 70
   128
 71
    17
 72
    18
 73
     7
  0
VERTEX
  5
9E
  8
0
 10
0.0
 20
0.0
 30
0.0
 70
   128
 71
    21
 72
    22
 73
     3
  0
VERTEX
  5
9F
  8
0
 10
0.0
 20
0.0
 30
0.0
 70
   128
 71
    22
 72
    23
 73
     2
  0
SEQEND
  5
A0
  8
LAYER1
 62
     7
  0
POLYLINE
  5
A1
  8
LAYER1
 62
     7
 66
     1
 10
0.0
 20
0.0
 30
0.0
 70
    64
 71
    87
 72
    94
  0
VERTEX
  5
A2
  8
0
 10
0.0
 20
-714.7498779296875
 30
44.0
 70
   192
  0
VERTEX
  5
A3
  8
0
 10
14.07433605194092
 20
-714.7498779296875
 30
43.19993591308594
 70
   192
  0
VERTEX
  5
A4
  8
0
 10
27.28535079956055
 20
-714.7498779296875
 30
40.49017715454102
 70
   192
  0
VERTEX
  5
A5
  8
0
 10
39.10690689086914
 20
-714.7498779296875
 30
35.40636444091797
 70
   192
  0
VERTEX
  5
A6
  8
0
 10
44.33222198486328
 20
-714.7498779296875
 30
31.82907485961914
 70
   192
  0
VERTEX
  5
A7
  8
0
 10
49.01418304443359
 20
-714.7498779296875
 30
27.48859214782715
 70
   192
  0
VERTEX
  5
A8
  8
0
 10
56.65681457519531
 20
-714.7498779296875
 30
16.86582946777344
 70
   192
  0
VERTEX
  5
A9
  8
0
 10
59.62531661987305
 20
-714.7498779296875
 30
10.93787670135498
 70
   192
  0
VERTEX
  5
AA
  8
0
 10
62.03449630737305
 20
-714.7498779296875
 30
4.831286430358887
 70
   192
  0
VERTEX
  5
AB
  8
0
 10
63.92980194091797
 20
-714.7498779296875
 30
-1.378366947174072
 70
   192
  0
VERTEX
  5
AC
  8
0
 10
65.38302612304688
 20
-714.7498779296875
 30
-7.683072566986084
 70
   192
  0
VERTEX
  5
AD
  8
0
 10
67.25260162353516
 20
-714.7498779296875
 30
-20.55111122131348
 70
   192
  0
VERTEX
  5
AE
  8
0
 10
68.22195434570312
 20
-714.7498779296875
 30
-33.71977615356445
 70
   192
  0
VERTEX
  5
AF
  8
0
 10
68.84810638427734
 20
-714.7498779296875
 30
-47.13215637207031
 70
   192
  0
VERTEX
  5
B0
  8
0
 10
69.37786865234375
 20
-714.7498779296875
 30
-60.67635345458984
 70
   192
  0
VERTEX
  5
B1
  8
0
 10
69.826416015625
 20
-714.7498779296875
 30
-74.19935607910156
 70
   192
  0
VERTEX
  5
B2
  8
0
 10
70.51815032958984
 20
-714.7498779296875
 30
-100.56591796875
 70
   192
  0
VERTEX
  5
B3
  8
0
 10
71.0
 20
-714.7498779296875
 30
-125.0
 70
   192
  0
VERTEX
  5
B4
  8
0
 10
93.18331146240234
 20
-356.8967895507812
 30
-125.0
 70
   192
  0
VERTEX
  5
B5
  8
0
 10
109.2857818603516
 20
-16.80840110778809
 30
-125.0
 70
   192
  0
VERTEX
  5
B6
  8
0
 10
109.3141479492188
 20
-16.08852195739746
 30
-124.9795913696289
 70
   192
  0
VERTEX
  5
B7
  8
0
 10
109.3438110351562
 20
-15.33504390716553
 30
-124.9582290649414
 70
   192
  0
VERTEX
  5
B8
  8
0
 10
109.4172210693359
 20
-13.36607933044434
 30
-124.679801940918
 70
   192
  0
VERTEX
  5
B9
  8
0
 10
109.4851379394531
 20
-11.40615844726562
 30
-124.1269912719727
 70
   192
  0
VERTEX
  5
BA
  8
0
 10
109.5442581176758
 20
-9.549627304077148
 30
-123.3192138671875
 70
   192
  0
VERTEX
  5
BB
  8
0
 10
109.5936126708984
 20
-7.83005428314209
 30
-122.2766952514648
 70
   192
  0
VERTEX
  5
BC
  8
0
 10
109.6328811645508
 20
-6.259851932525635
 30
-121.0084228515625
 70
   192
  0
VERTEX
  5
BD
  8
0
 10
109.661247253418
 20
-4.86634635925293
 30
-119.5313568115234
 70
   192
  0
VERTEX
  5
BE
  8
0
 10
109.6778106689453
 20
-3.689115047454834
 30
-117.8860931396484
 70
   192
  0
VERTEX
  5
BF
  8
0
 10
109.6822814941406
 20
-2.747312545776367
 30
-116.1048583984375
 70
   192
  0
VERTEX
  5
C0
  8
0
 10
109.674430847168
 20
-2.047570943832397
 30
-114.1957931518555
 70
   192
  0
VERTEX
  5
C1
  8
0
 10
109.6541366577148
 20
-1.612181901931763
 30
-112.207893371582
 70
   192
  0
VERTEX
  5
C2
  8
0
 10
109.621940612793
 20
-1.4500972032547
 30
-110.1973648071289
 70
   192
  0
VERTEX
  5
C3
  8
0
 10
109.3489685058594
 20
-1.271722912788391
 30
-96.64215850830078
 70
   192
  0
VERTEX
  5
C4
  8
0
 10
109.0582275390625
 20
-1.107020616531372
 30
-84.12592315673828
 70
   192
  0
VERTEX
  5
C5
  8
0
 10
108.7462844848633
 20
-0.9559388160705566
 30
-72.64474487304688
 70
   192
  0
VERTEX
  5
C6
  8
0
 10
108.4124450683594
 20
-0.8184648752212524
 30
-62.19767379760742
 70
   192
  0
VERTEX
  5
C7
  8
0
 10
108.0589294433594
 20
-0.6937664747238159
 30
-52.72146224975586
 70
   192
  0
VERTEX
  5
C8
  8
0
 10
107.6770172119141
 20
-0.5784177184104919
 30
-43.95574951171875
 70
   192
  0
VERTEX
  5
C9
  8
0
 10
107.2419128417969
 20
-0.468361109495163
 30
-35.59220886230469
 70
   192
  0
VERTEX
  5
CA
  8
0
 10
106.723876953125
 20
-0.3595048189163208
 30
-27.31988334655762
 70
   192
  0
VERTEX
  5
CB
  8
0
 10
106.1027755737305
 20
-0.2501955628395081
 30
-19.01313400268555
 70
   192
  0
VERTEX
  5
CC
  8
0
 10
105.3662948608398
 20
-0.1410439014434814
 30
-10.71836185455322
 70
   192
  0
VERTEX
  5
CD
  8
0
 10
104.4829406738281
 20
-0.0321441255509853
 30
-2.442731380462646
 70
   192
  0
VERTEX
  5
CE
  8
0
 10
103.4049758911133
 20
0.077109307050705
 30
5.859774589538574
 70
   192
  0
VERTEX
  5
CF
  8
0
 10
102.0513534545898
 20
0.1872020810842514
 30
14.22606468200684
 70
   192
  0
VERTEX
  5
D0
  8
0
 10
100.3303756713867
 20
0.2977339327335358
 30
22.62572288513184
 70
   192
  0
VERTEX
  5
D1
  8
0
 10
98.22734069824219
 20
0.4047722816467285
 30
30.7598991394043
 70
   192
  0
VERTEX
  5
D2
  8
0
 10
95.8138198852539
 20
0.5038526058197021
 30
38.28931427001953
 70
   192
  0
VERTEX
  5
D3
  8
0
 10
93.14461517333984
 20
0.5942297577857971
 30
45.15735626220703
 70
   192
  0
VERTEX
  5
D4
  8
0
 10
90.24147033691406
 20
0.676892101764679
 30
51.43912124633789
 70
   192
  0
VERTEX
  5
D5
  8
0
 10
87.18620300292969
 20
0.7510533332824707
 30
57.07485961914062
 70
   192
  0
VERTEX
  5
D6
  8
0
 10
84.14307403564453
 20
0.8147329092025757
 30
61.9140739440918
 70
   192
  0
VERTEX
  5
D7
  8
0
 10
81.22694396972656
 20
0.8679043054580688
 30
65.9547348022461
 70
   192
  0
VERTEX
  5
D8
  8
0
 10
78.40544128417969
 20
0.9131089448928833
 30
69.38997650146484
 70
   192
  0
VERTEX
  5
D9
  8
0
 10
75.55284118652344
 20
0.9534078240394592
 30
72.45240783691406
 70
   192
  0
VERTEX
  5
DA
  8
0
 10
72.5194091796875
 20
0.9910240173339844
 30
75.31098937988281
 70
   192
  0
VERTEX
  5
DB
  8
0
 10
69.23473358154297
 20
1.026352763175964
 30
77.9957275390625
 70
   192
  0
VERTEX
  5
DC
  8
0
 10
65.74954223632812
 20
1.058407306671143
 30
80.43164825439453
 70
   192
  0
VERTEX
  5
DD
  8
0
 10
62.13103103637695
 20
1.086844921112061
 30
82.59270477294922
 70
   192
  0
VERTEX
  5
DE
  8
0
 10
58.41375350952148
 20
1.111959218978882
 30
84.50122833251953
 70
   192
  0
VERTEX
  5
DF
  8
0
 10
54.4906120300293
 20
1.134758949279785
 30
86.23384094238281
 70
   192
  0
VERTEX
  5
E0
  8
0
 10
50.17914199829102
 20
1.156137943267822
 30
87.8584976196289
 70
   192
  0
VERTEX
  5
E1
  8
0
 10
45.29284286499023
 20
1.176485061645508
 30
89.40473175048828
 70
   192
  0
VERTEX
  5
E2
  8
0
 10
39.63387298583984
 20
1.195802688598633
 30
90.87274932861328
 70
   192
  0
VERTEX
  5
E3
  8
0
 10
33.0150260925293
 20
1.213711857795715
 30
92.23371887207031
 70
   192
  0
VERTEX
  5
E4
  8
0
 10
25.32024574279785
 20
1.229362964630127
 30
93.423095703125
 70
   192
  0
VERTEX
  5
E5
  8
0
 10
16.85723114013672
 20
1.241134524345398
 30
94.3176498413086
 70
   192
  0
VERTEX
  5
E6
  8
0
 10
8.219011306762695
 20
1.248006939888
 30
94.83990478515625
 70
   192
  0
VERTEX
  5
E7
  8
0
 10
0.0
 20
1.250113606452942
 30
95.0
 70
   192
  0
VERTEX
  5
E8
  8
0
 10
0.0
 20
-357.1443176269531
 30
75.0783462524414
 70
   192
  0
VERTEX
  5
E9
  8
0
 10
22.09182548522949
 20
-145.0982818603516
 30
86.81175231933594
 70
   192
  0
VERTEX
  5
EA
  8
0
 10
92.4956283569336
 20
-358.7570190429688
 30
-104.4343948364258
 70
   192
  0
VERTEX
  5
EB
  8
0
 10
90.36898803710938
 20
-358.8623352050781
 30
-49.99300765991211
 70
   192
  0
VERTEX
  5
EC
  8
0
 10
87.33655548095703
 20
-358.9168090820312
 30
-9.957314491271973
 70
   192
  0
VERTEX
  5
ED
  8
0
 10
82.19771575927734
 20
-358.9443359375
 30
18.44771957397461
 70
   192
  0
VERTEX
  5
EE
  8
0
 10
72.6712875366211
 20
-358.959716796875
 30
41.62897491455078
 70
   192
  0
VERTEX
  5
EF
  8
0
 10
58.98651123046875
 20
-358.9667663574219
 30
58.46505355834961
 70
   192
  0
VERTEX
  5
F0
  8
0
 10
41.04849243164062
 20
-358.9678649902344
 30
68.65373229980469
 70
   192
  0
VERTEX
  5
F1
  8
0
 10
20.79932022094727
 20
-358.9634704589844
 30
73.56461334228516
 70
   192
  0
VERTEX
  5
F2
  8
0
 10
103.2468338012695
 20
-144.9688873291016
 30
-102.485595703125
 70
   192
  0
VERTEX
  5
F3
  8
0
 10
101.0862274169922
 20
-145.0273895263672
 30
-44.04845428466797
 70
   192
  0
VERTEX
  5
F4
  8
0
 10
97.50131225585938
 20
-145.0592498779297
 30
-1.24067223072052
 70
   192
  0
VERTEX
  5
F5
  8
0
 10
91.25392150878906
 20
-145.0766143798828
 30
29.34677124023438
 70
   192
  0
VERTEX
  5
F6
  8
0
 10
80.10977935791016
 20
-145.0875701904297
 30
54.23960494995117
 70
   192
  0
VERTEX
  5
F7
  8
0
 10
64.50939178466797
 20
-145.0940399169922
 30
71.81452178955078
 70
   192
  0
VERTEX
  5
F8
  8
0
 10
44.362060546875
 20
-145.0975189208984
 30
82.0283432006836
 70
   192
  0
VERTEX
  5
F9
  8
0
 10
0.0
 20
0.0
 30
0.0
 70
   128
 71
     1
 72
     2
 73
    71
  0
VERTEX
  5
FA
  8
0
 10
0.0
 20
0.0
 30
0.0
 70
   128
 71
    71
 72
     2
 73
    80
  0
VERTEX
  5
FB
  8
0
 10
0.0
 20
0.0
 30
0.0
 70
   128
 71
    72
 72
    80
 73
    79
 74
    87
  0
VERTEX
  5
FC
  8
0
 10
0.0
 20
0.0
 30
0.0
 70
   128
 71
    87
 72
    66
 73
    72
  0
VERTEX
  5
FD
  8
0
 10
0.0
 20
0.0
 30
0.0
 70
   128
 71
    87
 72
    65
 73
    66
  0
VERTEX
  5
FE
  8
0
 10
0.0
 20
0.0
 30
0.0
 70
   128
 71
    87
 72
    64
 73
    65
  0
VERTEX
  5
FF
  8
0
 10
0.0
 20
0.0
 30
0.0
 70
   128
 71
    87
 72
    63
 73
    64
  0
VERTEX
  5
100
  8
0
 10
0.0
 20
0.0
 30
0.0
 70
   128
 71
    87
 72
    62
 73
    63
  0
VERTEX
  5
101
  8
0
 10
0.0
 20
0.0
 30
0.0
 70
   128
 71
    87
 72
    61
 73
    62
  0
VERTEX
  5
102
  8
0
 10
0.0
 20
0.0
 30
0.0
 70
   128
 71
    87
 72
    86
 73
    61
  0
VERTEX
  5
103
  8
0
 10
0.0
 20
0.0
 30
0.0
 70
   128
 71
    87
 72
    79
 73
    78
 74
    86
  0
VERTEX
  5
104
  8
0
 10
0.0
 20
0.0
 30
0.0
 70
   128
 71
    79
 72
     5
 73
    78
  0
VERTEX
  5
105
  8
0
 10
0.0
 20
0.0
 30
0.0
 70
   128
 71
    79
 72
     4
 73
     5
  0
VERTEX
  5
106
  8
0
 10
0.0
 20
0.0
 30
0.0
 70
   128
 71
    79
 72
     3
 73
     4
  0
VERTEX
  5
107
  8
0
 10
0.0
 20
0.0
 30
0.0
 70
   128
 71
    79
 72
    80
 73
     3
  0
VERTEX
  5
108
  8
0
 10
0.0
 20
0.0
 30
0.0
 70
   128
 71
     3
 72
    80
 73
     2
  0
VERTEX
  5
109
  8
0
 10
0.0
 20
0.0
 30
0.0
 70
   128
 71
     5
 72
     6
 73
    78
  0
VERTEX
  5
10A
  8
0
 10
0.0
 20
0.0
 30
0.0
 70
   128
 71
    78
 72
     6
 73
     7
  0
VERTEX
  5
10B
  8
0
 10
0.0
 20
0.0
 30
0.0
 70
   128
 71
    77
 72
     7
 73
     8
  0
VERTEX
  5
10C
  8
0
 10
0.0
 20
0.0
 30
0.0
 70
   128
 71
     9
 72
    77
 73
     8
  0
VERTEX
  5
10D
  8
0
 10
0.0
 20
0.0
 30
0.0
 70
   128
 71
     9
 72
    10
 73
    77
  0
VERTEX
  5
10E
  8
0
 10
0.0
 20
0.0
 30
0.0
 70
   128
 71
    77
 72
    10
 73
    76
  0
VERTEX
  5
10F
  8
0
 10
0.0
 20
0.0
 30
0.0
 70
   128
 71
    84
 72
    76
 73
    75
 74
    83
  0
VERTEX
  5
110
  8
0
 10
0.0
 20
0.0
 30
0.0
 70
   128
 71
    83
 72
    47
 73
    84
  0
VERTEX
  5
111
  8
0
 10
0.0
 20
0.0
 30
0.0
 70
   128
 71
    83
 72
    46
 73
    47
  0
VERTEX
  5
112
  8
0
 10
0.0
 20
0.0
 30
0.0
 70
   128
 71
    83
 72
    45
 73
    46
  0
VERTEX
  5
113
  8
0
 10
0.0
 20
0.0
 30
0.0
 70
   128
 71
    83
 72
    44
 73
    45
  0
VERTEX
  5
114
  8
0
 10
0.0
 20
0.0
 30
0.0
 70
   128
 71
    83
 72
    43
 73
    44
  0
VERTEX
  5
115
  8
0
 10
0.0
 20
0.0
 30
0.0
 70
   128
 71
    83
 72
    42
 73
    43
  0
VERTEX
  5
116
  8
0
 10
0.0
 20
0.0
 30
0.0
 70
   128
 71
    83
 72
    82
 73
    42
  0
VERTEX
  5
117
  8
0
 10
0.0
 20
0.0
 30
0.0
 70
   128
 71
    83
 72
    75
 73
    74
 74
    82
  0
VERTEX
  5
118
  8
0
 10
0.0
 20
0.0
 30
0.0
 70
   128
 71
    75
 72
    14
 73
    74
  0
VERTEX
  5
119
  8
0
 10
0.0
 20
0.0
 30
0.0
 70
   128
 71
    75
 72
    13
 73
    14
  0
VERTEX
  5
11A
  8
0
 10
0.0
 20
0.0
 30
0.0
 70
   128
 71
    75
 72
    12
 73
    13
  0
VERTEX
  5
11B
  8
0
 10
0.0
 20
0.0
 30
0.0
 70
   128
 71
    75
 72
    76
 73
    12
  0
VERTEX
  5
11C
  8
0
 10
0.0
 20
0.0
 30
0.0
 70
   128
 71
    12
 72
    76
 73
    11
  0
VERTEX
  5
11D
  8
0
 10
0.0
 20
0.0
 30
0.0
 70
   128
 71
    11
 72
    76
 73
    10
  0
VERTEX
  5
11E
  8
0
 10
0.0
 20
0.0
 30
0.0
 70
   128
 71
    14
 72
    15
 73
    74
  0
VERTEX
  5
11F
  8
0
 10
0.0
 20
0.0
 30
0.0
 70
   128
 71
    74
 72
    15
 73
    16
  0
VERTEX
  5
120
  8
0
 10
0.0
 20
0.0
 30
0.0
 70
   128
 71
    17
 72
    74
 73
    16
  0
VERTEX
  5
121
  8
0
 10
0.0
 20
0.0
 30
0.0
 70
   128
 71
    17
 72
    73
 73
    74
  0
VERTEX
  5
122
  8
0
 10
0.0
 20
0.0
 30
0.0
 70
   128
 71
    17
 72
    18
 73
    73
  0
VERTEX
  5
123
  8
0
 10
0.0
 20
0.0
 30
0.0
 70
   128
 71
    73
 72
    18
 73
    19
  0
VERTEX
  5
124
  8
0
 10
0.0
 20
0.0
 30
0.0
 70
   128
 71
    81
 72
    19
 73
    20
  0
VERTEX
  5
125
  8
0
 10
0.0
 20
0.0
 30
0.0
 70
   128
 71
    28
 72
    20
 73
    27
  0
VERTEX
  5
126
  8
0
 10
0.0
 20
0.0
 30
0.0
 70
   128
 71
    28
 72
    81
 73
    20
  0
VERTEX
  5
127
  8
0
 10
0.0
 20
0.0
 30
0.0
 70
   128
 71
    28
 72
    29
 73
    81
  0
VERTEX
  5
128
  8
0
 10
0.0
 20
0.0
 30
0.0
 70
   128
 71
    81
 72
    29
 73
    30
  0
VERTEX
  5
129
  8
0
 10
0.0
 20
0.0
 30
0.0
 70
   128
 71
    31
 72
    81
 73
    30
  0
VERTEX
  5
12A
  8
0
 10
0.0
 20
0.0
 30
0.0
 70
   128
 71
    31
 72
    32
 73
    81
  0
VERTEX
  5
12B
  8
0
 10
0.0
 20
0.0
 30
0.0
 70
   128
 71
    81
 72
    32
 73
    33
  0
VERTEX
  5
12C
  8
0
 10
0.0
 20
0.0
 30
0.0
 70
   128
 71
    34
 72
    81
 73
    33
  0
VERTEX
  5
12D
  8
0
 10
0.0
 20
0.0
 30
0.0
 70
   128
 71
    34
 72
    35
 73
    81
  0
VERTEX
  5
12E
  8
0
 10
0.0
 20
0.0
 30
0.0
 70
   128
 71
    81
 72
    35
 73
    36
  0
VERTEX
  5
12F
  8
0
 10
0.0
 20
0.0
 30
0.0
 70
   128
 71
    82
 72
    36
 73
    37
  0
VERTEX
  5
130
  8
0
 10
0.0
 20
0.0
 30
0.0
 70
   128
 71
    38
 72
    82
 73
    37
  0
VERTEX
  5
131
  8
0
 10
0.0
 20
0.0
 30
0.0
 70
   128
 71
    38
 72
    39
 73
    82
  0
VERTEX
  5
132
  8
0
 10
0.0
 20
0.0
 30
0.0
 70
   128
 71
    82
 72
    39
 73
    40
  0
VERTEX
  5
133
  8
0
 10
0.0
 20
0.0
 30
0.0
 70
   128
 71
    41
 72
    82
 73
    40
  0
VERTEX
  5
134
  8
0
 10
0.0
 20
0.0
 30
0.0
 70
   128
 71
    41
 72
    42
 73
    82
  0
VERTEX
  5
135
  8
0
 10
0.0
 20
0.0
 30
0.0
 70
   128
 71
    21
 72
    23
 73
    20
  0
VERTEX
  5
136
  8
0
 10
0.0
 20
0.0
 30
0.0
 70
   128
 71
    21
 72
    22
 73
    23
  0
VERTEX
  5
137
  8
0
 10
0.0
 20
0.0
 30
0.0
 70
   128
 71
    23
 72
    24
 73
    20
  0
VERTEX
  5
138
  8
0
 10
0.0
 20
0.0
 30
0.0
 70
   128
 71
    20
 72
    24
 73
    25
  0
VERTEX
  5
139
  8
0
 10
0.0
 20
0.0
 30
0.0
 70
   128
 71
    26
 72
    20
 73
    25
  0
VERTEX
  5
13A
  8
0
 10
0.0
 20
0.0
 30
0.0
 70
   128
 71
    26
 72
    27
 73
    20
  0
VERTEX
  5
13B
  8
0
 10
0.0
 20
0.0
 30
0.0
 70
   128
 71
    47
 72
    48
 73
    84
  0
VERTEX
  5
13C
  8
0
 10
0.0
 20
0.0
 30
0.0
 70
   128
 71
    84
 72
    48
 73
    49
  0
VERTEX
  5
13D
  8
0
 10
0.0
 20
0.0
 30
0.0
 70
   128
 71
    50
 72
    84
 73
    49
  0
VERTEX
  5
13E
  8
0
 10
0.0
 20
0.0
 30
0.0
 70
   128
 71
    50
 72
    85
 73
    84
  0
VERTEX
  5
13F
  8
0
 10
0.0
 20
0.0
 30
0.0
 70
   128
 71
    50
 72
    51
 73
    85
  0
VERTEX
  5
140
  8
0
 10
0.0
 20
0.0
 30
0.0
 70
   128
 71
    85
 72
    51
 73
    52
  0
VERTEX
  5
141
  8
0
 10
0.0
 20
0.0
 30
0.0
 70
   128
 71
    53
 72
    85
 73
    52
  0
VERTEX
  5
142
  8
0
 10
0.0
 20
0.0
 30
0.0
 70
   128
 71
    53
 72
    54
 73
    85
  0
VERTEX
  5
143
  8
0
 10
0.0
 20
0.0
 30
0.0
 70
   128
 71
    85
 72
    54
 73
    55
  0
VERTEX
  5
144
  8
0
 10
0.0
 20
0.0
 30
0.0
 70
   128
 71
    86
 72
    55
 73
    56
  0
VERTEX
  5
145
  8
0
 10
0.0
 20
0.0
 30
0.0
 70
   128
 71
    57
 72
    86
 73
    56
  0
VERTEX
  5
146
  8
0
 10
0.0
 20
0.0
 30
0.0
 70
   128
 71
    57
 72
    58
 73
    86
  0
VERTEX
  5
147
  8
0
 10
0.0
 20
0.0
 30
0.0
 70
   128
 71
    86
 72
    58
 73
    59
  0
VERTEX
  5
148
  8
0
 10
0.0
 20
0.0
 30
0.0
 70
   128
 71
    60
 72
    86
 73
    59
  0
VERTEX
  5
149
  8
0
 10
0.0
 20
0.0
 30
0.0
 70
   128
 71
    60
 72
    61
 73
    86
  0
VERTEX
  5
14A
  8
0
 10
0.0
 20
0.0
 30
0.0
 70
   128
 71
    66
 72
    67
 73
    72
  0
VERTEX
  5
14B
  8
0
 10
0.0
 20
0.0
 30
0.0
 70
   128
 71
    72
 72
    67
 73
    68
  0
VERTEX
  5
14C
  8
0
 10
0.0
 20
0.0
 30
0.0
 70
   128
 71
    69
 72
    72
 73
    68
  0
VERTEX
  5
14D
  8
0
 10
0.0
 20
0.0
 30
0.0
 70
   128
 71
    69
 72
    70
 73
    72
  0
VERTEX
  5
14E
  8
0
 10
0.0
 20
0.0
 30
0.0
 70
   128
 71
    72
 72
    70
 73
    71
  0
VERTEX
  5
14F
  8
0
 10
0.0
 20
0.0
 30
0.0
 70
   128
 71
    80
 72
    72
 73
    71
  0
VERTEX
  5
150
  8
0
 10
0.0
 20
0.0
 30
0.0
 70
   128
 71
    74
 72
    73
 73
    81
 74
    82
  0
VERTEX
  5
151
  8
0
 10
0.0
 20
0.0
 30
0.0
 70
   128
 71
    73
 72
    19
 73
    81
  0
VERTEX
  5
152
  8
0
 10
0.0
 20
0.0
 30
0.0
 70
   128
 71
    86
 72
    78
 73
    77
 74
    85
  0
VERTEX
  5
153
  8
0
 10
0.0
 20
0.0
 30
0.0
 70
   128
 71
    86
 72
    85
 73
    55
  0
VERTEX
  5
154
  8
0
 10
0.0
 20
0.0
 30
0.0
 70
   128
 71
    77
 72
    76
 73
    84
 74
    85
  0
VERTEX
  5
155
  8
0
 10
0.0
 20
0.0
 30
0.0
 70
   128
 71
     7
 72
    77
 73
    78
  0
VERTEX
  5
156
  8
0
 10
0.0
 20
0.0
 30
0.0
 70
   128
 71
    82
 72
    81
 73
    36
  0
SEQEND
  5
157
  8
LAYER1
 62
     7
  0
POLYLINE
  5
158
  8
LAYER1
 62
     7
 66
     1
 10
0.0
 20
0.0
 30
0.0
 70
    64
 71
    81
 72
    85
  0
VERTEX
  5
159
  8
0
 10
0.0
 20
1.250113606452942
 30
95.0
 70
   192
  0
VERTEX
  5
15A
  8
0
 10
-8.219011306762695
 20
1.248006939888
 30
94.83990478515625
 70
   192
  0
VERTEX
  5
15B
  8
0
 10
-16.85723114013672
 20
1.241134524345398
 30
94.3176498413086
 70
   192
  0
VERTEX
  5
15C
  8
0
 10
-25.32024574279785
 20
1.229362964630127
 30
93.423095703125
 70
   192
  0
VERTEX
  5
15D
  8
0
 10
-33.0150260925293
 20
1.213711857795715
 30
92.23371887207031
 70
   192
  0
VERTEX
  5
15E
  8
0
 10
-39.63387298583984
 20
1.195802688598633
 30
90.87274932861328
 70
   192
  0
VERTEX
  5
15F
  8
0
 10
-45.29284286499023
 20
1.176485061645508
 30
89.40473175048828
 70
   192
  0
VERTEX
  5
160
  8
0
 10
-50.17914199829102
 20
1.156137943267822
 30
87.8584976196289
 70
   192
  0
VERTEX
  5
161
  8
0
 10
-54.4906120300293
 20
1.134758949279785
 30
86.23384094238281
 70
   192
  0
VERTEX
  5
162
  8
0
 10
-58.41375350952148
 20
1.111959218978882
 30
84.50122833251953
 70
   192
  0
VERTEX
  5
163
  8
0
 10
-62.13103103637695
 20
1.086844921112061
 30
82.59270477294922
 70
   192
  0
VERTEX
  5
164
  8
0
 10
-65.74954223632812
 20
1.058407306671143
 30
80.43164825439453
 70
   192
  0
VERTEX
  5
165
  8
0
 10
-69.23473358154297
 20
1.026352763175964
 30
77.9957275390625
 70
   192
  0
VERTEX
  5
166
  8
0
 10
-72.5194091796875
 20
0.9910240173339844
 30
75.31098937988281
 70
   192
  0
VERTEX
  5
167
  8
0
 10
-75.55284118652344
 20
0.9534078240394592
 30
72.45240783691406
 70
   192
  0
VERTEX
  5
168
  8
0
 10
-78.40544128417969
 20
0.9131089448928833
 30
69.38997650146484
 70
   192
  0
VERTEX
  5
169
  8
0
 10
-81.22694396972656
 20
0.8679043054580688
 30
65.9547348022461
 70
   192
  0
VERTEX
  5
16A
  8
0
 10
-84.14307403564453
 20
0.8147329092025757
 30
61.9140739440918
 70
   192
  0
VERTEX
  5
16B
  8
0
 10
-87.18620300292969
 20
0.7510533332824707
 30
57.07485961914062
 70
   192
  0
VERTEX
  5
16C
  8
0
 10
-90.24147033691406
 20
0.676892101764679
 30
51.43912124633789
 70
   192
  0
VERTEX
  5
16D
  8
0
 10
-93.14461517333984
 20
0.5942297577857971
 30
45.15735626220703
 70
   192
  0
VERTEX
  5
16E
  8
0
 10
-95.8138198852539
 20
0.5038526058197021
 30
38.28931427001953
 70
   192
  0
VERTEX
  5
16F
  8
0
 10
-98.22734069824219
 20
0.4047722816467285
 30
30.7598991394043
 70
   192
  0
VERTEX
  5
170
  8
0
 10
-100.3303756713867
 20
0.2977339327335358
 30
22.62572288513184
 70
   192
  0
VERTEX
  5
171
  8
0
 10
-102.0513534545898
 20
0.1872020810842514
 30
14.22606468200684
 70
   192
  0
VERTEX
  5
172
  8
0
 10
-103.4049758911133
 20
0.077109307050705
 30
5.859774589538574
 70
   192
  0
VERTEX
  5
173
  8
0
 10
-104.4829406738281
 20
-0.0321441255509853
 30
-2.442731380462646
 70
   192
  0
VERTEX
  5
174
  8
0
 10
-105.3662948608398
 20
-0.1410439014434814
 30
-10.71836185455322
 70
   192
  0
VERTEX
  5
175
  8
0
 10
-106.1027755737305
 20
-0.2501955628395081
 30
-19.01313400268555
 70
   192
  0
VERTEX
  5
176
  8
0
 10
-106.723876953125
 20
-0.3595048189163208
 30
-27.31988334655762
 70
   192
  0
VERTEX
  5
177
  8
0
 10
-107.2419128417969
 20
-0.468361109495163
 30
-35.59220886230469
 70
   192
  0
VERTEX
  5
178
  8
0
 10
-107.6770172119141
 20
-0.5784177184104919
 30
-43.95574951171875
 70
   192
  0
VERTEX
  5
179
  8
0
 10
-108.0589294433594
 20
-0.6937664747238159
 30
-52.72146224975586
 70
   192
  0
VERTEX
  5
17A
  8
0
 10
-108.4124450683594
 20
-0.8184648752212524
 30
-62.19767379760742
 70
   192
  0
VERTEX
  5
17B
  8
0
 10
-108.7462844848633
 20
-0.9559388160705566
 30
-72.64474487304688
 70
   192
  0
VERTEX
  5
17C
  8
0
 10
-109.0582275390625
 20
-1.107020616531372
 30
-84.12592315673828
 70
   192
  0
VERTEX
  5
17D
  8
0
 10
-109.3489685058594
 20
-1.271722912788391
 30
-96.64215850830078
 70
   192
  0
VERTEX
  5
17E
  8
0
 10
-109.621940612793
 20
-1.4500972032547
 30
-110.1973648071289
 70
   192
  0
VERTEX
  5
17F
  8
0
 10
-109.6541366577148
 20
-1.612181901931763
 30
-112.207893371582
 70
   192
  0
VERTEX
  5
180
  8
0
 10
-109.674430847168
 20
-2.047570943832397
 30
-114.1957931518555
 70
   192
  0
VERTEX
  5
181
  8
0
 10
-109.6822814941406
 20
-2.747312545776367
 30
-116.1048583984375
 70
   192
  0
VERTEX
  5
182
  8
0
 10
-109.6778106689453
 20
-3.689115047454834
 30
-117.8860931396484
 70
   192
  0
VERTEX
  5
183
  8
0
 10
-109.661247253418
 20
-4.86634635925293
 30
-119.5313568115234
 70
   192
  0
VERTEX
  5
184
  8
0
 10
-109.6328811645508
 20
-6.259851932525635
 30
-121.0084228515625
 70
   192
  0
VERTEX
  5
185
  8
0
 10
-109.5936126708984
 20
-7.83005428314209
 30
-122.2766952514648
 70
   192
  0
VERTEX
  5
186
  8
0
 10
-109.5442581176758
 20
-9.549627304077148
 30
-123.3192138671875
 70
   192
  0
VERTEX
  5
187
  8
0
 10
-109.4851379394531
 20
-11.40615844726562
 30
-124.1269912719727
 70
   192
  0
VERTEX
  5
188
  8
0
 10
-109.4172210693359
 20
-13.36607933044434
 30
-124.679801940918
 70
   192
  0
VERTEX
  5
189
  8
0
 10
-109.3438110351562
 20
-15.33504390716553
 30
-124.9582290649414
 70
   192
  0
VERTEX
  5
18A
  8
0
 10
-109.3141479492188
 20
-16.08852195739746
 30
-124.9795913696289
 70
   192
  0
VERTEX
  5
18B
  8
0
 10
-109.2857818603516
 20
-16.80840110778809
 30
-125.0
 70
   192
  0
VERTEX
  5
18C
  8
0
 10
-93.18331146240234
 20
-356.8967895507812
 30
-125.0
 70
   192
  0
VERTEX
  5
18D
  8
0
 10
-71.0
 20
-714.7498779296875
 30
-125.0
 70
   192
  0
VERTEX
  5
18E
  8
0
 10
-70.51815032958984
 20
-714.7498779296875
 30
-100.56591796875
 70
   192
  0
VERTEX
  5
18F
  8
0
 10
-69.826416015625
 20
-714.7498779296875
 30
-74.19935607910156
 70
   192
  0
VERTEX
  5
190
  8
0
 10
-69.37786865234375
 20
-714.7498779296875
 30
-60.67635345458984
 70
   192
  0
VERTEX
  5
191
  8
0
 10
-68.84810638427734
 20
-714.7498779296875
 30
-47.13215637207031
 70
   192
  0
VERTEX
  5
192
  8
0
 10
-68.22195434570312
 20
-714.7498779296875
 30
-33.71977615356445
 70
   192
  0
VERTEX
  5
193
  8
0
 10
-67.25260162353516
 20
-714.7498779296875
 30
-20.55111122131348
 70
   192
  0
VERTEX
  5
194
  8
0
 10
-65.38302612304688
 20
-714.7498779296875
 30
-7.683072566986084
 70
   192
  0
VERTEX
  5
195
  8
0
 10
-63.92980194091797
 20
-714.7498779296875
 30
-1.378366947174072
 70
   192
  0
VERTEX
  5
196
  8
0
 10
-62.03449630737305
 20
-714.7498779296875
 30
4.831286430358887
 70
   192
  0
VERTEX
  5
197
  8
0
 10
-59.62531661987305
 20
-714.7498779296875
 30
10.93787670135498
 70
   192
  0
VERTEX
  5
198
  8
0
 10
-56.65681457519531
 20
-714.7498779296875
 30
16.86582946777344
 70
   192
  0
VERTEX
  5
199
  8
0
 10
-49.01418304443359
 20
-714.7498779296875
 30
27.48859214782715
 70
   192
  0
VERTEX
  5
19A
  8
0
 10
-44.33222198486328
 20
-714.7498779296875
 30
31.82907485961914
 70
   192
  0
VERTEX
  5
19B
  8
0
 10
-39.10690689086914
 20
-714.7498779296875
 30
35.40636444091797
 70
   192
  0
VERTEX
  5
19C
  8
0
 10
-27.28535079956055
 20
-714.7498779296875
 30
40.49017715454102
 70
   192
  0
VERTEX
  5
19D
  8
0
 10
-14.07433605194092
 20
-714.7498779296875
 30
43.19993591308594
 70
   192
  0
VERTEX
  5
19E
  8
0
 10
0.0
 20
-714.7498779296875
 30
44.0
 70
   192
  0
VERTEX
  5
19F
  8
0
 10
0.0
 20
-357.1443176269531
 30
75.0783462524414
 70
   192
  0
VERTEX
  5
1A0
  8
0
 10
-39.21721649169922
 20
-145.0979309082031
 30
83.54856872558594
 70
   192
  0
VERTEX
  5
1A1
  8
0
 10
-36.41368865966797
 20
-358.9673156738281
 30
70.20457458496094
 70
   192
  0
VERTEX
  5
1A2
  8
0
 10
-73.43577575683594
 20
-145.0910034179688
 30
63.34151840209961
 70
   192
  0
VERTEX
  5
1A3
  8
0
 10
-66.84253692626953
 20
-358.9638061523438
 30
50.26657485961914
 70
   192
  0
VERTEX
  5
1A4
  8
0
 10
-91.73112487792969
 20
-145.0758209228516
 30
27.76665306091309
 70
   192
  0
VERTEX
  5
1A5
  8
0
 10
-82.5971450805664
 20
-358.9431457519531
 30
16.98155975341797
 70
   192
  0
VERTEX
  5
1A6
  8
0
 10
-98.60404968261719
 20
-145.0528411865234
 30
-10.91079139709473
 70
   192
  0
VERTEX
  5
1A7
  8
0
 10
-88.2336196899414
 20
-358.9061584472656
 30
-18.96955490112305
 70
   192
  0
VERTEX
  5
1A8
  8
0
 10
-102.7167892456055
 20
-144.9891815185547
 30
-84.15406799316406
 70
   192
  0
VERTEX
  5
1A9
  8
0
 10
-91.94869232177734
 20
-358.7940368652344
 30
-87.47537231445312
 70
   192
  0
VERTEX
  5
1AA
  8
0
 10
0.0
 20
0.0
 30
0.0
 70
   128
 71
     1
 72
     2
 73
    71
  0
VERTEX
  5
1AB
  8
0
 10
0.0
 20
0.0
 30
0.0
 70
   128
 71
    71
 72
     2
 73
    72
  0
VERTEX
  5
1AC
  8
0
 10
0.0
 20
0.0
 30
0.0
 70
   128
 71
    73
 72
    72
 73
    74
 74
    75
  0
VERTEX
  5
1AD
  8
0
 10
0.0
 20
0.0
 30
0.0
 70
   128
 71
    75
 72
    66
 73
    73
  0
VERTEX
  5
1AE
  8
0
 10
0.0
 20
0.0
 30
0.0
 70
   128
 71
    75
 72
    65
 73
    66
  0
VERTEX
  5
1AF
  8
0
 10
0.0
 20
0.0
 30
0.0
 70
   128
 71
    75
 72
    64
 73
    65
  0
VERTEX
  5
1B0
  8
0
 10
0.0
 20
0.0
 30
0.0
 70
   128
 71
    75
 72
    63
 73
    64
  0
VERTEX
  5
1B1
  8
0
 10
0.0
 20
0.0
 30
0.0
 70
   128
 71
    75
 72
    62
 73
    63
  0
VERTEX
  5
1B2
  8
0
 10
0.0
 20
0.0
 30
0.0
 70
   128
 71
    75
 72
    77
 73
    62
  0
VERTEX
  5
1B3
  8
0
 10
0.0
 20
0.0
 30
0.0
 70
   128
 71
    75
 72
    74
 73
    76
 74
    77
  0
VERTEX
  5
1B4
  8
0
 10
0.0
 20
0.0
 30
0.0
 70
   128
 71
    74
 72
    20
 73
    76
  0
VERTEX
  5
1B5
  8
0
 10
0.0
 20
0.0
 30
0.0
 70
   128
 71
    74
 72
    19
 73
    20
  0
VERTEX
  5
1B6
  8
0
 10
0.0
 20
0.0
 30
0.0
 70
   128
 71
    74
 72
    18
 73
    19
  0
VERTEX
  5
1B7
  8
0
 10
0.0
 20
0.0
 30
0.0
 70
   128
 71
    74
 72
    17
 73
    18
  0
VERTEX
  5
1B8
  8
0
 10
0.0
 20
0.0
 30
0.0
 70
   128
 71
    74
 72
    16
 73
    17
  0
VERTEX
  5
1B9
  8
0
 10
0.0
 20
0.0
 30
0.0
 70
   128
 71
    74
 72
    15
 73
    16
  0
VERTEX
  5
1BA
  8
0
 10
0.0
 20
0.0
 30
0.0
 70
   128
 71
    74
 72
    14
 73
    15
  0
VERTEX
  5
1BB
  8
0
 10
0.0
 20
0.0
 30
0.0
 70
   128
 71
    74
 72
    13
 73
    14
  0
VERTEX
  5
1BC
  8
0
 10
0.0
 20
0.0
 30
0.0
 70
   128
 71
    74
 72
    12
 73
    13
  0
VERTEX
  5
1BD
  8
0
 10
0.0
 20
0.0
 30
0.0
 70
   128
 71
    74
 72
    11
 73
    12
  0
VERTEX
  5
1BE
  8
0
 10
0.0
 20
0.0
 30
0.0
 70
   128
 71
    74
 72
    72
 73
    11
  0
VERTEX
  5
1BF
  8
0
 10
0.0
 20
0.0
 30
0.0
 70
   128
 71
    11
 72
    72
 73
    10
  0
VERTEX
  5
1C0
  8
0
 10
0.0
 20
0.0
 30
0.0
 70
   128
 71
    10
 72
    72
 73
     9
  0
VERTEX
  5
1C1
  8
0
 10
0.0
 20
0.0
 30
0.0
 70
   128
 71
     9
 72
    72
 73
     8
  0
VERTEX
  5
1C2
  8
0
 10
0.0
 20
0.0
 30
0.0
 70
   128
 71
     8
 72
    72
 73
     7
  0
VERTEX
  5
1C3
  8
0
 10
0.0
 20
0.0
 30
0.0
 70
   128
 71
     7
 72
    72
 73
     6
  0
VERTEX
  5
1C4
  8
0
 10
0.0
 20
0.0
 30
0.0
 70
   128
 71
     6
 72
    72
 73
     5
  0
VERTEX
  5
1C5
  8
0
 10
0.0
 20
0.0
 30
0.0
 70
   128
 71
     5
 72
    72
 73
     4
  0
VERTEX
  5
1C6
  8
0
 10
0.0
 20
0.0
 30
0.0
 70
   128
 71
     4
 72
    72
 73
     3
  0
VERTEX
  5
1C7
  8
0
 10
0.0
 20
0.0
 30
0.0
 70
   128
 71
     3
 72
    72
 73
     2
  0
VERTEX
  5
1C8
  8
0
 10
0.0
 20
0.0
 30
0.0
 70
   128
 71
    20
 72
    21
 73
    76
  0
VERTEX
  5
1C9
  8
0
 10
0.0
 20
0.0
 30
0.0
 70
   128
 71
    76
 72
    21
 73
    22
  0
VERTEX
  5
1CA
  8
0
 10
0.0
 20
0.0
 30
0.0
 70
   128
 71
    23
 72
    76
 73
    22
  0
VERTEX
  5
1CB
  8
0
 10
0.0
 20
0.0
 30
0.0
 70
   128
 71
    23
 72
    24
 73
    76
  0
VERTEX
  5
1CC
  8
0
 10
0.0
 20
0.0
 30
0.0
 70
   128
 71
    76
 72
    24
 73
    25
  0
VERTEX
  5
1CD
  8
0
 10
0.0
 20
0.0
 30
0.0
 70
   128
 71
    78
 72
    25
 73
    26
  0
VERTEX
  5
1CE
  8
0
 10
0.0
 20
0.0
 30
0.0
 70
   128
 71
    27
 72
    78
 73
    26
  0
VERTEX
  5
1CF
  8
0
 10
0.0
 20
0.0
 30
0.0
 70
   128
 71
    27
 72
    28
 73
    78
  0
VERTEX
  5
1D0
  8
0
 10
0.0
 20
0.0
 30
0.0
 70
   128
 71
    78
 72
    28
 73
    29
  0
VERTEX
  5
1D1
  8
0
 10
0.0
 20
0.0
 30
0.0
 70
   128
 71
    30
 72
    78
 73
    29
  0
VERTEX
  5
1D2
  8
0
 10
0.0
 20
0.0
 30
0.0
 70
   128
 71
    30
 72
    31
 73
    78
  0
VERTEX
  5
1D3
  8
0
 10
0.0
 20
0.0
 30
0.0
 70
   128
 71
    78
 72
    31
 73
    32
  0
VERTEX
  5
1D4
  8
0
 10
0.0
 20
0.0
 30
0.0
 70
   128
 71
    80
 72
    32
 73
    33
  0
VERTEX
  5
1D5
  8
0
 10
0.0
 20
0.0
 30
0.0
 70
   128
 71
    34
 72
    80
 73
    33
  0
VERTEX
  5
1D6
  8
0
 10
0.0
 20
0.0
 30
0.0
 70
   128
 71
    34
 72
    35
 73
    80
  0
VERTEX
  5
1D7
  8
0
 10
0.0
 20
0.0
 30
0.0
 70
   128
 71
    80
 72
    35
 73
    36
  0
VERTEX
  5
1D8
  8
0
 10
0.0
 20
0.0
 30
0.0
 70
   128
 71
    37
 72
    80
 73
    36
  0
VERTEX
  5
1D9
  8
0
 10
0.0
 20
0.0
 30
0.0
 70
   128
 71
    37
 72
    38
 73
    80
  0
VERTEX
  5
1DA
  8
0
 10
0.0
 20
0.0
 30
0.0
 70
   128
 71
    80
 72
    38
 73
    39
  0
VERTEX
  5
1DB
  8
0
 10
0.0
 20
0.0
 30
0.0
 70
   128
 71
    40
 72
    80
 73
    39
  0
VERTEX
  5
1DC
  8
0
 10
0.0
 20
0.0
 30
0.0
 70
   128
 71
    40
 72
    51
 73
    80
  0
VERTEX
  5
1DD
  8
0
 10
0.0
 20
0.0
 30
0.0
 70
   128
 71
    40
 72
    41
 73
    51
  0
VERTEX
  5
1DE
  8
0
 10
0.0
 20
0.0
 30
0.0
 70
   128
 71
    51
 72
    41
 73
    42
  0
VERTEX
  5
1DF
  8
0
 10
0.0
 20
0.0
 30
0.0
 70
   128
 71
    43
 72
    51
 73
    42
  0
VERTEX
  5
1E0
  8
0
 10
0.0
 20
0.0
 30
0.0
 70
   128
 71
    43
 72
    44
 73
    51
  0
VERTEX
  5
1E1
  8
0
 10
0.0
 20
0.0
 30
0.0
 70
   128
 71
    51
 72
    44
 73
    45
  0
VERTEX
  5
1E2
  8
0
 10
0.0
 20
0.0
 30
0.0
 70
   128
 71
    46
 72
    51
 73
    45
  0
VERTEX
  5
1E3
  8
0
 10
0.0
 20
0.0
 30
0.0
 70
   128
 71
    46
 72
    47
 73
    51
  0
VERTEX
  5
1E4
  8
0
 10
0.0
 20
0.0
 30
0.0
 70
   128
 71
    51
 72
    47
 73
    48
  0
VERTEX
  5
1E5
  8
0
 10
0.0
 20
0.0
 30
0.0
 70
   128
 71
    50
 72
    48
 73
    49
  0
VERTEX
  5
1E6
  8
0
 10
0.0
 20
0.0
 30
0.0
 70
   128
 71
    50
 72
    51
 73
    48
  0
VERTEX
  5
1E7
  8
0
 10
0.0
 20
0.0
 30
0.0
 70
   128
 71
    51
 72
    52
 73
    80
  0
VERTEX
  5
1E8
  8
0
 10
0.0
 20
0.0
 30
0.0
 70
   128
 71
    80
 72
    52
 73
    81
  0
VERTEX
  5
1E9
  8
0
 10
0.0
 20
0.0
 30
0.0
 70
   128
 71
    79
 72
    81
 73
    55
  0
VERTEX
  5
1EA
  8
0
 10
0.0
 20
0.0
 30
0.0
 70
   128
 71
    56
 72
    79
 73
    55
  0
VERTEX
  5
1EB
  8
0
 10
0.0
 20
0.0
 30
0.0
 70
   128
 71
    56
 72
    57
 73
    79
  0
VERTEX
  5
1EC
  8
0
 10
0.0
 20
0.0
 30
0.0
 70
   128
 71
    79
 72
    57
 73
    58
  0
VERTEX
  5
1ED
  8
0
 10
0.0
 20
0.0
 30
0.0
 70
   128
 71
    59
 72
    79
 73
    58
  0
VERTEX
  5
1EE
  8
0
 10
0.0
 20
0.0
 30
0.0
 70
   128
 71
    59
 72
    77
 73
    79
  0
VERTEX
  5
1EF
  8
0
 10
0.0
 20
0.0
 30
0.0
 70
   128
 71
    59
 72
    60
 73
    77
  0
VERTEX
  5
1F0
  8
0
 10
0.0
 20
0.0
 30
0.0
 70
   128
 71
    77
 72
    60
 73
    61
  0
VERTEX
  5
1F1
  8
0
 10
0.0
 20
0.0
 30
0.0
 70
   128
 71
    62
 72
    77
 73
    61
  0
VERTEX
  5
1F2
  8
0
 10
0.0
 20
0.0
 30
0.0
 70
   128
 71
    52
 72
    53
 73
    81
  0
VERTEX
  5
1F3
  8
0
 10
0.0
 20
0.0
 30
0.0
 70
   128
 71
    81
 72
    53
 73
    54
  0
VERTEX
  5
1F4
  8
0
 10
0.0
 20
0.0
 30
0.0
 70
   128
 71
    55
 72
    81
 73
    54
  0
VERTEX
  5
1F5
  8
0
 10
0.0
 20
0.0
 30
0.0
 70
   128
 71
    66
 72
    67
 73
    73
  0
VERTEX
  5
1F6
  8
0
 10
0.0
 20
0.0
 30
0.0
 70
   128
 71
    73
 72
    67
 73
    68
  0
VERTEX
  5
1F7
  8
0
 10
0.0
 20
0.0
 30
0.0
 70
   128
 71
    69
 72
    73
 73
    68
  0
VERTEX
  5
1F8
  8
0
 10
0.0
 20
0.0
 30
0.0
 70
   128
 71
    69
 72
    71
 73
    73
  0
VERTEX
  5
1F9
  8
0
 10
0.0
 20
0.0
 30
0.0
 70
   128
 71
    69
 72
    70
 73
    71
  0
VERTEX
  5
1FA
  8
0
 10
0.0
 20
0.0
 30
0.0
 70
   128
 71
    72
 72
    73
 73
    71
  0
VERTEX
  5
1FB
  8
0
 10
0.0
 20
0.0
 30
0.0
 70
   128
 71
    77
 72
    76
 73
    78
 74
    79
  0
VERTEX
  5
1FC
  8
0
 10
0.0
 20
0.0
 30
0.0
 70
   128
 71
    76
 72
    25
 73
    78
  0
VERTEX
  5
1FD
  8
0
 10
0.0
 20
0.0
 30
0.0
 70
   128
 71
    79
 72
    78
 73
    80
 74
    81
  0
VERTEX
  5
1FE
  8
0
 10
0.0
 20
0.0
 30
0.0
 70
   128
 71
    78
 72
    32
 73
    80
  0
SEQEND
  5
1FF
  8
LAYER1
 62
     7
  0
POLYLINE
  5
200
  8
LAYER1
 62
     7
 66
     1
 10
0.0
 20
0.0
 30
0.0
 70
    64
 71
    35
 72
    33
  0
VERTEX
  5
201
  8
0
 10
71.0
 20
-714.7498779296875
 30
-125.0
 70
   192
  0
VERTEX
  5
202
  8
0
 10
70.51815032958984
 20
-714.7498779296875
 30
-100.56591796875
 70
   192
  0
VERTEX
  5
203
  8
0
 10
69.826416015625
 20
-714.7498779296875
 30
-74.19935607910156
 70
   192
  0
VERTEX
  5
204
  8
0
 10
69.37786865234375
 20
-714.7498779296875
 30
-60.67635345458984
 70
   192
  0
VERTEX
  5
205
  8
0
 10
68.84810638427734
 20
-714.7498779296875
 30
-47.13215637207031
 70
   192
  0
VERTEX
  5
206
  8
0
 10
68.22195434570312
 20
-714.7498779296875
 30
-33.71977615356445
 70
   192
  0
VERTEX
  5
207
  8
0
 10
67.25260162353516
 20
-714.7498779296875
 30
-20.55111122131348
 70
   192
  0
VERTEX
  5
208
  8
0
 10
65.38302612304688
 20
-714.7498779296875
 30
-7.683072566986084
 70
   192
  0
VERTEX
  5
209
  8
0
 10
63.92980194091797
 20
-714.7498779296875
 30
-1.378366947174072
 70
   192
  0
VERTEX
  5
20A
  8
0
 10
62.03449630737305
 20
-714.7498779296875
 30
4.831286430358887
 70
   192
  0
VERTEX
  5
20B
  8
0
 10
59.62531661987305
 20
-714.7498779296875
 30
10.93787670135498
 70
   192
  0
VERTEX
  5
20C
  8
0
 10
56.65681457519531
 20
-714.7498779296875
 30
16.86582946777344
 70
   192
  0
VERTEX
  5
20D
  8
0
 10
49.01418304443359
 20
-714.7498779296875
 30
27.48859214782715
 70
   192
  0
VERTEX
  5
20E
  8
0
 10
44.33222198486328
 20
-714.7498779296875
 30
31.82907485961914
 70
   192
  0
VERTEX
  5
20F
  8
0
 10
39.10690689086914
 20
-714.7498779296875
 30
35.40636444091797
 70
   192
  0
VERTEX
  5
210
  8
0
 10
27.28535079956055
 20
-714.7498779296875
 30
40.49017715454102
 70
   192
  0
VERTEX
  5
211
  8
0
 10
14.07433605194092
 20
-714.7498779296875
 30
43.19993591308594
 70
   192
  0
VERTEX
  5
212
  8
0
 10
0.0
 20
-714.7498779296875
 30
44.0
 70
   192
  0
VERTEX
  5
213
  8
0
 10
-14.07433605194092
 20
-714.7498779296875
 30
43.19993591308594
 70
   192
  0
VERTEX
  5
214
  8
0
 10
-27.28535079956055
 20
-714.7498779296875
 30
40.49017715454102
 70
   192
  0
VERTEX
  5
215
  8
0
 10
-39.10690689086914
 20
-714.7498779296875
 30
35.40636444091797
 70
   192
  0
VERTEX
  5
216
  8
0
 10
-44.33222198486328
 20
-714.7498779296875
 30
31.82907485961914
 70
   192
  0
VERTEX
  5
217
  8
0
 10
-49.01418304443359
 20
-714.7498779296875
 30
27.48859214782715
 70
   192
  0
VERTEX
  5
218
  8
0
 10
-56.65681457519531
 20
-714.7498779296875
 30
16.86582946777344
 70
   192
  0
VERTEX
  5
219
  8
0
 10
-59.62531661987305
 20
-714.7498779296875
 30
10.93787670135498
 70
   192
  0
VERTEX
  5
21A
  8
0
 10
-62.03449630737305
 20
-714.7498779296875
 30
4.831286430358887
 70
   192
  0
VERTEX
  5
21B
  8
0
 10
-63.92980194091797
 20
-714.7498779296875
 30
-1.378366947174072
 70
   192
  0
VERTEX
  5
21C
  8
0
 10
-65.38302612304688
 20
-714.7498779296875
 30
-7.683072566986084
 70
   192
  0
VERTEX
  5
21D
  8
0
 10
-67.25260162353516
 20
-714.7498779296875
 30
-20.55111122131348
 70
   192
  0
VERTEX
  5
21E
  8
0
 10
-68.22195434570312
 20
-714.7498779296875
 30
-33.71977615356445
 70
   192
  0
VERTEX
  5
21F
  8
0
 10
-68.84810638427734
 20
-714.7498779296875
 30
-47.13215637207031
 70
   192
  0
VERTEX
  5
220
  8
0
 10
-69.37786865234375
 20
-714.7498779296875
 30
-60.67635345458984
 70
   192
  0
VERTEX
  5
221
  8
0
 10
-69.826416015625
 20
-714.7498779296875
 30
-74.19935607910156
 70
   192
  0
VERTEX
  5
222
  8
0
 10
-70.51815032958984
 20
-714.7498779296875
 30
-100.56591796875
 70
   192
  0
VERTEX
  5
223
  8
0
 10
-71.0
 20
-714.7498779296875
 30
-125.0
 70
   192
  0
VERTEX
  5
224
  8
0
 10
0.0
 20
0.0
 30
0.0
 70
   128
 71
     1
 72
     2
 73
    35
  0
VERTEX
  5
225
  8
0
 10
0.0
 20
0.0
 30
0.0
 70
   128
 71
    35
 72
     2
 73
     3
  0
VERTEX
  5
226
  8
0
 10
0.0
 20
0.0
 30
0.0
 70
   128
 71
    34
 72
     3
 73
    33
  0
VERTEX
  5
227
  8
0
 10
0.0
 20
0.0
 30
0.0
 70
   128
 71
    34
 72
    35
 73
     3
  0
VERTEX
  5
228
  8
0
 10
0.0
 20
0.0
 30
0.0
 70
   128
 71
    28
 72
    29
 73
     4
  0
VERTEX
  5
229
  8
0
 10
0.0
 20
0.0
 30
0.0
 70
   128
 71
    27
 72
     4
 73
    26
  0
VERTEX
  5
22A
  8
0
 10
0.0
 20
0.0
 30
0.0
 70
   128
 71
    27
 72
    28
 73
     4
  0
VERTEX
  5
22B
  8
0
 10
0.0
 20
0.0
 30
0.0
 70
   128
 71
     4
 72
     5
 73
    26
  0
VERTEX
  5
22C
  8
0
 10
0.0
 20
0.0
 30
0.0
 70
   128
 71
    26
 72
     5
 73
    19
  0
VERTEX
  5
22D
  8
0
 10
0.0
 20
0.0
 30
0.0
 70
   128
 71
    25
 72
    19
 73
    24
  0
VERTEX
  5
22E
  8
0
 10
0.0
 20
0.0
 30
0.0
 70
   128
 71
    25
 72
    26
 73
    19
  0
VERTEX
  5
22F
  8
0
 10
0.0
 20
0.0
 30
0.0
 70
   128
 71
     7
 72
    16
 73
     6
  0
VERTEX
  5
230
  8
0
 10
0.0
 20
0.0
 30
0.0
 70
   128
 71
     7
 72
     8
 73
    16
  0
VERTEX
  5
231
  8
0
 10
0.0
 20
0.0
 30
0.0
 70
   128
 71
    16
 72
     8
 73
    15
  0
VERTEX
  5
232
  8
0
 10
0.0
 20
0.0
 30
0.0
 70
   128
 71
    15
 72
     8
 73
    14
  0
VERTEX
  5
233
  8
0
 10
0.0
 20
0.0
 30
0.0
 70
   128
 71
    14
 72
     8
 73
    13
  0
VERTEX
  5
234
  8
0
 10
0.0
 20
0.0
 30
0.0
 70
   128
 71
    13
 72
     8
 73
     9
  0
VERTEX
  5
235
  8
0
 10
0.0
 20
0.0
 30
0.0
 70
   128
 71
    10
 72
    13
 73
     9
  0
VERTEX
  5
236
  8
0
 10
0.0
 20
0.0
 30
0.0
 70
   128
 71
    10
 72
    11
 73
    13
  0
VERTEX
  5
237
  8
0
 10
0.0
 20
0.0
 30
0.0
 70
   128
 71
    13
 72
    11
 73
    12
  0
VERTEX
  5
238
  8
0
 10
0.0
 20
0.0
 30
0.0
 70
   128
 71
    16
 72
    17
 73
     6
  0
VERTEX
  5
239
  8
0
 10
0.0
 20
0.0
 30
0.0
 70
   128
 71
     6
 72
    17
 73
     5
  0
VERTEX
  5
23A
  8
0
 10
0.0
 20
0.0
 30
0.0
 70
   128
 71
     5
 72
    17
 73
    18
  0
VERTEX
  5
23B
  8
0
 10
0.0
 20
0.0
 30
0.0
 70
   128
 71
    19
 72
     5
 73
    18
  0
VERTEX
  5
23C
  8
0
 10
0.0
 20
0.0
 30
0.0
 70
   128
 71
    19
 72
    20
 73
    24
  0
VERTEX
  5
23D
  8
0
 10
0.0
 20
0.0
 30
0.0
 70
   128
 71
    24
 72
    20
 73
    23
  0
VERTEX
  5
23E
  8
0
 10
0.0
 20
0.0
 30
0.0
 70
   128
 71
    23
 72
    20
 73
    22
  0
VERTEX
  5
23F
  8
0
 10
0.0
 20
0.0
 30
0.0
 70
   128
 71
    22
 72
    20
 73
    21
  0
VERTEX
  5
240
  8
0
 10
0.0
 20
0.0
 30
0.0
 70
   128
 71
    29
 72
    30
 73
     4
  0
VERTEX
  5
241
  8
0
 10
0.0
 20
0.0
 30
0.0
 70
   128
 71
     4
 72
    30
 73
     3
  0
VERTEX
  5
242
  8
0
 10
0.0
 20
0.0
 30
0.0
 70
   128
 71
     3
 72
    30
 73
    31
  0
VERTEX
  5
243
  8
0
 10
0.0
 20
0.0
 30
0.0
 70
   128
 71
    32
 72
     3
 73
    31
  0
VERTEX
  5
244
  8
0
 10
0.0
 20
0.0
 30
0.0
 70
   128
 71
    32
 72
    33
 73
     3
  0
SEQEND
  5
245
  8
LAYER1
 62
     7
  0
POLYLINE
  5
246
  8
LAYER1
 62
     7
 66
     1
 10
0.0
 20
0.0
 30
0.0
 70
    64
 71
     6
 72
     4
  0
VERTEX
  5
247
  8
0
 10
109.2857818603516
 20
-16.80840110778809
 30
-125.0
 70
   192
  0
VERTEX
  5
248
  8
0
 10
93.18331146240234
 20
-356.8967895507812
 30
-125.0
 70
   192
  0
VERTEX
  5
249
  8
0
 10
71.0
 20
-714.7498779296875
 30
-125.0
 70
   192
  0
VERTEX
  5
24A
  8
0
 10
-71.0
 20
-714.7498779296875
 30
-125.0
 70
   192
  0
VERTEX
  5
24B
  8
0
 10
-93.18331146240234
 20
-356.8967895507812
 30
-125.0
 70
   192
  0
VERTEX
  5
24C
  8
0
 10
-109.2857818603516
 20
-16.80840110778809
 30
-125.0
 70
   192
  0
VERTEX
  5
24D
  8
0
 10
0.0
 20
0.0
 30
0.0
 70
   128
 71
     6
 72
     1
 73
     5
  0
VERTEX
  5
24E
  8
0
 10
0.0
 20
0.0
 30
0.0
 70
   128
 71
     5
 72
     1
 73
     2
  0
VERTEX
  5
24F
  8
0
 10
0.0
 20
0.0
 30
0.0
 70
   128
 71
     3
 72
     5
 73
     2
  0
VERTEX
  5
250
  8
0
 10
0.0
 20
0.0
 30
0.0
 70
   128
 71
     3
 72
     4
 73
     5
  0
SEQEND
  5
251
  8
LAYER1
 62
     7
  0
POLYLINE
  5
252
  8
LAYER1
 62
     7
 66
     1
 10
0.0
 20
0.0
 30
0.0
 70
    64
 71
    75
 72
    73
  0
VERTEX
  5
253
  8
0
 10
-109.621940612793
 20
-1.4500972032547
 30
-110.1973648071289
 70
   192
  0
VERTEX
  5
254
  8
0
 10
-109.3489685058594
 20
-1.271722912788391
 30
-96.64215850830078
 70
   192
  0
VERTEX
  5
255
  8
0
 10
-109.0582275390625
 20
-1.107020616531372
 30
-84.12592315673828
 70
   192
  0
VERTEX
  5
256
  8
0
 10
-108.7462844848633
 20
-0.9559388160705566
 30
-72.64474487304688
 70
   192
  0
VERTEX
  5
257
  8
0
 10
-108.4124450683594
 20
-0.8184648752212524
 30
-62.19767379760742
 70
   192
  0
VERTEX
  5
258
  8
0
 10
-108.0589294433594
 20
-0.6937664747238159
 30
-52.72146224975586
 70
   192
  0
VERTEX
  5
259
  8
0
 10
-107.6770172119141
 20
-0.5784177184104919
 30
-43.95574951171875
 70
   192
  0
VERTEX
  5
25A
  8
0
 10
-107.2419128417969
 20
-0.468361109495163
 30
-35.59220886230469
 70
   192
  0
VERTEX
  5
25B
  8
0
 10
-106.723876953125
 20
-0.3595048189163208
 30
-27.31988334655762
 70
   192
  0
VERTEX
  5
25C
  8
0
 10
-106.1027755737305
 20
-0.2501955628395081
 30
-19.01313400268555
 70
   192
  0
VERTEX
  5
25D
  8
0
 10
-105.3662948608398
 20
-0.1410439014434814
 30
-10.71836185455322
 70
   192
  0
VERTEX
  5
25E
  8
0
 10
-104.4829406738281
 20
-0.0321441255509853
 30
-2.442731380462646
 70
   192
  0
VERTEX
  5
25F
  8
0
 10
-103.4049758911133
 20
0.077109307050705
 30
5.859774589538574
 70
   192
  0
VERTEX
  5
260
  8
0
 10
-102.0513534545898
 20
0.1872020810842514
 30
14.22606468200684
 70
   192
  0
VERTEX
  5
261
  8
0
 10
-100.3303756713867
 20
0.2977339327335358
 30
22.62572288513184
 70
   192
  0
VERTEX
  5
262
  8
0
 10
-98.22734069824219
 20
0.4047722816467285
 30
30.7598991394043
 70
   192
  0
VERTEX
  5
263
  8
0
 10
-95.8138198852539
 20
0.5038526058197021
 30
38.28931427001953
 70
   192
  0
VERTEX
  5
264
  8
0
 10
-93.14461517333984
 20
0.5942297577857971
 30
45.15735626220703
 70
   192
  0
VERTEX
  5
265
  8
0
 10
-90.24147033691406
 20
0.676892101764679
 30
51.43912124633789
 70
   192
  0
VERTEX
  5
266
  8
0
 10
-87.18620300292969
 20
0.7510533332824707
 30
57.07485961914062
 70
   192
  0
VERTEX
  5
267
  8
0
 10
-84.14307403564453
 20
0.8147329092025757
 30
61.9140739440918
 70
   192
  0
VERTEX
  5
268
  8
0
 10
-81.22694396972656
 20
0.8679043054580688
 30
65.9547348022461
 70
   192
  0
VERTEX
  5
269
  8
0
 10
-78.40544128417969
 20
0.9131089448928833
 30
69.38997650146484
 70
   192
  0
VERTEX
  5
26A
  8
0
 10
-75.55284118652344
 20
0.9534078240394592
 30
72.45240783691406
 70
   192
  0
VERTEX
  5
26B
  8
0
 10
-72.5194091796875
 20
0.9910240173339844
 30
75.31098937988281
 70
   192
  0
VERTEX
  5
26C
  8
0
 10
-69.23473358154297
 20
1.026352763175964
 30
77.9957275390625
 70
   192
  0
VERTEX
  5
26D
  8
0
 10
-65.74954223632812
 20
1.058407306671143
 30
80.43164825439453
 70
   192
  0
VERTEX
  5
26E
  8
0
 10
-62.13103103637695
 20
1.086844921112061
 30
82.59270477294922
 70
   192
  0
VERTEX
  5
26F
  8
0
 10
-58.41375350952148
 20
1.111959218978882
 30
84.50122833251953
 70
   192
  0
VERTEX
  5
270
  8
0
 10
-54.4906120300293
 20
1.134758949279785
 30
86.23384094238281
 70
   192
  0
VERTEX
  5
271
  8
0
 10
-50.17914199829102
 20
1.156137943267822
 30
87.8584976196289
 70
   192
  0
VERTEX
  5
272
  8
0
 10
-45.29284286499023
 20
1.176485061645508
 30
89.40473175048828
 70
   192
  0
VERTEX
  5
273
  8
0
 10
-39.63387298583984
 20
1.195802688598633
 30
90.87274932861328
 70
   192
  0
VERTEX
  5
274
  8
0
 10
-33.0150260925293
 20
1.213711857795715
 30
92.23371887207031
 70
   192
  0
VERTEX
  5
275
  8
0
 10
-25.32024574279785
 20
1.229362964630127
 30
93.423095703125
 70
   192
  0
VERTEX
  5
276
  8
0
 10
-16.85723114013672
 20
1.241134524345398
 30
94.3176498413086
 70
   192
  0
VERTEX
  5
277
  8
0
 10
-8.219011306762695
 20
1.248006939888
 30
94.83990478515625
 70
   192
  0
VERTEX
  5
278
  8
0
 10
0.0
 20
1.250113606452942
 30
95.0
 70
   192
  0
VERTEX
  5
279
  8
0
 10
8.219011306762695
 20
1.248006939888
 30
94.83990478515625
 70
   192
  0
VERTEX
  5
27A
  8
0
 10
16.85723114013672
 20
1.241134524345398
 30
94.3176498413086
 70
   192
  0
VERTEX
  5
27B
  8
0
 10
25.32024574279785
 20
1.229362964630127
 30
93.423095703125
 70
   192
  0
VERTEX
  5
27C
  8
0
 10
33.0150260925293
 20
1.213711857795715
 30
92.23371887207031
 70
   192
  0
VERTEX
  5
27D
  8
0
 10
39.63387298583984
 20
1.195802688598633
 30
90.87274932861328
 70
   192
  0
VERTEX
  5
27E
  8
0
 10
45.29284286499023
 20
1.176485061645508
 30
89.40473175048828
 70
   192
  0
VERTEX
  5
27F
  8
0
 10
50.17914199829102
 20
1.156137943267822
 30
87.8584976196289
 70
   192
  0
VERTEX
  5
280
  8
0
 10
54.4906120300293
 20
1.134758949279785
 30
86.23384094238281
 70
   192
  0
VERTEX
  5
281
  8
0
 10
58.41375350952148
 20
1.111959218978882
 30
84.50122833251953
 70
   192
  0
VERTEX
  5
282
  8
0
 10
62.13103103637695
 20
1.086844921112061
 30
82.59270477294922
 70
   192
  0
VERTEX
  5
283
  8
0
 10
65.74954223632812
 20
1.058407306671143
 30
80.43164825439453
 70
   192
  0
VERTEX
  5
284
  8
0
 10
69.23473358154297
 20
1.026352763175964
 30
77.9957275390625
 70
   192
  0
VERTEX
  5
285
  8
0
 10
72.5194091796875
 20
0.9910240173339844
 30
75.31098937988281
 70
   192
  0
VERTEX
  5
286
  8
0
 10
75.55284118652344
 20
0.9534078240394592
 30
72.45240783691406
 70
   192
  0
VERTEX
  5
287
  8
0
 10
78.40544128417969
 20
0.9131089448928833
 30
69.38997650146484
 70
   192
  0
VERTEX
  5
288
  8
0
 10
81.22694396972656
 20
0.8679043054580688
 30
65.9547348022461
 70
   192
  0
VERTEX
  5
289
  8
0
 10
84.14307403564453
 20
0.8147329092025757
 30
61.9140739440918
 70
   192
  0
VERTEX
  5
28A
  8
0
 10
87.18620300292969
 20
0.7510533332824707
 30
57.07485961914062
 70
   192
  0
VERTEX
  5
28B
  8
0
 10
90.24147033691406
 20
0.676892101764679
 30
51.43912124633789
 70
   192
  0
VERTEX
  5
28C
  8
0
 10
93.14461517333984
 20
0.5942297577857971
 30
45.15735626220703
 70
   192
  0
VERTEX
  5
28D
  8
0
 10
95.8138198852539
 20
0.5038526058197021
 30
38.28931427001953
 70
   192
  0
VERTEX
  5
28E
  8
0
 10
98.22734069824219
 20
0.4047722816467285
 30
30.7598991394043
 70
   192
  0
VERTEX
  5
28F
  8
0
 10
100.3303756713867
 20
0.2977339327335358
 30
22.62572288513184
 70
   192
  0
VERTEX
  5
290
  8
0
 10
102.0513534545898
 20
0.1872020810842514
 30
14.22606468200684
 70
   192
  0
VERTEX
  5
291
  8
0
 10
103.4049758911133
 20
0.077109307050705
 30
5.859774589538574
 70
   192
  0
VERTEX
  5
292
  8
0
 10
104.4829406738281
 20
-0.0321441255509853
 30
-2.442731380462646
 70
   192
  0
VERTEX
  5
293
  8
0
 10
105.3662948608398
 20
-0.1410439014434814
 30
-10.71836185455322
 70
   192
  0
VERTEX
  5
294
  8
0
 10
106.1027755737305
 20
-0.2501955628395081
 30
-19.01313400268555
 70
   192
  0
VERTEX
  5
295
  8
0
 10
106.723876953125
 20
-0.3595048189163208
 30
-27.31988334655762
 70
   192
  0
VERTEX
  5
296
  8
0
 10
107.2419128417969
 20
-0.468361109495163
 30
-35.59220886230469
 70
   192
  0
VERTEX
  5
297
  8
0
 10
107.6770172119141
 20
-0.5784177184104919
 30
-43.95574951171875
 70
   192
  0
VERTEX
  5
298
  8
0
 10
108.0589294433594
 20
-0.6937664747238159
 30
-52.72146224975586
 70
   192
  0
VERTEX
  5
299
  8
0
 10
108.4124450683594
 20
-0.8184648752212524
 30
-62.19767379760742
 70
   192
  0
VERTEX
  5
29A
  8
0
 10
108.7462844848633
 20
-0.9559388160705566
 30
-72.64474487304688
 70
   192
  0
VERTEX
  5
29B
  8
0
 10
109.0582275390625
 20
-1.107020616531372
 30
-84.12592315673828
 70
   192
  0
VERTEX
  5
29C
  8
0
 10
109.3489685058594
 20
-1.271722912788391
 30
-96.64215850830078
 70
   192
  0
VERTEX
  5
29D
  8
0
 10
109.621940612793
 20
-1.4500972032547
 30
-110.1973648071289
 70
   192
  0
VERTEX
  5
29E
  8
0
 10
0.0
 20
0.0
 30
0.0
 70
   128
 71
    75
 72
     1
 73
    74
  0
VERTEX
  5
29F
  8
0
 10
0.0
 20
0.0
 30
0.0
 70
   128
 71
    74
 72
     1
 73
     2
  0
VERTEX
  5
2A0
  8
0
 10
0.0
 20
0.0
 30
0.0
 70
   128
 71
    73
 72
     2
 73
     3
  0
VERTEX
  5
2A1
  8
0
 10
0.0
 20
0.0
 30
0.0
 70
   128
 71
    72
 72
     3
 73
     4
  0
VERTEX
  5
2A2
  8
0
 10
0.0
 20
0.0
 30
0.0
 70
   128
 71
    71
 72
     4
 73
     5
  0
VERTEX
  5
2A3
  8
0
 10
0.0
 20
0.0
 30
0.0
 70
   128
 71
    70
 72
     5
 73
     6
  0
VERTEX
  5
2A4
  8
0
 10
0.0
 20
0.0
 30
0.0
 70
   128
 71
    69
 72
     6
 73
     7
  0
VERTEX
  5
2A5
  8
0
 10
0.0
 20
0.0
 30
0.0
 70
   128
 71
    68
 72
     7
 73
     8
  0
VERTEX
  5
2A6
  8
0
 10
0.0
 20
0.0
 30
0.0
 70
   128
 71
    67
 72
     8
 73
     9
  0
VERTEX
  5
2A7
  8
0
 10
0.0
 20
0.0
 30
0.0
 70
   128
 71
    66
 72
     9
 73
    10
  0
VERTEX
  5
2A8
  8
0
 10
0.0
 20
0.0
 30
0.0
 70
   128
 71
    65
 72
    10
 73
    11
  0
VERTEX
  5
2A9
  8
0
 10
0.0
 20
0.0
 30
0.0
 70
   128
 71
    64
 72
    11
 73
    12
  0
VERTEX
  5
2AA
  8
0
 10
0.0
 20
0.0
 30
0.0
 70
   128
 71
    63
 72
    12
 73
    13
  0
VERTEX
  5
2AB
  8
0
 10
0.0
 20
0.0
 30
0.0
 70
   128
 71
    62
 72
    13
 73
    14
  0
VERTEX
  5
2AC
  8
0
 10
0.0
 20
0.0
 30
0.0
 70
   128
 71
    61
 72
    14
 73
    15
  0
VERTEX
  5
2AD
  8
0
 10
0.0
 20
0.0
 30
0.0
 70
   128
 71
    60
 72
    15
 73
    16
  0
VERTEX
  5
2AE
  8
0
 10
0.0
 20
0.0
 30
0.0
 70
   128
 71
    59
 72
    16
 73
    17
  0
VERTEX
  5
2AF
  8
0
 10
0.0
 20
0.0
 30
0.0
 70
   128
 71
    58
 72
    17
 73
    18
  0
VERTEX
  5
2B0
  8
0
 10
0.0
 20
0.0
 30
0.0
 70
   128
 71
    57
 72
    18
 73
    19
  0
VERTEX
  5
2B1
  8
0
 10
0.0
 20
0.0
 30
0.0
 70
   128
 71
    56
 72
    19
 73
    20
  0
VERTEX
  5
2B2
  8
0
 10
0.0
 20
0.0
 30
0.0
 70
   128
 71
    55
 72
    20
 73
    21
  0
VERTEX
  5
2B3
  8
0
 10
0.0
 20
0.0
 30
0.0
 70
   128
 71
    54
 72
    21
 73
    22
  0
VERTEX
  5
2B4
  8
0
 10
0.0
 20
0.0
 30
0.0
 70
   128
 71
    53
 72
    22
 73
    23
  0
VERTEX
  5
2B5
  8
0
 10
0.0
 20
0.0
 30
0.0
 70
   128
 71
    52
 72
    23
 73
    24
  0
VERTEX
  5
2B6
  8
0
 10
0.0
 20
0.0
 30
0.0
 70
   128
 71
    51
 72
    24
 73
    25
  0
VERTEX
  5
2B7
  8
0
 10
0.0
 20
0.0
 30
0.0
 70
   128
 71
    50
 72
    25
 73
    26
  0
VERTEX
  5
2B8
  8
0
 10
0.0
 20
0.0
 30
0.0
 70
   128
 71
    49
 72
    26
 73
    27
  0
VERTEX
  5
2B9
  8
0
 10
0.0
 20
0.0
 30
0.0
 70
   128
 71
    48
 72
    27
 73
    28
  0
VERTEX
  5
2BA
  8
0
 10
0.0
 20
0.0
 30
0.0
 70
   128
 71
    47
 72
    28
 73
    29
  0
VERTEX
  5
2BB
  8
0
 10
0.0
 20
0.0
 30
0.0
 70
   128
 71
    46
 72
    29
 73
    30
  0
VERTEX
  5
2BC
  8
0
 10
0.0
 20
0.0
 30
0.0
 70
   128
 71
    45
 72
    30
 73
    31
  0
VERTEX
  5
2BD
  8
0
 10
0.0
 20
0.0
 30
0.0
 70
   128
 71
    44
 72
    31
 73
    32
  0
VERTEX
  5
2BE
  8
0
 10
0.0
 20
0.0
 30
0.0
 70
   128
 71
    43
 72
    32
 73
    33
  0
VERTEX
  5
2BF
  8
0
 10
0.0
 20
0.0
 30
0.0
 70
   128
 71
    42
 72
    33
 73
    34
  0
VERTEX
  5
2C0
  8
0
 10
0.0
 20
0.0
 30
0.0
 70
   128
 71
    41
 72
    34
 73
    35
  0
VERTEX
  5
2C1
  8
0
 10
0.0
 20
0.0
 30
0.0
 70
   128
 71
    40
 72
    35
 73
    36
  0
VERTEX
  5
2C2
  8
0
 10
0.0
 20
0.0
 30
0.0
 70
   128
 71
    39
 72
    36
 73
    37
  0
VERTEX
  5
2C3
  8
0
 10
0.0
 20
0.0
 30
0.0
 70
   128
 71
    38
 72
    39
 73
    37
  0
VERTEX
  5
2C4
  8
0
 10
0.0
 20
0.0
 30
0.0
 70
   128
 71
    39
 72
    40
 73
    36
  0
VERTEX
  5
2C5
  8
0
 10
0.0
 20
0.0
 30
0.0
 70
   128
 71
    40
 72
    41
 73
    35
  0
VERTEX
  5
2C6
  8
0
 10
0.0
 20
0.0
 30
0.0
 70
   128
 71
    41
 72
    42
 73
    34
  0
VERTEX
  5
2C7
  8
0
 10
0.0
 20
0.0
 30
0.0
 70
   128
 71
    42
 72
    43
 73
    33
  0
VERTEX
  5
2C8
  8
0
 10
0.0
 20
0.0
 30
0.0
 70
   128
 71
    43
 72
    44
 73
    32
  0
VERTEX
  5
2C9
  8
0
 10
0.0
 20
0.0
 30
0.0
 70
   128
 71
    44
 72
    45
 73
    31
  0
VERTEX
  5
2CA
  8
0
 10
0.0
 20
0.0
 30
0.0
 70
   128
 71
    45
 72
    46
 73
    30
  0
VERTEX
  5
2CB
  8
0
 10
0.0
 20
0.0
 30
0.0
 70
   128
 71
    46
 72
    47
 73
    29
  0
VERTEX
  5
2CC
  8
0
 10
0.0
 20
0.0
 30
0.0
 70
   128
 71
    47
 72
    48
 73
    28
  0
VERTEX
  5
2CD
  8
0
 10
0.0
 20
0.0
 30
0.0
 70
   128
 71
    48
 72
    49
 73
    27
  0
VERTEX
  5
2CE
  8
0
 10
0.0
 20
0.0
 30
0.0
 70
   128
 71
    49
 72
    50
 73
    26
  0
VERTEX
  5
2CF
  8
0
 10
0.0
 20
0.0
 30
0.0
 70
   128
 71
    50
 72
    51
 73
    25
  0
VERTEX
  5
2D0
  8
0
 10
0.0
 20
0.0
 30
0.0
 70
   128
 71
    51
 72
    52
 73
    24
  0
VERTEX
  5
2D1
  8
0
 10
0.0
 20
0.0
 30
0.0
 70
   128
 71
    52
 72
    53
 73
    23
  0
VERTEX
  5
2D2
  8
0
 10
0.0
 20
0.0
 30
0.0
 70
   128
 71
    53
 72
    54
 73
    22
  0
VERTEX
  5
2D3
  8
0
 10
0.0
 20
0.0
 30
0.0
 70
   128
 71
    54
 72
    55
 73
    21
  0
VERTEX
  5
2D4
  8
0
 10
0.0
 20
0.0
 30
0.0
 70
   128
 71
    55
 72
    56
 73
    20
  0
VERTEX
  5
2D5
  8
0
 10
0.0
 20
0.0
 30
0.0
 70
   128
 71
    56
 72
    57
 73
    19
  0
VERTEX
  5
2D6
  8
0
 10
0.0
 20
0.0
 30
0.0
 70
   128
 71
    57
 72
    58
 73
    18
  0
VERTEX
  5
2D7
  8
0
 10
0.0
 20
0.0
 30
0.0
 70
   128
 71
    58
 72
    59
 73
    17
  0
VERTEX
  5
2D8
  8
0
 10
0.0
 20
0.0
 30
0.0
 70
   128
 71
    59
 72
    60
 73
    16
  0
VERTEX
  5
2D9
  8
0
 10
0.0
 20
0.0
 30
0.0
 70
   128
 71
    60
 72
    61
 73
    15
  0
VERTEX
  5
2DA
  8
0
 10
0.0
 20
0.0
 30
0.0
 70
   128
 71
    61
 72
    62
 73
    14
  0
VERTEX
  5
2DB
  8
0
 10
0.0
 20
0.0
 30
0.0
 70
   128
 71
    62
 72
    63
 73
    13
  0
VERTEX
  5
2DC
  8
0
 10
0.0
 20
0.0
 30
0.0
 70
   128
 71
    63
 72
    64
 73
    12
  0
VERTEX
  5
2DD
  8
0
 10
0.0
 20
0.0
 30
0.0
 70
   128
 71
    64
 72
    65
 73
    11
  0
VERTEX
  5
2DE
  8
0
 10
0.0
 20
0.0
 30
0.0
 70
   128
 71
    65
 72
    66
 73
    10
  0
VERTEX
  5
2DF
  8
0
 10
0.0
 20
0.0
 30
0.0
 70
   128
 71
    66
 72
    67
 73
     9
  0
VERTEX
  5
2E0
  8
0
 10
0.0
 20
0.0
 30
0.0
 70
   128
 71
    67
 72
    68
 73
     8
  0
VERTEX
  5
2E1
  8
0
 10
0.0
 20
0.0
 30
0.0
 70
   128
 71
    68
 72
    69
 73
     7
  0
VERTEX
  5
2E2
  8
0
 10
0.0
 20
0.0
 30
0.0
 70
   128
 71
    69
 72
    70
 73
     6
  0
VERTEX
  5
2E3
  8
0
 10
0.0
 20
0.0
 30
0.0
 70
   128
 71
    70
 72
    71
 73
     5
  0
VERTEX
  5
2E4
  8
0
 10
0.0
 20
0.0
 30
0.0
 70
   128
 71
    71
 72
    72
 73
     4
  0
VERTEX
  5
2E5
  8
0
 10
0.0
 20
0.0
 30
0.0
 70
   128
 71
    72
 72
    73
 73
     3
  0
VERTEX
  5
2E6
  8
0
 10
0.0
 20
0.0
 30
0.0
 70
   128
 71
    73
 72
    74
 73
     2
  0
SEQEND
  5
2E7
  8
LAYER1
 62
     7
  0
VIEWPORT
  5
42
 67
     1
  8
0
 10
0.0
 20
0.0
 30
0.0
 40
1.0
 41
1.0
 68
     1
 69
     1
1001
ACAD
1000
MVIEW
1002
{
1070
    16
1010
0.0
1020
0.0
1030
0.0
1020
0.0
1030
0.0
1010
0.0
1020
0.0
1030
1.0
1020
0.0
1030
1.0
1040
0.0
1040
1.0
1040
0.0
1040
0.0
1040
50.0
1040
0.0
1040
0.0
1070
     0
1070
   100
1070
     0
1070
     3
1070
     0
1070
     0
1070
     0
1070
     0
1040
0.0
1040
0.0
1040
0.0
1040
0.5
1040
0.5
1040
0.0
1040
0.0
1070
     0
1002
{
1002
}
1002
}
  0
ENDSEC
  0
EOF
