 0
SECTION
 2
HEADER
 9
$ACADVER
 1
AC1009
 0
ENDSEC
 0
SECTION
 2
TABLES
 0
TABLE
 2
LTYPE
 70
1
 0
LTYPE
 2
CONTINUOUS
 70
64
 3
solid line
 72
65
 73
0
 40
0.0
 0
ENDTAB
 0
TABLE
 2
LAYER
 70
6
 0
LAYER
 2
0
 70
0
 62
7
 6
CONTINUOUS
 0
LAYER
 2
MESH_240_F0
 70
64
 62
7
 6
CONTINUOUS
 0
LAYER
 2
MESH_239_F0
 70
64
 62
7
 6
CONTINUOUS
 0
LAYER
 2
MESH_238_F0
 70
64
 62
7
 6
CONTINUOUS
 0
LAYER
 2
MESH_237_F0
 70
64
 62
7
 6
CONTINUOUS
 0
LAYER
 2
MESH_236_F0
 70
64
 62
7
 6
CONTINUOUS
 0
LAYER
 2
MESH_235_F0
 70
64
 62
7
 6
CONTINUOUS
 0
LAYER
 2
MESH_234_F0
 70
64
 62
7
 6
CONTINUOUS
 0
LAYER
 2
MESH_233_F0
 70
64
 62
7
 6
CONTINUOUS
 0
LAYER
 2
MESH_232_F0
 70
64
 62
7
 6
CONTINUOUS
 0
LAYER
 2
MESH_231_F0
 70
64
 62
7
 6
CONTINUOUS
 0
LAYER
 2
MESH_230_F0
 70
64
 62
7
 6
CONTINUOUS
 0
LAYER
 2
MESH_229_F0
 70
64
 62
7
 6
CONTINUOUS
 0
LAYER
 2
MESH_228_F0
 70
64
 62
7
 6
CONTINUOUS
 0
LAYER
 2
MESH_227_F0
 70
64
 62
7
 6
CONTINUOUS
 0
LAYER
 2
MESH_226_F0
 70
64
 62
7
 6
CONTINUOUS
 0
LAYER
 2
MESH_225_F0
 70
64
 62
7
 6
CONTINUOUS
 0
LAYER
 2
MESH_224_F0
 70
64
 62
7
 6
CONTINUOUS
 0
LAYER
 2
MESH_223_F0
 70
64
 62
7
 6
CONTINUOUS
 0
LAYER
 2
MESH_222_F0
 70
64
 62
7
 6
CONTINUOUS
 0
LAYER
 2
MESH_221_F0
 70
64
 62
7
 6
CONTINUOUS
 0
LAYER
 2
MESH_220_F0
 70
64
 62
7
 6
CONTINUOUS
 0
LAYER
 2
MESH_219_F0
 70
64
 62
7
 6
CONTINUOUS
 0
LAYER
 2
MESH_218_F0
 70
64
 62
7
 6
CONTINUOUS
 0
LAYER
 2
MESH_217_F0
 70
64
 62
7
 6
CONTINUOUS
 0
LAYER
 2
MESH_216_F0
 70
64
 62
7
 6
CONTINUOUS
 0
LAYER
 2
MESH_215_F0
 70
64
 62
7
 6
CONTINUOUS
 0
LAYER
 2
MESH_214_F0
 70
64
 62
7
 6
CONTINUOUS
 0
LAYER
 2
MESH_213_F0
 70
64
 62
7
 6
CONTINUOUS
 0
LAYER
 2
MESH_212_F0
 70
64
 62
7
 6
CONTINUOUS
 0
LAYER
 2
MESH_211_F0
 70
64
 62
7
 6
CONTINUOUS
 0
LAYER
 2
MESH_210_F0
 70
64
 62
7
 6
CONTINUOUS
 0
LAYER
 2
MESH_209_F0
 70
64
 62
7
 6
CONTINUOUS
 0
LAYER
 2
MESH_208_F0
 70
64
 62
7
 6
CONTINUOUS
 0
LAYER
 2
MESH_207_F0
 70
64
 62
7
 6
CONTINUOUS
 0
LAYER
 2
MESH_206_F0
 70
64
 62
7
 6
CONTINUOUS
 0
LAYER
 2
MESH_205_F0
 70
64
 62
7
 6
CONTINUOUS
 0
LAYER
 2
MESH_204_F0
 70
64
 62
7
 6
CONTINUOUS
 0
LAYER
 2
MESH_203_F0
 70
64
 62
7
 6
CONTINUOUS
 0
LAYER
 2
MESH_202_F0
 70
64
 62
7
 6
CONTINUOUS
 0
LAYER
 2
MESH_201_F0
 70
64
 62
7
 6
CONTINUOUS
 0
LAYER
 2
MESH_200_F0
 70
64
 62
7
 6
CONTINUOUS
 0
LAYER
 2
MESH_199_F0
 70
64
 62
7
 6
CONTINUOUS
 0
LAYER
 2
MESH_198_F0
 70
64
 62
7
 6
CONTINUOUS
 0
LAYER
 2
MESH_197_F0
 70
64
 62
7
 6
CONTINUOUS
 0
LAYER
 2
MESH_196_F0
 70
64
 62
7
 6
CONTINUOUS
 0
ENDTAB
 0
ENDSEC
 0
SECTION
 2
BLOCKS
 0
ENDSEC
 0
SECTION
 2
ENTITIES
 0
POLYLINE
 8
MESH_240_F0
 66
1
 10
0.0
 20
0.0
 30
0.0
 70
64
 71
30
 72
28
 0
VERTEX
 8
MESH_240_F0
 10
373.5
 20
-440.5
 30
-3
 70
192
 0
VERTEX
 8
MESH_240_F0
 10
373.5
 20
-440.5
 30
-7
 70
192
 0
VERTEX
 8
MESH_240_F0
 10
376.3842
 20
-440.3353
 30
-7
 70
192
 0
VERTEX
 8
MESH_240_F0
 10
379.2017
 20
-439.8543
 30
-7
 70
192
 0
VERTEX
 8
MESH_240_F0
 10
381.9446
 20
-439.0602
 30
-7
 70
192
 0
VERTEX
 8
MESH_240_F0
 10
384.5894
 20
-437.9624
 30
-7
 70
192
 0
VERTEX
 8
MESH_240_F0
 10
387.0845
 20
-436.5807
 30
-7
 70
192
 0
VERTEX
 8
MESH_240_F0
 10
389.4077
 20
-434.9296
 30
-7
 70
192
 0
VERTEX
 8
MESH_240_F0
 10
391.5308
 20
-433.0308
 30
-7
 70
192
 0
VERTEX
 8
MESH_240_F0
 10
393.4296
 20
-430.9077
 30
-7
 70
192
 0
VERTEX
 8
MESH_240_F0
 10
395.0807
 20
-428.5844
 30
-7
 70
192
 0
VERTEX
 8
MESH_240_F0
 10
396.4624
 20
-426.0894
 30
-7
 70
192
 0
VERTEX
 8
MESH_240_F0
 10
397.5602
 20
-423.4446
 30
-7
 70
192
 0
VERTEX
 8
MESH_240_F0
 10
398.3544
 20
-420.7017
 30
-7
 70
192
 0
VERTEX
 8
MESH_240_F0
 10
398.8353
 20
-417.8842
 30
-7
 70
192
 0
VERTEX
 8
MESH_240_F0
 10
399
 20
-415
 30
-7
 70
192
 0
VERTEX
 8
MESH_240_F0
 10
399
 20
-415
 30
-3
 70
192
 0
VERTEX
 8
MESH_240_F0
 10
398.8353
 20
-417.8842
 30
-3
 70
192
 0
VERTEX
 8
MESH_240_F0
 10
398.3544
 20
-420.7017
 30
-3
 70
192
 0
VERTEX
 8
MESH_240_F0
 10
397.5602
 20
-423.4446
 30
-3
 70
192
 0
VERTEX
 8
MESH_240_F0
 10
396.4624
 20
-426.0894
 30
-3
 70
192
 0
VERTEX
 8
MESH_240_F0
 10
395.0807
 20
-428.5844
 30
-3
 70
192
 0
VERTEX
 8
MESH_240_F0
 10
393.4296
 20
-430.9077
 30
-3
 70
192
 0
VERTEX
 8
MESH_240_F0
 10
391.5308
 20
-433.0308
 30
-3
 70
192
 0
VERTEX
 8
MESH_240_F0
 10
389.4077
 20
-434.9296
 30
-3
 70
192
 0
VERTEX
 8
MESH_240_F0
 10
387.0845
 20
-436.5807
 30
-3
 70
192
 0
VERTEX
 8
MESH_240_F0
 10
384.5894
 20
-437.9624
 30
-3
 70
192
 0
VERTEX
 8
MESH_240_F0
 10
381.9446
 20
-439.0602
 30
-3
 70
192
 0
VERTEX
 8
MESH_240_F0
 10
379.2017
 20
-439.8543
 30
-3
 70
192
 0
VERTEX
 8
MESH_240_F0
 10
376.3842
 20
-440.3353
 30
-3
 70
192
 0
VERTEX
 8
MESH_240_F0
 10
0
 20
0
 30
0
 70
128
 71
30
 72
2
 73
1
 74
1
 0
VERTEX
 8
MESH_240_F0
 10
0
 20
0
 30
0
 70
128
 71
3
 72
2
 73
30
 74
30
 0
VERTEX
 8
MESH_240_F0
 10
0
 20
0
 30
0
 70
128
 71
3
 72
30
 73
4
 74
4
 0
VERTEX
 8
MESH_240_F0
 10
0
 20
0
 30
0
 70
128
 71
30
 72
29
 73
4
 74
4
 0
VERTEX
 8
MESH_240_F0
 10
0
 20
0
 30
0
 70
128
 71
29
 72
5
 73
4
 74
4
 0
VERTEX
 8
MESH_240_F0
 10
0
 20
0
 30
0
 70
128
 71
28
 72
5
 73
29
 74
29
 0
VERTEX
 8
MESH_240_F0
 10
0
 20
0
 30
0
 70
128
 71
6
 72
5
 73
28
 74
28
 0
VERTEX
 8
MESH_240_F0
 10
0
 20
0
 30
0
 70
128
 71
7
 72
6
 73
27
 74
27
 0
VERTEX
 8
MESH_240_F0
 10
0
 20
0
 30
0
 70
128
 71
8
 72
7
 73
26
 74
26
 0
VERTEX
 8
MESH_240_F0
 10
0
 20
0
 30
0
 70
128
 71
9
 72
8
 73
25
 74
25
 0
VERTEX
 8
MESH_240_F0
 10
0
 20
0
 30
0
 70
128
 71
10
 72
9
 73
24
 74
24
 0
VERTEX
 8
MESH_240_F0
 10
0
 20
0
 30
0
 70
128
 71
11
 72
10
 73
23
 74
23
 0
VERTEX
 8
MESH_240_F0
 10
0
 20
0
 30
0
 70
128
 71
12
 72
11
 73
22
 74
22
 0
VERTEX
 8
MESH_240_F0
 10
0
 20
0
 30
0
 70
128
 71
13
 72
12
 73
21
 74
21
 0
VERTEX
 8
MESH_240_F0
 10
0
 20
0
 30
0
 70
128
 71
14
 72
13
 73
20
 74
20
 0
VERTEX
 8
MESH_240_F0
 10
0
 20
0
 30
0
 70
128
 71
15
 72
14
 73
19
 74
19
 0
VERTEX
 8
MESH_240_F0
 10
0
 20
0
 30
0
 70
128
 71
17
 72
15
 73
18
 74
18
 0
VERTEX
 8
MESH_240_F0
 10
0
 20
0
 30
0
 70
128
 71
15
 72
19
 73
18
 74
18
 0
VERTEX
 8
MESH_240_F0
 10
0
 20
0
 30
0
 70
128
 71
17
 72
16
 73
15
 74
15
 0
VERTEX
 8
MESH_240_F0
 10
0
 20
0
 30
0
 70
128
 71
14
 72
20
 73
19
 74
19
 0
VERTEX
 8
MESH_240_F0
 10
0
 20
0
 30
0
 70
128
 71
13
 72
21
 73
20
 74
20
 0
VERTEX
 8
MESH_240_F0
 10
0
 20
0
 30
0
 70
128
 71
12
 72
22
 73
21
 74
21
 0
VERTEX
 8
MESH_240_F0
 10
0
 20
0
 30
0
 70
128
 71
11
 72
23
 73
22
 74
22
 0
VERTEX
 8
MESH_240_F0
 10
0
 20
0
 30
0
 70
128
 71
10
 72
24
 73
23
 74
23
 0
VERTEX
 8
MESH_240_F0
 10
0
 20
0
 30
0
 70
128
 71
9
 72
25
 73
24
 74
24
 0
VERTEX
 8
MESH_240_F0
 10
0
 20
0
 30
0
 70
128
 71
8
 72
26
 73
25
 74
25
 0
VERTEX
 8
MESH_240_F0
 10
0
 20
0
 30
0
 70
128
 71
7
 72
27
 73
26
 74
26
 0
VERTEX
 8
MESH_240_F0
 10
0
 20
0
 30
0
 70
128
 71
6
 72
28
 73
27
 74
27
 0
SEQEND
 0
POLYLINE
 8
MESH_239_F0
 66
1
 10
0.0
 20
0.0
 30
0.0
 70
64
 71
4
 72
2
 0
VERTEX
 8
MESH_239_F0
 10
373.5
 20
-440.5
 30
-7
 70
192
 0
VERTEX
 8
MESH_239_F0
 10
373.5
 20
-440.5
 30
-3
 70
192
 0
VERTEX
 8
MESH_239_F0
 10
-373.5
 20
-440.5
 30
-3
 70
192
 0
VERTEX
 8
MESH_239_F0
 10
-373.5
 20
-440.5
 30
-7
 70
192
 0
VERTEX
 8
MESH_239_F0
 10
0
 20
0
 30
0
 70
128
 71
1
 72
3
 73
2
 74
2
 0
VERTEX
 8
MESH_239_F0
 10
0
 20
0
 30
0
 70
128
 71
4
 72
3
 73
1
 74
1
 0
SEQEND
 0
POLYLINE
 8
MESH_238_F0
 66
1
 10
0.0
 20
0.0
 30
0.0
 70
64
 71
30
 72
28
 0
VERTEX
 8
MESH_238_F0
 10
-399
 20
-415
 30
-3
 70
192
 0
VERTEX
 8
MESH_238_F0
 10
-399
 20
-415
 30
-7
 70
192
 0
VERTEX
 8
MESH_238_F0
 10
-398.8353
 20
-417.8842
 30
-7
 70
192
 0
VERTEX
 8
MESH_238_F0
 10
-398.3544
 20
-420.7017
 30
-7
 70
192
 0
VERTEX
 8
MESH_238_F0
 10
-397.5602
 20
-423.4446
 30
-7
 70
192
 0
VERTEX
 8
MESH_238_F0
 10
-396.4624
 20
-426.0894
 30
-7
 70
192
 0
VERTEX
 8
MESH_238_F0
 10
-395.0807
 20
-428.5844
 30
-7
 70
192
 0
VERTEX
 8
MESH_238_F0
 10
-393.4296
 20
-430.9077
 30
-7
 70
192
 0
VERTEX
 8
MESH_238_F0
 10
-391.5308
 20
-433.0308
 30
-7
 70
192
 0
VERTEX
 8
MESH_238_F0
 10
-389.4077
 20
-434.9296
 30
-7
 70
192
 0
VERTEX
 8
MESH_238_F0
 10
-387.0845
 20
-436.5807
 30
-7
 70
192
 0
VERTEX
 8
MESH_238_F0
 10
-384.5894
 20
-437.9624
 30
-7
 70
192
 0
VERTEX
 8
MESH_238_F0
 10
-381.9446
 20
-439.0602
 30
-7
 70
192
 0
VERTEX
 8
MESH_238_F0
 10
-379.2017
 20
-439.8543
 30
-7
 70
192
 0
VERTEX
 8
MESH_238_F0
 10
-376.3842
 20
-440.3353
 30
-7
 70
192
 0
VERTEX
 8
MESH_238_F0
 10
-373.5
 20
-440.5
 30
-7
 70
192
 0
VERTEX
 8
MESH_238_F0
 10
-373.5
 20
-440.5
 30
-3
 70
192
 0
VERTEX
 8
MESH_238_F0
 10
-376.3842
 20
-440.3353
 30
-3
 70
192
 0
VERTEX
 8
MESH_238_F0
 10
-379.2017
 20
-439.8543
 30
-3
 70
192
 0
VERTEX
 8
MESH_238_F0
 10
-381.9446
 20
-439.0602
 30
-3
 70
192
 0
VERTEX
 8
MESH_238_F0
 10
-384.5894
 20
-437.9624
 30
-3
 70
192
 0
VERTEX
 8
MESH_238_F0
 10
-387.0845
 20
-436.5807
 30
-3
 70
192
 0
VERTEX
 8
MESH_238_F0
 10
-389.4077
 20
-434.9296
 30
-3
 70
192
 0
VERTEX
 8
MESH_238_F0
 10
-391.5308
 20
-433.0308
 30
-3
 70
192
 0
VERTEX
 8
MESH_238_F0
 10
-393.4296
 20
-430.9077
 30
-3
 70
192
 0
VERTEX
 8
MESH_238_F0
 10
-395.0807
 20
-428.5844
 30
-3
 70
192
 0
VERTEX
 8
MESH_238_F0
 10
-396.4624
 20
-426.0894
 30
-3
 70
192
 0
VERTEX
 8
MESH_238_F0
 10
-397.5602
 20
-423.4446
 30
-3
 70
192
 0
VERTEX
 8
MESH_238_F0
 10
-398.3544
 20
-420.7017
 30
-3
 70
192
 0
VERTEX
 8
MESH_238_F0
 10
-398.8353
 20
-417.8842
 30
-3
 70
192
 0
VERTEX
 8
MESH_238_F0
 10
0
 20
0
 30
0
 70
128
 71
30
 72
2
 73
1
 74
1
 0
VERTEX
 8
MESH_238_F0
 10
0
 20
0
 30
0
 70
128
 71
3
 72
2
 73
30
 74
30
 0
VERTEX
 8
MESH_238_F0
 10
0
 20
0
 30
0
 70
128
 71
3
 72
30
 73
4
 74
4
 0
VERTEX
 8
MESH_238_F0
 10
0
 20
0
 30
0
 70
128
 71
30
 72
29
 73
4
 74
4
 0
VERTEX
 8
MESH_238_F0
 10
0
 20
0
 30
0
 70
128
 71
29
 72
5
 73
4
 74
4
 0
VERTEX
 8
MESH_238_F0
 10
0
 20
0
 30
0
 70
128
 71
28
 72
5
 73
29
 74
29
 0
VERTEX
 8
MESH_238_F0
 10
0
 20
0
 30
0
 70
128
 71
6
 72
5
 73
28
 74
28
 0
VERTEX
 8
MESH_238_F0
 10
0
 20
0
 30
0
 70
128
 71
7
 72
6
 73
27
 74
27
 0
VERTEX
 8
MESH_238_F0
 10
0
 20
0
 30
0
 70
128
 71
8
 72
7
 73
26
 74
26
 0
VERTEX
 8
MESH_238_F0
 10
0
 20
0
 30
0
 70
128
 71
9
 72
8
 73
25
 74
25
 0
VERTEX
 8
MESH_238_F0
 10
0
 20
0
 30
0
 70
128
 71
10
 72
9
 73
24
 74
24
 0
VERTEX
 8
MESH_238_F0
 10
0
 20
0
 30
0
 70
128
 71
11
 72
10
 73
23
 74
23
 0
VERTEX
 8
MESH_238_F0
 10
0
 20
0
 30
0
 70
128
 71
12
 72
11
 73
22
 74
22
 0
VERTEX
 8
MESH_238_F0
 10
0
 20
0
 30
0
 70
128
 71
13
 72
12
 73
21
 74
21
 0
VERTEX
 8
MESH_238_F0
 10
0
 20
0
 30
0
 70
128
 71
14
 72
13
 73
20
 74
20
 0
VERTEX
 8
MESH_238_F0
 10
0
 20
0
 30
0
 70
128
 71
15
 72
14
 73
19
 74
19
 0
VERTEX
 8
MESH_238_F0
 10
0
 20
0
 30
0
 70
128
 71
17
 72
15
 73
18
 74
18
 0
VERTEX
 8
MESH_238_F0
 10
0
 20
0
 30
0
 70
128
 71
15
 72
19
 73
18
 74
18
 0
VERTEX
 8
MESH_238_F0
 10
0
 20
0
 30
0
 70
128
 71
17
 72
16
 73
15
 74
15
 0
VERTEX
 8
MESH_238_F0
 10
0
 20
0
 30
0
 70
128
 71
14
 72
20
 73
19
 74
19
 0
VERTEX
 8
MESH_238_F0
 10
0
 20
0
 30
0
 70
128
 71
13
 72
21
 73
20
 74
20
 0
VERTEX
 8
MESH_238_F0
 10
0
 20
0
 30
0
 70
128
 71
12
 72
22
 73
21
 74
21
 0
VERTEX
 8
MESH_238_F0
 10
0
 20
0
 30
0
 70
128
 71
11
 72
23
 73
22
 74
22
 0
VERTEX
 8
MESH_238_F0
 10
0
 20
0
 30
0
 70
128
 71
10
 72
24
 73
23
 74
23
 0
VERTEX
 8
MESH_238_F0
 10
0
 20
0
 30
0
 70
128
 71
9
 72
25
 73
24
 74
24
 0
VERTEX
 8
MESH_238_F0
 10
0
 20
0
 30
0
 70
128
 71
8
 72
26
 73
25
 74
25
 0
VERTEX
 8
MESH_238_F0
 10
0
 20
0
 30
0
 70
128
 71
7
 72
27
 73
26
 74
26
 0
VERTEX
 8
MESH_238_F0
 10
0
 20
0
 30
0
 70
128
 71
6
 72
28
 73
27
 74
27
 0
SEQEND
 0
POLYLINE
 8
MESH_237_F0
 66
1
 10
0.0
 20
0.0
 30
0.0
 70
64
 71
4
 72
2
 0
VERTEX
 8
MESH_237_F0
 10
-399
 20
-412
 30
-7
 70
192
 0
VERTEX
 8
MESH_237_F0
 10
-399
 20
-415
 30
-7
 70
192
 0
VERTEX
 8
MESH_237_F0
 10
-399
 20
-415
 30
-3
 70
192
 0
VERTEX
 8
MESH_237_F0
 10
-399
 20
-412
 30
-3
 70
192
 0
VERTEX
 8
MESH_237_F0
 10
0
 20
0
 30
0
 70
128
 71
4
 72
2
 73
1
 74
1
 0
VERTEX
 8
MESH_237_F0
 10
0
 20
0
 30
0
 70
128
 71
3
 72
2
 73
4
 74
4
 0
SEQEND
 0
POLYLINE
 8
MESH_236_F0
 66
1
 10
0.0
 20
0.0
 30
0.0
 70
64
 71
32
 72
30
 0
VERTEX
 8
MESH_236_F0
 10
-399
 20
-412
 30
-3
 70
192
 0
VERTEX
 8
MESH_236_F0
 10
-399
 20
-415
 30
-3
 70
192
 0
VERTEX
 8
MESH_236_F0
 10
-398.8353
 20
-417.8842
 30
-3
 70
192
 0
VERTEX
 8
MESH_236_F0
 10
-398.3544
 20
-420.7017
 30
-3
 70
192
 0
VERTEX
 8
MESH_236_F0
 10
-397.5602
 20
-423.4446
 30
-3
 70
192
 0
VERTEX
 8
MESH_236_F0
 10
-396.4624
 20
-426.0894
 30
-3
 70
192
 0
VERTEX
 8
MESH_236_F0
 10
-395.0807
 20
-428.5844
 30
-3
 70
192
 0
VERTEX
 8
MESH_236_F0
 10
-393.4296
 20
-430.9077
 30
-3
 70
192
 0
VERTEX
 8
MESH_236_F0
 10
-391.5308
 20
-433.0308
 30
-3
 70
192
 0
VERTEX
 8
MESH_236_F0
 10
-389.4077
 20
-434.9296
 30
-3
 70
192
 0
VERTEX
 8
MESH_236_F0
 10
-387.0845
 20
-436.5807
 30
-3
 70
192
 0
VERTEX
 8
MESH_236_F0
 10
-384.5894
 20
-437.9624
 30
-3
 70
192
 0
VERTEX
 8
MESH_236_F0
 10
-381.9446
 20
-439.0602
 30
-3
 70
192
 0
VERTEX
 8
MESH_236_F0
 10
-379.2017
 20
-439.8543
 30
-3
 70
192
 0
VERTEX
 8
MESH_236_F0
 10
-376.3842
 20
-440.3353
 30
-3
 70
192
 0
VERTEX
 8
MESH_236_F0
 10
-373.5
 20
-440.5
 30
-3
 70
192
 0
VERTEX
 8
MESH_236_F0
 10
373.5
 20
-440.5
 30
-3
 70
192
 0
VERTEX
 8
MESH_236_F0
 10
376.3842
 20
-440.3353
 30
-3
 70
192
 0
VERTEX
 8
MESH_236_F0
 10
379.2017
 20
-439.8543
 30
-3
 70
192
 0
VERTEX
 8
MESH_236_F0
 10
381.9446
 20
-439.0602
 30
-3
 70
192
 0
VERTEX
 8
MESH_236_F0
 10
384.5894
 20
-437.9624
 30
-3
 70
192
 0
VERTEX
 8
MESH_236_F0
 10
387.0845
 20
-436.5807
 30
-3
 70
192
 0
VERTEX
 8
MESH_236_F0
 10
389.4077
 20
-434.9296
 30
-3
 70
192
 0
VERTEX
 8
MESH_236_F0
 10
391.5308
 20
-433.0308
 30
-3
 70
192
 0
VERTEX
 8
MESH_236_F0
 10
393.4296
 20
-430.9077
 30
-3
 70
192
 0
VERTEX
 8
MESH_236_F0
 10
395.0807
 20
-428.5844
 30
-3
 70
192
 0
VERTEX
 8
MESH_236_F0
 10
396.4624
 20
-426.0894
 30
-3
 70
192
 0
VERTEX
 8
MESH_236_F0
 10
397.5602
 20
-423.4446
 30
-3
 70
192
 0
VERTEX
 8
MESH_236_F0
 10
398.3544
 20
-420.7017
 30
-3
 70
192
 0
VERTEX
 8
MESH_236_F0
 10
398.8353
 20
-417.8842
 30
-3
 70
192
 0
VERTEX
 8
MESH_236_F0
 10
399
 20
-415
 30
-3
 70
192
 0
VERTEX
 8
MESH_236_F0
 10
399
 20
-412
 30
-3
 70
192
 0
VERTEX
 8
MESH_236_F0
 10
0
 20
0
 30
0
 70
128
 71
1
 72
30
 73
2
 74
2
 0
VERTEX
 8
MESH_236_F0
 10
0
 20
0
 30
0
 70
128
 71
30
 72
3
 73
2
 74
2
 0
VERTEX
 8
MESH_236_F0
 10
0
 20
0
 30
0
 70
128
 71
4
 72
3
 73
30
 74
30
 0
VERTEX
 8
MESH_236_F0
 10
0
 20
0
 30
0
 70
128
 71
5
 72
4
 73
29
 74
29
 0
VERTEX
 8
MESH_236_F0
 10
0
 20
0
 30
0
 70
128
 71
5
 72
29
 73
6
 74
6
 0
VERTEX
 8
MESH_236_F0
 10
0
 20
0
 30
0
 70
128
 71
29
 72
7
 73
6
 74
6
 0
VERTEX
 8
MESH_236_F0
 10
0
 20
0
 30
0
 70
128
 71
28
 72
7
 73
29
 74
29
 0
VERTEX
 8
MESH_236_F0
 10
0
 20
0
 30
0
 70
128
 71
8
 72
7
 73
28
 74
28
 0
VERTEX
 8
MESH_236_F0
 10
0
 20
0
 30
0
 70
128
 71
8
 72
28
 73
9
 74
9
 0
VERTEX
 8
MESH_236_F0
 10
0
 20
0
 30
0
 70
128
 71
28
 72
27
 73
9
 74
9
 0
VERTEX
 8
MESH_236_F0
 10
0
 20
0
 30
0
 70
128
 71
27
 72
10
 73
9
 74
9
 0
VERTEX
 8
MESH_236_F0
 10
0
 20
0
 30
0
 70
128
 71
11
 72
10
 73
27
 74
27
 0
VERTEX
 8
MESH_236_F0
 10
0
 20
0
 30
0
 70
128
 71
12
 72
11
 73
26
 74
26
 0
VERTEX
 8
MESH_236_F0
 10
0
 20
0
 30
0
 70
128
 71
13
 72
12
 73
16
 74
16
 0
VERTEX
 8
MESH_236_F0
 10
0
 20
0
 30
0
 70
128
 71
13
 72
16
 73
14
 74
14
 0
VERTEX
 8
MESH_236_F0
 10
0
 20
0
 30
0
 70
128
 71
16
 72
15
 73
14
 74
14
 0
VERTEX
 8
MESH_236_F0
 10
0
 20
0
 30
0
 70
128
 71
17
 72
20
 73
19
 74
19
 0
VERTEX
 8
MESH_236_F0
 10
0
 20
0
 30
0
 70
128
 71
17
 72
19
 73
18
 74
18
 0
VERTEX
 8
MESH_236_F0
 10
0
 20
0
 30
0
 70
128
 71
17
 72
21
 73
20
 74
20
 0
VERTEX
 8
MESH_236_F0
 10
0
 20
0
 30
0
 70
128
 71
16
 72
21
 73
17
 74
17
 0
VERTEX
 8
MESH_236_F0
 10
0
 20
0
 30
0
 70
128
 71
22
 72
21
 73
16
 74
16
 0
VERTEX
 8
MESH_236_F0
 10
0
 20
0
 30
0
 70
128
 71
22
 72
16
 73
23
 74
23
 0
VERTEX
 8
MESH_236_F0
 10
0
 20
0
 30
0
 70
128
 71
16
 72
24
 73
23
 74
23
 0
VERTEX
 8
MESH_236_F0
 10
0
 20
0
 30
0
 70
128
 71
25
 72
24
 73
16
 74
16
 0
VERTEX
 8
MESH_236_F0
 10
0
 20
0
 30
0
 70
128
 71
25
 72
16
 73
26
 74
26
 0
VERTEX
 8
MESH_236_F0
 10
0
 20
0
 30
0
 70
128
 71
16
 72
12
 73
26
 74
26
 0
VERTEX
 8
MESH_236_F0
 10
0
 20
0
 30
0
 70
128
 71
11
 72
27
 73
26
 74
26
 0
VERTEX
 8
MESH_236_F0
 10
0
 20
0
 30
0
 70
128
 71
4
 72
30
 73
29
 74
29
 0
VERTEX
 8
MESH_236_F0
 10
0
 20
0
 30
0
 70
128
 71
1
 72
31
 73
30
 74
30
 0
VERTEX
 8
MESH_236_F0
 10
0
 20
0
 30
0
 70
128
 71
32
 72
31
 73
1
 74
1
 0
SEQEND
 0
POLYLINE
 8
MESH_235_F0
 66
1
 10
0.0
 20
0.0
 30
0.0
 70
64
 71
4
 72
2
 0
VERTEX
 8
MESH_235_F0
 10
399
 20
-412
 30
-3
 70
192
 0
VERTEX
 8
MESH_235_F0
 10
399
 20
-415
 30
-3
 70
192
 0
VERTEX
 8
MESH_235_F0
 10
399
 20
-415
 30
-7
 70
192
 0
VERTEX
 8
MESH_235_F0
 10
399
 20
-412
 30
-7
 70
192
 0
VERTEX
 8
MESH_235_F0
 10
0
 20
0
 30
0
 70
128
 71
4
 72
2
 73
1
 74
1
 0
VERTEX
 8
MESH_235_F0
 10
0
 20
0
 30
0
 70
128
 71
3
 72
2
 73
4
 74
4
 0
SEQEND
 0
POLYLINE
 8
MESH_234_F0
 66
1
 10
0.0
 20
0.0
 30
0.0
 70
64
 71
4
 72
2
 0
VERTEX
 8
MESH_234_F0
 10
-373.501
 20
-440
 30
-7
 70
192
 0
VERTEX
 8
MESH_234_F0
 10
-373.501
 20
-440
 30
-237
 70
192
 0
VERTEX
 8
MESH_234_F0
 10
373.501
 20
-440
 30
-237
 70
192
 0
VERTEX
 8
MESH_234_F0
 10
373.501
 20
-440
 30
-7
 70
192
 0
VERTEX
 8
MESH_234_F0
 10
0
 20
0
 30
0
 70
128
 71
1
 72
3
 73
2
 74
2
 0
VERTEX
 8
MESH_234_F0
 10
0
 20
0
 30
0
 70
128
 71
4
 72
3
 73
1
 74
1
 0
SEQEND
 0
POLYLINE
 8
MESH_233_F0
 66
1
 10
0.0
 20
0.0
 30
0.0
 70
64
 71
62
 72
60
 0
VERTEX
 8
MESH_233_F0
 10
-398.3192
 20
-412
 30
-7
 70
192
 0
VERTEX
 8
MESH_233_F0
 10
-398.5
 20
-415.0125
 30
-7
 70
192
 0
VERTEX
 8
MESH_233_F0
 10
-398.3164
 20
-418.0248
 30
-7
 70
192
 0
VERTEX
 8
MESH_233_F0
 10
-397.7712
 20
-420.9931
 30
-7
 70
192
 0
VERTEX
 8
MESH_233_F0
 10
-396.8723
 20
-423.874
 30
-7
 70
192
 0
VERTEX
 8
MESH_233_F0
 10
-395.6328
 20
-426.6256
 30
-7
 70
192
 0
VERTEX
 8
MESH_233_F0
 10
-394.0708
 20
-429.2079
 30
-7
 70
192
 0
VERTEX
 8
MESH_233_F0
 10
-392.2089
 20
-431.583
 30
-7
 70
192
 0
VERTEX
 8
MESH_233_F0
 10
-390.0744
 20
-433.7166
 30
-7
 70
192
 0
VERTEX
 8
MESH_233_F0
 10
-387.6984
 20
-435.5773
 30
-7
 70
192
 0
VERTEX
 8
MESH_233_F0
 10
-385.1155
 20
-437.1381
 30
-7
 70
192
 0
VERTEX
 8
MESH_233_F0
 10
-382.3633
 20
-438.3764
 30
-7
 70
192
 0
VERTEX
 8
MESH_233_F0
 10
-379.4819
 20
-439.274
 30
-7
 70
192
 0
VERTEX
 8
MESH_233_F0
 10
-376.5134
 20
-439.8178
 30
-7
 70
192
 0
VERTEX
 8
MESH_233_F0
 10
-373.501
 20
-440
 30
-7
 70
192
 0
VERTEX
 8
MESH_233_F0
 10
373.501
 20
-440
 30
-7
 70
192
 0
VERTEX
 8
MESH_233_F0
 10
376.5134
 20
-439.8178
 30
-7
 70
192
 0
VERTEX
 8
MESH_233_F0
 10
379.4819
 20
-439.274
 30
-7
 70
192
 0
VERTEX
 8
MESH_233_F0
 10
382.3633
 20
-438.3764
 30
-7
 70
192
 0
VERTEX
 8
MESH_233_F0
 10
385.1155
 20
-437.1381
 30
-7
 70
192
 0
VERTEX
 8
MESH_233_F0
 10
387.6984
 20
-435.5773
 30
-7
 70
192
 0
VERTEX
 8
MESH_233_F0
 10
390.0744
 20
-433.7166
 30
-7
 70
192
 0
VERTEX
 8
MESH_233_F0
 10
392.2089
 20
-431.583
 30
-7
 70
192
 0
VERTEX
 8
MESH_233_F0
 10
394.0708
 20
-429.2079
 30
-7
 70
192
 0
VERTEX
 8
MESH_233_F0
 10
395.6328
 20
-426.6256
 30
-7
 70
192
 0
VERTEX
 8
MESH_233_F0
 10
396.8723
 20
-423.874
 30
-7
 70
192
 0
VERTEX
 8
MESH_233_F0
 10
397.7712
 20
-420.9931
 30
-7
 70
192
 0
VERTEX
 8
MESH_233_F0
 10
398.3164
 20
-418.0248
 30
-7
 70
192
 0
VERTEX
 8
MESH_233_F0
 10
398.5
 20
-415.0125
 30
-7
 70
192
 0
VERTEX
 8
MESH_233_F0
 10
398.3192
 20
-412
 30
-7
 70
192
 0
VERTEX
 8
MESH_233_F0
 10
399
 20
-412
 30
-7
 70
192
 0
VERTEX
 8
MESH_233_F0
 10
399
 20
-415
 30
-7
 70
192
 0
VERTEX
 8
MESH_233_F0
 10
398.8353
 20
-417.8842
 30
-7
 70
192
 0
VERTEX
 8
MESH_233_F0
 10
398.3544
 20
-420.7017
 30
-7
 70
192
 0
VERTEX
 8
MESH_233_F0
 10
397.5602
 20
-423.4446
 30
-7
 70
192
 0
VERTEX
 8
MESH_233_F0
 10
396.4624
 20
-426.0894
 30
-7
 70
192
 0
VERTEX
 8
MESH_233_F0
 10
395.0807
 20
-428.5844
 30
-7
 70
192
 0
VERTEX
 8
MESH_233_F0
 10
393.4296
 20
-430.9077
 30
-7
 70
192
 0
VERTEX
 8
MESH_233_F0
 10
391.5308
 20
-433.0308
 30
-7
 70
192
 0
VERTEX
 8
MESH_233_F0
 10
389.4077
 20
-434.9296
 30
-7
 70
192
 0
VERTEX
 8
MESH_233_F0
 10
387.0845
 20
-436.5807
 30
-7
 70
192
 0
VERTEX
 8
MESH_233_F0
 10
384.5894
 20
-437.9624
 30
-7
 70
192
 0
VERTEX
 8
MESH_233_F0
 10
381.9446
 20
-439.0602
 30
-7
 70
192
 0
VERTEX
 8
MESH_233_F0
 10
379.2017
 20
-439.8543
 30
-7
 70
192
 0
VERTEX
 8
MESH_233_F0
 10
376.3842
 20
-440.3353
 30
-7
 70
192
 0
VERTEX
 8
MESH_233_F0
 10
373.5
 20
-440.5
 30
-7
 70
192
 0
VERTEX
 8
MESH_233_F0
 10
-373.5
 20
-440.5
 30
-7
 70
192
 0
VERTEX
 8
MESH_233_F0
 10
-376.3842
 20
-440.3353
 30
-7
 70
192
 0
VERTEX
 8
MESH_233_F0
 10
-379.2017
 20
-439.8543
 30
-7
 70
192
 0
VERTEX
 8
MESH_233_F0
 10
-381.9446
 20
-439.0602
 30
-7
 70
192
 0
VERTEX
 8
MESH_233_F0
 10
-384.5894
 20
-437.9624
 30
-7
 70
192
 0
VERTEX
 8
MESH_233_F0
 10
-387.0845
 20
-436.5807
 30
-7
 70
192
 0
VERTEX
 8
MESH_233_F0
 10
-389.4077
 20
-434.9296
 30
-7
 70
192
 0
VERTEX
 8
MESH_233_F0
 10
-391.5308
 20
-433.0308
 30
-7
 70
192
 0
VERTEX
 8
MESH_233_F0
 10
-393.4296
 20
-430.9077
 30
-7
 70
192
 0
VERTEX
 8
MESH_233_F0
 10
-395.0807
 20
-428.5844
 30
-7
 70
192
 0
VERTEX
 8
MESH_233_F0
 10
-396.4624
 20
-426.0894
 30
-7
 70
192
 0
VERTEX
 8
MESH_233_F0
 10
-397.5602
 20
-423.4446
 30
-7
 70
192
 0
VERTEX
 8
MESH_233_F0
 10
-398.3544
 20
-420.7017
 30
-7
 70
192
 0
VERTEX
 8
MESH_233_F0
 10
-398.8353
 20
-417.8842
 30
-7
 70
192
 0
VERTEX
 8
MESH_233_F0
 10
-399
 20
-415
 30
-7
 70
192
 0
VERTEX
 8
MESH_233_F0
 10
-399
 20
-412
 30
-7
 70
192
 0
VERTEX
 8
MESH_233_F0
 10
0
 20
0
 30
0
 70
128
 71
62
 72
2
 73
1
 74
1
 0
VERTEX
 8
MESH_233_F0
 10
0
 20
0
 30
0
 70
128
 71
61
 72
2
 73
62
 74
62
 0
VERTEX
 8
MESH_233_F0
 10
0
 20
0
 30
0
 70
128
 71
60
 72
2
 73
61
 74
61
 0
VERTEX
 8
MESH_233_F0
 10
0
 20
0
 30
0
 70
128
 71
3
 72
2
 73
60
 74
60
 0
VERTEX
 8
MESH_233_F0
 10
0
 20
0
 30
0
 70
128
 71
4
 72
3
 73
59
 74
59
 0
VERTEX
 8
MESH_233_F0
 10
0
 20
0
 30
0
 70
128
 71
5
 72
4
 73
58
 74
58
 0
VERTEX
 8
MESH_233_F0
 10
0
 20
0
 30
0
 70
128
 71
6
 72
5
 73
57
 74
57
 0
VERTEX
 8
MESH_233_F0
 10
0
 20
0
 30
0
 70
128
 71
7
 72
6
 73
56
 74
56
 0
VERTEX
 8
MESH_233_F0
 10
0
 20
0
 30
0
 70
128
 71
8
 72
7
 73
55
 74
55
 0
VERTEX
 8
MESH_233_F0
 10
0
 20
0
 30
0
 70
128
 71
9
 72
8
 73
54
 74
54
 0
VERTEX
 8
MESH_233_F0
 10
0
 20
0
 30
0
 70
128
 71
10
 72
9
 73
53
 74
53
 0
VERTEX
 8
MESH_233_F0
 10
0
 20
0
 30
0
 70
128
 71
11
 72
10
 73
52
 74
52
 0
VERTEX
 8
MESH_233_F0
 10
0
 20
0
 30
0
 70
128
 71
12
 72
11
 73
51
 74
51
 0
VERTEX
 8
MESH_233_F0
 10
0
 20
0
 30
0
 70
128
 71
13
 72
12
 73
50
 74
50
 0
VERTEX
 8
MESH_233_F0
 10
0
 20
0
 30
0
 70
128
 71
14
 72
13
 73
49
 74
49
 0
VERTEX
 8
MESH_233_F0
 10
0
 20
0
 30
0
 70
128
 71
14
 72
49
 73
15
 74
15
 0
VERTEX
 8
MESH_233_F0
 10
0
 20
0
 30
0
 70
128
 71
49
 72
48
 73
15
 74
15
 0
VERTEX
 8
MESH_233_F0
 10
0
 20
0
 30
0
 70
128
 71
48
 72
47
 73
15
 74
15
 0
VERTEX
 8
MESH_233_F0
 10
0
 20
0
 30
0
 70
128
 71
47
 72
46
 73
15
 74
15
 0
VERTEX
 8
MESH_233_F0
 10
0
 20
0
 30
0
 70
128
 71
46
 72
16
 73
15
 74
15
 0
VERTEX
 8
MESH_233_F0
 10
0
 20
0
 30
0
 70
128
 71
45
 72
16
 73
46
 74
46
 0
VERTEX
 8
MESH_233_F0
 10
0
 20
0
 30
0
 70
128
 71
44
 72
16
 73
45
 74
45
 0
VERTEX
 8
MESH_233_F0
 10
0
 20
0
 30
0
 70
128
 71
17
 72
16
 73
44
 74
44
 0
VERTEX
 8
MESH_233_F0
 10
0
 20
0
 30
0
 70
128
 71
17
 72
44
 73
18
 74
18
 0
VERTEX
 8
MESH_233_F0
 10
0
 20
0
 30
0
 70
128
 71
44
 72
43
 73
18
 74
18
 0
VERTEX
 8
MESH_233_F0
 10
0
 20
0
 30
0
 70
128
 71
43
 72
19
 73
18
 74
18
 0
VERTEX
 8
MESH_233_F0
 10
0
 20
0
 30
0
 70
128
 71
42
 72
19
 73
43
 74
43
 0
VERTEX
 8
MESH_233_F0
 10
0
 20
0
 30
0
 70
128
 71
20
 72
19
 73
42
 74
42
 0
VERTEX
 8
MESH_233_F0
 10
0
 20
0
 30
0
 70
128
 71
21
 72
20
 73
41
 74
41
 0
VERTEX
 8
MESH_233_F0
 10
0
 20
0
 30
0
 70
128
 71
22
 72
21
 73
40
 74
40
 0
VERTEX
 8
MESH_233_F0
 10
0
 20
0
 30
0
 70
128
 71
23
 72
22
 73
39
 74
39
 0
VERTEX
 8
MESH_233_F0
 10
0
 20
0
 30
0
 70
128
 71
24
 72
23
 73
38
 74
38
 0
VERTEX
 8
MESH_233_F0
 10
0
 20
0
 30
0
 70
128
 71
25
 72
24
 73
37
 74
37
 0
VERTEX
 8
MESH_233_F0
 10
0
 20
0
 30
0
 70
128
 71
26
 72
25
 73
36
 74
36
 0
VERTEX
 8
MESH_233_F0
 10
0
 20
0
 30
0
 70
128
 71
27
 72
26
 73
35
 74
35
 0
VERTEX
 8
MESH_233_F0
 10
0
 20
0
 30
0
 70
128
 71
28
 72
27
 73
34
 74
34
 0
VERTEX
 8
MESH_233_F0
 10
0
 20
0
 30
0
 70
128
 71
29
 72
28
 73
33
 74
33
 0
VERTEX
 8
MESH_233_F0
 10
0
 20
0
 30
0
 70
128
 71
30
 72
29
 73
32
 74
32
 0
VERTEX
 8
MESH_233_F0
 10
0
 20
0
 30
0
 70
128
 71
30
 72
32
 73
31
 74
31
 0
VERTEX
 8
MESH_233_F0
 10
0
 20
0
 30
0
 70
128
 71
29
 72
33
 73
32
 74
32
 0
VERTEX
 8
MESH_233_F0
 10
0
 20
0
 30
0
 70
128
 71
28
 72
34
 73
33
 74
33
 0
VERTEX
 8
MESH_233_F0
 10
0
 20
0
 30
0
 70
128
 71
27
 72
35
 73
34
 74
34
 0
VERTEX
 8
MESH_233_F0
 10
0
 20
0
 30
0
 70
128
 71
26
 72
36
 73
35
 74
35
 0
VERTEX
 8
MESH_233_F0
 10
0
 20
0
 30
0
 70
128
 71
25
 72
37
 73
36
 74
36
 0
VERTEX
 8
MESH_233_F0
 10
0
 20
0
 30
0
 70
128
 71
24
 72
38
 73
37
 74
37
 0
VERTEX
 8
MESH_233_F0
 10
0
 20
0
 30
0
 70
128
 71
23
 72
39
 73
38
 74
38
 0
VERTEX
 8
MESH_233_F0
 10
0
 20
0
 30
0
 70
128
 71
22
 72
40
 73
39
 74
39
 0
VERTEX
 8
MESH_233_F0
 10
0
 20
0
 30
0
 70
128
 71
21
 72
41
 73
40
 74
40
 0
VERTEX
 8
MESH_233_F0
 10
0
 20
0
 30
0
 70
128
 71
20
 72
42
 73
41
 74
41
 0
VERTEX
 8
MESH_233_F0
 10
0
 20
0
 30
0
 70
128
 71
13
 72
50
 73
49
 74
49
 0
VERTEX
 8
MESH_233_F0
 10
0
 20
0
 30
0
 70
128
 71
12
 72
51
 73
50
 74
50
 0
VERTEX
 8
MESH_233_F0
 10
0
 20
0
 30
0
 70
128
 71
11
 72
52
 73
51
 74
51
 0
VERTEX
 8
MESH_233_F0
 10
0
 20
0
 30
0
 70
128
 71
10
 72
53
 73
52
 74
52
 0
VERTEX
 8
MESH_233_F0
 10
0
 20
0
 30
0
 70
128
 71
9
 72
54
 73
53
 74
53
 0
VERTEX
 8
MESH_233_F0
 10
0
 20
0
 30
0
 70
128
 71
8
 72
55
 73
54
 74
54
 0
VERTEX
 8
MESH_233_F0
 10
0
 20
0
 30
0
 70
128
 71
7
 72
56
 73
55
 74
55
 0
VERTEX
 8
MESH_233_F0
 10
0
 20
0
 30
0
 70
128
 71
6
 72
57
 73
56
 74
56
 0
VERTEX
 8
MESH_233_F0
 10
0
 20
0
 30
0
 70
128
 71
5
 72
58
 73
57
 74
57
 0
VERTEX
 8
MESH_233_F0
 10
0
 20
0
 30
0
 70
128
 71
4
 72
59
 73
58
 74
58
 0
VERTEX
 8
MESH_233_F0
 10
0
 20
0
 30
0
 70
128
 71
3
 72
60
 73
59
 74
59
 0
SEQEND
 0
POLYLINE
 8
MESH_232_F0
 66
1
 10
0.0
 20
0.0
 30
0.0
 70
64
 71
30
 72
28
 0
VERTEX
 8
MESH_232_F0
 10
398.3192
 20
-412
 30
-7
 70
192
 0
VERTEX
 8
MESH_232_F0
 10
398.5
 20
-415.0125
 30
-7
 70
192
 0
VERTEX
 8
MESH_232_F0
 10
398.3164
 20
-418.0248
 30
-7
 70
192
 0
VERTEX
 8
MESH_232_F0
 10
397.7712
 20
-420.9931
 30
-7
 70
192
 0
VERTEX
 8
MESH_232_F0
 10
396.8723
 20
-423.874
 30
-7
 70
192
 0
VERTEX
 8
MESH_232_F0
 10
395.6328
 20
-426.6256
 30
-7
 70
192
 0
VERTEX
 8
MESH_232_F0
 10
394.0708
 20
-429.2079
 30
-7
 70
192
 0
VERTEX
 8
MESH_232_F0
 10
392.2089
 20
-431.583
 30
-7
 70
192
 0
VERTEX
 8
MESH_232_F0
 10
390.0744
 20
-433.7166
 30
-7
 70
192
 0
VERTEX
 8
MESH_232_F0
 10
387.6984
 20
-435.5773
 30
-7
 70
192
 0
VERTEX
 8
MESH_232_F0
 10
385.1155
 20
-437.1381
 30
-7
 70
192
 0
VERTEX
 8
MESH_232_F0
 10
382.3633
 20
-438.3764
 30
-7
 70
192
 0
VERTEX
 8
MESH_232_F0
 10
379.4819
 20
-439.274
 30
-7
 70
192
 0
VERTEX
 8
MESH_232_F0
 10
376.5134
 20
-439.8178
 30
-7
 70
192
 0
VERTEX
 8
MESH_232_F0
 10
373.501
 20
-440
 30
-7
 70
192
 0
VERTEX
 8
MESH_232_F0
 10
373.501
 20
-440
 30
-237
 70
192
 0
VERTEX
 8
MESH_232_F0
 10
376.5134
 20
-439.8178
 30
-237
 70
192
 0
VERTEX
 8
MESH_232_F0
 10
379.4819
 20
-439.274
 30
-237
 70
192
 0
VERTEX
 8
MESH_232_F0
 10
382.3633
 20
-438.3764
 30
-237
 70
192
 0
VERTEX
 8
MESH_232_F0
 10
385.1155
 20
-437.1381
 30
-237
 70
192
 0
VERTEX
 8
MESH_232_F0
 10
387.6984
 20
-435.5773
 30
-237
 70
192
 0
VERTEX
 8
MESH_232_F0
 10
390.0744
 20
-433.7166
 30
-237
 70
192
 0
VERTEX
 8
MESH_232_F0
 10
392.2089
 20
-431.583
 30
-237
 70
192
 0
VERTEX
 8
MESH_232_F0
 10
394.0708
 20
-429.2079
 30
-237
 70
192
 0
VERTEX
 8
MESH_232_F0
 10
395.6328
 20
-426.6256
 30
-237
 70
192
 0
VERTEX
 8
MESH_232_F0
 10
396.8723
 20
-423.874
 30
-237
 70
192
 0
VERTEX
 8
MESH_232_F0
 10
397.7712
 20
-420.9931
 30
-237
 70
192
 0
VERTEX
 8
MESH_232_F0
 10
398.3164
 20
-418.0248
 30
-237
 70
192
 0
VERTEX
 8
MESH_232_F0
 10
398.5
 20
-415.0125
 30
-237
 70
192
 0
VERTEX
 8
MESH_232_F0
 10
398.3192
 20
-412
 30
-237
 70
192
 0
VERTEX
 8
MESH_232_F0
 10
0
 20
0
 30
0
 70
128
 71
29
 72
1
 73
30
 74
30
 0
VERTEX
 8
MESH_232_F0
 10
0
 20
0
 30
0
 70
128
 71
2
 72
1
 73
29
 74
29
 0
VERTEX
 8
MESH_232_F0
 10
0
 20
0
 30
0
 70
128
 71
3
 72
2
 73
28
 74
28
 0
VERTEX
 8
MESH_232_F0
 10
0
 20
0
 30
0
 70
128
 71
4
 72
3
 73
27
 74
27
 0
VERTEX
 8
MESH_232_F0
 10
0
 20
0
 30
0
 70
128
 71
5
 72
4
 73
26
 74
26
 0
VERTEX
 8
MESH_232_F0
 10
0
 20
0
 30
0
 70
128
 71
6
 72
5
 73
25
 74
25
 0
VERTEX
 8
MESH_232_F0
 10
0
 20
0
 30
0
 70
128
 71
7
 72
6
 73
24
 74
24
 0
VERTEX
 8
MESH_232_F0
 10
0
 20
0
 30
0
 70
128
 71
8
 72
7
 73
23
 74
23
 0
VERTEX
 8
MESH_232_F0
 10
0
 20
0
 30
0
 70
128
 71
9
 72
8
 73
22
 74
22
 0
VERTEX
 8
MESH_232_F0
 10
0
 20
0
 30
0
 70
128
 71
10
 72
9
 73
21
 74
21
 0
VERTEX
 8
MESH_232_F0
 10
0
 20
0
 30
0
 70
128
 71
11
 72
10
 73
20
 74
20
 0
VERTEX
 8
MESH_232_F0
 10
0
 20
0
 30
0
 70
128
 71
12
 72
11
 73
19
 74
19
 0
VERTEX
 8
MESH_232_F0
 10
0
 20
0
 30
0
 70
128
 71
13
 72
12
 73
18
 74
18
 0
VERTEX
 8
MESH_232_F0
 10
0
 20
0
 30
0
 70
128
 71
14
 72
13
 73
17
 74
17
 0
VERTEX
 8
MESH_232_F0
 10
0
 20
0
 30
0
 70
128
 71
15
 72
14
 73
16
 74
16
 0
VERTEX
 8
MESH_232_F0
 10
0
 20
0
 30
0
 70
128
 71
14
 72
17
 73
16
 74
16
 0
VERTEX
 8
MESH_232_F0
 10
0
 20
0
 30
0
 70
128
 71
13
 72
18
 73
17
 74
17
 0
VERTEX
 8
MESH_232_F0
 10
0
 20
0
 30
0
 70
128
 71
12
 72
19
 73
18
 74
18
 0
VERTEX
 8
MESH_232_F0
 10
0
 20
0
 30
0
 70
128
 71
11
 72
20
 73
19
 74
19
 0
VERTEX
 8
MESH_232_F0
 10
0
 20
0
 30
0
 70
128
 71
10
 72
21
 73
20
 74
20
 0
VERTEX
 8
MESH_232_F0
 10
0
 20
0
 30
0
 70
128
 71
9
 72
22
 73
21
 74
21
 0
VERTEX
 8
MESH_232_F0
 10
0
 20
0
 30
0
 70
128
 71
8
 72
23
 73
22
 74
22
 0
VERTEX
 8
MESH_232_F0
 10
0
 20
0
 30
0
 70
128
 71
7
 72
24
 73
23
 74
23
 0
VERTEX
 8
MESH_232_F0
 10
0
 20
0
 30
0
 70
128
 71
6
 72
25
 73
24
 74
24
 0
VERTEX
 8
MESH_232_F0
 10
0
 20
0
 30
0
 70
128
 71
5
 72
26
 73
25
 74
25
 0
VERTEX
 8
MESH_232_F0
 10
0
 20
0
 30
0
 70
128
 71
4
 72
27
 73
26
 74
26
 0
VERTEX
 8
MESH_232_F0
 10
0
 20
0
 30
0
 70
128
 71
3
 72
28
 73
27
 74
27
 0
VERTEX
 8
MESH_232_F0
 10
0
 20
0
 30
0
 70
128
 71
2
 72
29
 73
28
 74
28
 0
SEQEND
 0
POLYLINE
 8
MESH_231_F0
 66
1
 10
0.0
 20
0.0
 30
0.0
 70
64
 71
30
 72
28
 0
VERTEX
 8
MESH_231_F0
 10
398.3192
 20
-412
 30
-237
 70
192
 0
VERTEX
 8
MESH_231_F0
 10
398.5
 20
-415.0125
 30
-237
 70
192
 0
VERTEX
 8
MESH_231_F0
 10
398.3164
 20
-418.0248
 30
-237
 70
192
 0
VERTEX
 8
MESH_231_F0
 10
397.7712
 20
-420.9931
 30
-237
 70
192
 0
VERTEX
 8
MESH_231_F0
 10
396.8723
 20
-423.874
 30
-237
 70
192
 0
VERTEX
 8
MESH_231_F0
 10
395.6328
 20
-426.6256
 30
-237
 70
192
 0
VERTEX
 8
MESH_231_F0
 10
394.0708
 20
-429.2079
 30
-237
 70
192
 0
VERTEX
 8
MESH_231_F0
 10
392.2089
 20
-431.583
 30
-237
 70
192
 0
VERTEX
 8
MESH_231_F0
 10
390.0744
 20
-433.7166
 30
-237
 70
192
 0
VERTEX
 8
MESH_231_F0
 10
387.6984
 20
-435.5773
 30
-237
 70
192
 0
VERTEX
 8
MESH_231_F0
 10
385.1155
 20
-437.1381
 30
-237
 70
192
 0
VERTEX
 8
MESH_231_F0
 10
382.3633
 20
-438.3764
 30
-237
 70
192
 0
VERTEX
 8
MESH_231_F0
 10
379.4819
 20
-439.274
 30
-237
 70
192
 0
VERTEX
 8
MESH_231_F0
 10
376.5134
 20
-439.8178
 30
-237
 70
192
 0
VERTEX
 8
MESH_231_F0
 10
373.501
 20
-440
 30
-237
 70
192
 0
VERTEX
 8
MESH_231_F0
 10
-373.501
 20
-440
 30
-237
 70
192
 0
VERTEX
 8
MESH_231_F0
 10
-376.5134
 20
-439.8178
 30
-237
 70
192
 0
VERTEX
 8
MESH_231_F0
 10
-379.4819
 20
-439.274
 30
-237
 70
192
 0
VERTEX
 8
MESH_231_F0
 10
-382.3633
 20
-438.3764
 30
-237
 70
192
 0
VERTEX
 8
MESH_231_F0
 10
-385.1155
 20
-437.1381
 30
-237
 70
192
 0
VERTEX
 8
MESH_231_F0
 10
-387.6984
 20
-435.5773
 30
-237
 70
192
 0
VERTEX
 8
MESH_231_F0
 10
-390.0744
 20
-433.7166
 30
-237
 70
192
 0
VERTEX
 8
MESH_231_F0
 10
-392.2089
 20
-431.583
 30
-237
 70
192
 0
VERTEX
 8
MESH_231_F0
 10
-394.0708
 20
-429.2079
 30
-237
 70
192
 0
VERTEX
 8
MESH_231_F0
 10
-395.6328
 20
-426.6256
 30
-237
 70
192
 0
VERTEX
 8
MESH_231_F0
 10
-396.8723
 20
-423.874
 30
-237
 70
192
 0
VERTEX
 8
MESH_231_F0
 10
-397.7712
 20
-420.9931
 30
-237
 70
192
 0
VERTEX
 8
MESH_231_F0
 10
-398.3164
 20
-418.0248
 30
-237
 70
192
 0
VERTEX
 8
MESH_231_F0
 10
-398.5
 20
-415.0125
 30
-237
 70
192
 0
VERTEX
 8
MESH_231_F0
 10
-398.3192
 20
-412
 30
-237
 70
192
 0
VERTEX
 8
MESH_231_F0
 10
0
 20
0
 30
0
 70
128
 71
30
 72
2
 73
1
 74
1
 0
VERTEX
 8
MESH_231_F0
 10
0
 20
0
 30
0
 70
128
 71
3
 72
2
 73
30
 74
30
 0
VERTEX
 8
MESH_231_F0
 10
0
 20
0
 30
0
 70
128
 71
28
 72
3
 73
29
 74
29
 0
VERTEX
 8
MESH_231_F0
 10
0
 20
0
 30
0
 70
128
 71
3
 72
30
 73
29
 74
29
 0
VERTEX
 8
MESH_231_F0
 10
0
 20
0
 30
0
 70
128
 71
27
 72
3
 73
28
 74
28
 0
VERTEX
 8
MESH_231_F0
 10
0
 20
0
 30
0
 70
128
 71
4
 72
3
 73
27
 74
27
 0
VERTEX
 8
MESH_231_F0
 10
0
 20
0
 30
0
 70
128
 71
25
 72
4
 73
26
 74
26
 0
VERTEX
 8
MESH_231_F0
 10
0
 20
0
 30
0
 70
128
 71
4
 72
27
 73
26
 74
26
 0
VERTEX
 8
MESH_231_F0
 10
0
 20
0
 30
0
 70
128
 71
24
 72
4
 73
25
 74
25
 0
VERTEX
 8
MESH_231_F0
 10
0
 20
0
 30
0
 70
128
 71
5
 72
4
 73
24
 74
24
 0
VERTEX
 8
MESH_231_F0
 10
0
 20
0
 30
0
 70
128
 71
22
 72
5
 73
23
 74
23
 0
VERTEX
 8
MESH_231_F0
 10
0
 20
0
 30
0
 70
128
 71
5
 72
24
 73
23
 74
23
 0
VERTEX
 8
MESH_231_F0
 10
0
 20
0
 30
0
 70
128
 71
22
 72
6
 73
5
 74
5
 0
VERTEX
 8
MESH_231_F0
 10
0
 20
0
 30
0
 70
128
 71
21
 72
6
 73
22
 74
22
 0
VERTEX
 8
MESH_231_F0
 10
0
 20
0
 30
0
 70
128
 71
7
 72
6
 73
21
 74
21
 0
VERTEX
 8
MESH_231_F0
 10
0
 20
0
 30
0
 70
128
 71
19
 72
7
 73
20
 74
20
 0
VERTEX
 8
MESH_231_F0
 10
0
 20
0
 30
0
 70
128
 71
7
 72
21
 73
20
 74
20
 0
VERTEX
 8
MESH_231_F0
 10
0
 20
0
 30
0
 70
128
 71
16
 72
7
 73
19
 74
19
 0
VERTEX
 8
MESH_231_F0
 10
0
 20
0
 30
0
 70
128
 71
17
 72
16
 73
18
 74
18
 0
VERTEX
 8
MESH_231_F0
 10
0
 20
0
 30
0
 70
128
 71
16
 72
19
 73
18
 74
18
 0
VERTEX
 8
MESH_231_F0
 10
0
 20
0
 30
0
 70
128
 71
16
 72
8
 73
7
 74
7
 0
VERTEX
 8
MESH_231_F0
 10
0
 20
0
 30
0
 70
128
 71
9
 72
8
 73
16
 74
16
 0
VERTEX
 8
MESH_231_F0
 10
0
 20
0
 30
0
 70
128
 71
9
 72
16
 73
10
 74
10
 0
VERTEX
 8
MESH_231_F0
 10
0
 20
0
 30
0
 70
128
 71
16
 72
11
 73
10
 74
10
 0
VERTEX
 8
MESH_231_F0
 10
0
 20
0
 30
0
 70
128
 71
12
 72
11
 73
16
 74
16
 0
VERTEX
 8
MESH_231_F0
 10
0
 20
0
 30
0
 70
128
 71
13
 72
12
 73
15
 74
15
 0
VERTEX
 8
MESH_231_F0
 10
0
 20
0
 30
0
 70
128
 71
13
 72
15
 73
14
 74
14
 0
VERTEX
 8
MESH_231_F0
 10
0
 20
0
 30
0
 70
128
 71
12
 72
16
 73
15
 74
15
 0
SEQEND
 0
POLYLINE
 8
MESH_230_F0
 66
1
 10
0.0
 20
0.0
 30
0.0
 70
64
 71
30
 72
28
 0
VERTEX
 8
MESH_230_F0
 10
-398.3192
 20
-412
 30
-237
 70
192
 0
VERTEX
 8
MESH_230_F0
 10
-398.5
 20
-415.0125
 30
-237
 70
192
 0
VERTEX
 8
MESH_230_F0
 10
-398.3164
 20
-418.0248
 30
-237
 70
192
 0
VERTEX
 8
MESH_230_F0
 10
-397.7712
 20
-420.9931
 30
-237
 70
192
 0
VERTEX
 8
MESH_230_F0
 10
-396.8723
 20
-423.874
 30
-237
 70
192
 0
VERTEX
 8
MESH_230_F0
 10
-395.6328
 20
-426.6256
 30
-237
 70
192
 0
VERTEX
 8
MESH_230_F0
 10
-394.0708
 20
-429.2079
 30
-237
 70
192
 0
VERTEX
 8
MESH_230_F0
 10
-392.2089
 20
-431.583
 30
-237
 70
192
 0
VERTEX
 8
MESH_230_F0
 10
-390.0744
 20
-433.7166
 30
-237
 70
192
 0
VERTEX
 8
MESH_230_F0
 10
-387.6984
 20
-435.5773
 30
-237
 70
192
 0
VERTEX
 8
MESH_230_F0
 10
-385.1155
 20
-437.1381
 30
-237
 70
192
 0
VERTEX
 8
MESH_230_F0
 10
-382.3633
 20
-438.3764
 30
-237
 70
192
 0
VERTEX
 8
MESH_230_F0
 10
-379.4819
 20
-439.274
 30
-237
 70
192
 0
VERTEX
 8
MESH_230_F0
 10
-376.5134
 20
-439.8178
 30
-237
 70
192
 0
VERTEX
 8
MESH_230_F0
 10
-373.501
 20
-440
 30
-237
 70
192
 0
VERTEX
 8
MESH_230_F0
 10
-373.501
 20
-440
 30
-7
 70
192
 0
VERTEX
 8
MESH_230_F0
 10
-376.5134
 20
-439.8178
 30
-7
 70
192
 0
VERTEX
 8
MESH_230_F0
 10
-379.4819
 20
-439.274
 30
-7
 70
192
 0
VERTEX
 8
MESH_230_F0
 10
-382.3633
 20
-438.3764
 30
-7
 70
192
 0
VERTEX
 8
MESH_230_F0
 10
-385.1155
 20
-437.1381
 30
-7
 70
192
 0
VERTEX
 8
MESH_230_F0
 10
-387.6984
 20
-435.5773
 30
-7
 70
192
 0
VERTEX
 8
MESH_230_F0
 10
-390.0744
 20
-433.7166
 30
-7
 70
192
 0
VERTEX
 8
MESH_230_F0
 10
-392.2089
 20
-431.583
 30
-7
 70
192
 0
VERTEX
 8
MESH_230_F0
 10
-394.0708
 20
-429.2079
 30
-7
 70
192
 0
VERTEX
 8
MESH_230_F0
 10
-395.6328
 20
-426.6256
 30
-7
 70
192
 0
VERTEX
 8
MESH_230_F0
 10
-396.8723
 20
-423.874
 30
-7
 70
192
 0
VERTEX
 8
MESH_230_F0
 10
-397.7712
 20
-420.9931
 30
-7
 70
192
 0
VERTEX
 8
MESH_230_F0
 10
-398.3164
 20
-418.0248
 30
-7
 70
192
 0
VERTEX
 8
MESH_230_F0
 10
-398.5
 20
-415.0125
 30
-7
 70
192
 0
VERTEX
 8
MESH_230_F0
 10
-398.3192
 20
-412
 30
-7
 70
192
 0
VERTEX
 8
MESH_230_F0
 10
0
 20
0
 30
0
 70
128
 71
29
 72
1
 73
30
 74
30
 0
VERTEX
 8
MESH_230_F0
 10
0
 20
0
 30
0
 70
128
 71
2
 72
1
 73
29
 74
29
 0
VERTEX
 8
MESH_230_F0
 10
0
 20
0
 30
0
 70
128
 71
3
 72
2
 73
28
 74
28
 0
VERTEX
 8
MESH_230_F0
 10
0
 20
0
 30
0
 70
128
 71
4
 72
3
 73
27
 74
27
 0
VERTEX
 8
MESH_230_F0
 10
0
 20
0
 30
0
 70
128
 71
5
 72
4
 73
26
 74
26
 0
VERTEX
 8
MESH_230_F0
 10
0
 20
0
 30
0
 70
128
 71
6
 72
5
 73
25
 74
25
 0
VERTEX
 8
MESH_230_F0
 10
0
 20
0
 30
0
 70
128
 71
7
 72
6
 73
24
 74
24
 0
VERTEX
 8
MESH_230_F0
 10
0
 20
0
 30
0
 70
128
 71
8
 72
7
 73
23
 74
23
 0
VERTEX
 8
MESH_230_F0
 10
0
 20
0
 30
0
 70
128
 71
9
 72
8
 73
22
 74
22
 0
VERTEX
 8
MESH_230_F0
 10
0
 20
0
 30
0
 70
128
 71
10
 72
9
 73
21
 74
21
 0
VERTEX
 8
MESH_230_F0
 10
0
 20
0
 30
0
 70
128
 71
11
 72
10
 73
20
 74
20
 0
VERTEX
 8
MESH_230_F0
 10
0
 20
0
 30
0
 70
128
 71
12
 72
11
 73
19
 74
19
 0
VERTEX
 8
MESH_230_F0
 10
0
 20
0
 30
0
 70
128
 71
13
 72
12
 73
18
 74
18
 0
VERTEX
 8
MESH_230_F0
 10
0
 20
0
 30
0
 70
128
 71
14
 72
13
 73
17
 74
17
 0
VERTEX
 8
MESH_230_F0
 10
0
 20
0
 30
0
 70
128
 71
15
 72
14
 73
16
 74
16
 0
VERTEX
 8
MESH_230_F0
 10
0
 20
0
 30
0
 70
128
 71
14
 72
17
 73
16
 74
16
 0
VERTEX
 8
MESH_230_F0
 10
0
 20
0
 30
0
 70
128
 71
13
 72
18
 73
17
 74
17
 0
VERTEX
 8
MESH_230_F0
 10
0
 20
0
 30
0
 70
128
 71
12
 72
19
 73
18
 74
18
 0
VERTEX
 8
MESH_230_F0
 10
0
 20
0
 30
0
 70
128
 71
11
 72
20
 73
19
 74
19
 0
VERTEX
 8
MESH_230_F0
 10
0
 20
0
 30
0
 70
128
 71
10
 72
21
 73
20
 74
20
 0
VERTEX
 8
MESH_230_F0
 10
0
 20
0
 30
0
 70
128
 71
9
 72
22
 73
21
 74
21
 0
VERTEX
 8
MESH_230_F0
 10
0
 20
0
 30
0
 70
128
 71
8
 72
23
 73
22
 74
22
 0
VERTEX
 8
MESH_230_F0
 10
0
 20
0
 30
0
 70
128
 71
7
 72
24
 73
23
 74
23
 0
VERTEX
 8
MESH_230_F0
 10
0
 20
0
 30
0
 70
128
 71
6
 72
25
 73
24
 74
24
 0
VERTEX
 8
MESH_230_F0
 10
0
 20
0
 30
0
 70
128
 71
5
 72
26
 73
25
 74
25
 0
VERTEX
 8
MESH_230_F0
 10
0
 20
0
 30
0
 70
128
 71
4
 72
27
 73
26
 74
26
 0
VERTEX
 8
MESH_230_F0
 10
0
 20
0
 30
0
 70
128
 71
3
 72
28
 73
27
 74
27
 0
VERTEX
 8
MESH_230_F0
 10
0
 20
0
 30
0
 70
128
 71
2
 72
29
 73
28
 74
28
 0
SEQEND
 0
POLYLINE
 8
MESH_229_F0
 66
1
 10
0.0
 20
0.0
 30
0.0
 70
64
 71
4
 72
2
 0
VERTEX
 8
MESH_229_F0
 10
382
 20
-411.5
 30
-474.5
 70
192
 0
VERTEX
 8
MESH_229_F0
 10
-382
 20
-411.5
 30
-474.5
 70
192
 0
VERTEX
 8
MESH_229_F0
 10
-382
 20
0
 30
-474.5
 70
192
 0
VERTEX
 8
MESH_229_F0
 10
382
 20
0
 30
-474.5
 70
192
 0
VERTEX
 8
MESH_229_F0
 10
0
 20
0
 30
0
 70
128
 71
1
 72
3
 73
2
 74
2
 0
VERTEX
 8
MESH_229_F0
 10
0
 20
0
 30
0
 70
128
 71
4
 72
3
 73
1
 74
1
 0
SEQEND
 0
POLYLINE
 8
MESH_228_F0
 66
1
 10
0.0
 20
0.0
 30
0.0
 70
64
 71
4
 72
2
 0
VERTEX
 8
MESH_228_F0
 10
382
 20
0
 30
-475
 70
192
 0
VERTEX
 8
MESH_228_F0
 10
400
 20
0
 30
-475
 70
192
 0
VERTEX
 8
MESH_228_F0
 10
400
 20
-412
 30
-475
 70
192
 0
VERTEX
 8
MESH_228_F0
 10
382
 20
-412
 30
-475
 70
192
 0
VERTEX
 8
MESH_228_F0
 10
0
 20
0
 30
0
 70
128
 71
1
 72
3
 73
2
 74
2
 0
VERTEX
 8
MESH_228_F0
 10
0
 20
0
 30
0
 70
128
 71
4
 72
3
 73
1
 74
1
 0
SEQEND
 0
POLYLINE
 8
MESH_227_F0
 66
1
 10
0.0
 20
0.0
 30
0.0
 70
64
 71
4
 72
2
 0
VERTEX
 8
MESH_227_F0
 10
400
 20
0
 30
0
 70
192
 0
VERTEX
 8
MESH_227_F0
 10
400
 20
-412
 30
0
 70
192
 0
VERTEX
 8
MESH_227_F0
 10
400
 20
-412
 30
-475
 70
192
 0
VERTEX
 8
MESH_227_F0
 10
400
 20
0
 30
-475
 70
192
 0
VERTEX
 8
MESH_227_F0
 10
0
 20
0
 30
0
 70
128
 71
4
 72
2
 73
1
 74
1
 0
VERTEX
 8
MESH_227_F0
 10
0
 20
0
 30
0
 70
128
 71
3
 72
2
 73
4
 74
4
 0
SEQEND
 0
POLYLINE
 8
MESH_226_F0
 66
1
 10
0.0
 20
0.0
 30
0.0
 70
64
 71
4
 72
2
 0
VERTEX
 8
MESH_226_F0
 10
-400
 20
0
 30
-475
 70
192
 0
VERTEX
 8
MESH_226_F0
 10
-400
 20
-412
 30
-475
 70
192
 0
VERTEX
 8
MESH_226_F0
 10
-400
 20
-412
 30
0
 70
192
 0
VERTEX
 8
MESH_226_F0
 10
-400
 20
0
 30
0
 70
192
 0
VERTEX
 8
MESH_226_F0
 10
0
 20
0
 30
0
 70
128
 71
4
 72
2
 73
1
 74
1
 0
VERTEX
 8
MESH_226_F0
 10
0
 20
0
 30
0
 70
128
 71
3
 72
2
 73
4
 74
4
 0
SEQEND
 0
POLYLINE
 8
MESH_225_F0
 66
1
 10
0.0
 20
0.0
 30
0.0
 70
64
 71
4
 72
2
 0
VERTEX
 8
MESH_225_F0
 10
282
 20
-88.5
 30
-144.5
 70
192
 0
VERTEX
 8
MESH_225_F0
 10
282
 20
-70.5
 30
-144.5
 70
192
 0
VERTEX
 8
MESH_225_F0
 10
282
 20
-70.5
 30
-284.5
 70
192
 0
VERTEX
 8
MESH_225_F0
 10
282
 20
-88.5
 30
-284.5
 70
192
 0
VERTEX
 8
MESH_225_F0
 10
0
 20
0
 30
0
 70
128
 71
4
 72
2
 73
1
 74
1
 0
VERTEX
 8
MESH_225_F0
 10
0
 20
0
 30
0
 70
128
 71
3
 72
2
 73
4
 74
4
 0
SEQEND
 0
POLYLINE
 8
MESH_224_F0
 66
1
 10
0.0
 20
0.0
 30
0.0
 70
64
 71
33
 72
31
 0
VERTEX
 8
MESH_224_F0
 10
282
 20
-88.5
 30
-284.5
 70
192
 0
VERTEX
 8
MESH_224_F0
 10
282
 20
-70.5
 30
-284.5
 70
192
 0
VERTEX
 8
MESH_224_F0
 10
281.6143
 20
-70.5
 30
-293.2577
 70
192
 0
VERTEX
 8
MESH_224_F0
 10
280.4758
 20
-70.5
 30
-301.893
 70
192
 0
VERTEX
 8
MESH_224_F0
 10
278.5849
 20
-70.5
 30
-310.4056
 70
192
 0
VERTEX
 8
MESH_224_F0
 10
275.9569
 20
-70.5
 30
-318.7359
 70
192
 0
VERTEX
 8
MESH_224_F0
 10
272.6166
 20
-70.5
 30
-326.7929
 70
192
 0
VERTEX
 8
MESH_224_F0
 10
268.5883
 20
-70.5
 30
-334.5245
 70
192
 0
VERTEX
 8
MESH_224_F0
 10
263.9037
 20
-70.5
 30
-341.873
 70
192
 0
VERTEX
 8
MESH_224_F0
 10
258.5974
 20
-70.5
 30
-348.787
 70
192
 0
VERTEX
 8
MESH_224_F0
 10
252.7102
 20
-70.5
 30
-355.2109
 70
192
 0
VERTEX
 8
MESH_224_F0
 10
246.2861
 20
-70.5
 30
-361.0981
 70
192
 0
VERTEX
 8
MESH_224_F0
 10
239.3721
 20
-70.5
 30
-366.4043
 70
192
 0
VERTEX
 8
MESH_224_F0
 10
232.0237
 20
-70.5
 30
-371.0888
 70
192
 0
VERTEX
 8
MESH_224_F0
 10
224.2921
 20
-70.5
 30
-375.117
 70
192
 0
VERTEX
 8
MESH_224_F0
 10
216.2352
 20
-70.5
 30
-378.4571
 70
192
 0
VERTEX
 8
MESH_224_F0
 10
207.905
 20
-70.5
 30
-381.0851
 70
192
 0
VERTEX
 8
MESH_224_F0
 10
199.3925
 20
-70.5
 30
-382.9759
 70
192
 0
VERTEX
 8
MESH_224_F0
 10
190.7575
 20
-70.5
 30
-384.1143
 70
192
 0
VERTEX
 8
MESH_224_F0
 10
182
 20
-70.5
 30
-384.5
 70
192
 0
VERTEX
 8
MESH_224_F0
 10
182
 20
-88.5
 30
-384.5
 70
192
 0
VERTEX
 8
MESH_224_F0
 10
194.0537
 20
-88.5
 30
-383.7709
 70
192
 0
VERTEX
 8
MESH_224_F0
 10
205.9316
 20
-88.5
 30
-381.5942
 70
192
 0
VERTEX
 8
MESH_224_F0
 10
217.4605
 20
-88.5
 30
-378.0016
 70
192
 0
VERTEX
 8
MESH_224_F0
 10
228.4723
 20
-88.5
 30
-373.0456
 70
192
 0
VERTEX
 8
MESH_224_F0
 10
238.8065
 20
-88.5
 30
-366.7984
 70
192
 0
VERTEX
 8
MESH_224_F0
 10
248.3123
 20
-88.5
 30
-359.3511
 70
192
 0
VERTEX
 8
MESH_224_F0
 10
256.8511
 20
-88.5
 30
-350.8123
 70
192
 0
VERTEX
 8
MESH_224_F0
 10
264.2984
 20
-88.5
 30
-341.3065
 70
192
 0
VERTEX
 8
MESH_224_F0
 10
270.5456
 20
-88.5
 30
-330.9723
 70
192
 0
VERTEX
 8
MESH_224_F0
 10
275.5016
 20
-88.5
 30
-319.9605
 70
192
 0
VERTEX
 8
MESH_224_F0
 10
279.0942
 20
-88.5
 30
-308.4315
 70
192
 0
VERTEX
 8
MESH_224_F0
 10
281.2709
 20
-88.5
 30
-296.5537
 70
192
 0
VERTEX
 8
MESH_224_F0
 10
0
 20
0
 30
0
 70
128
 71
1
 72
3
 73
2
 74
2
 0
VERTEX
 8
MESH_224_F0
 10
0
 20
0
 30
0
 70
128
 71
33
 72
3
 73
1
 74
1
 0
VERTEX
 8
MESH_224_F0
 10
0
 20
0
 30
0
 70
128
 71
4
 72
3
 73
33
 74
33
 0
VERTEX
 8
MESH_224_F0
 10
0
 20
0
 30
0
 70
128
 71
5
 72
4
 73
32
 74
32
 0
VERTEX
 8
MESH_224_F0
 10
0
 20
0
 30
0
 70
128
 71
5
 72
32
 73
6
 74
6
 0
VERTEX
 8
MESH_224_F0
 10
0
 20
0
 30
0
 70
128
 71
32
 72
31
 73
6
 74
6
 0
VERTEX
 8
MESH_224_F0
 10
0
 20
0
 30
0
 70
128
 71
31
 72
7
 73
6
 74
6
 0
VERTEX
 8
MESH_224_F0
 10
0
 20
0
 30
0
 70
128
 71
30
 72
7
 73
31
 74
31
 0
VERTEX
 8
MESH_224_F0
 10
0
 20
0
 30
0
 70
128
 71
8
 72
7
 73
30
 74
30
 0
VERTEX
 8
MESH_224_F0
 10
0
 20
0
 30
0
 70
128
 71
9
 72
8
 73
29
 74
29
 0
VERTEX
 8
MESH_224_F0
 10
0
 20
0
 30
0
 70
128
 71
9
 72
29
 73
10
 74
10
 0
VERTEX
 8
MESH_224_F0
 10
0
 20
0
 30
0
 70
128
 71
29
 72
28
 73
10
 74
10
 0
VERTEX
 8
MESH_224_F0
 10
0
 20
0
 30
0
 70
128
 71
28
 72
11
 73
10
 74
10
 0
VERTEX
 8
MESH_224_F0
 10
0
 20
0
 30
0
 70
128
 71
27
 72
11
 73
28
 74
28
 0
VERTEX
 8
MESH_224_F0
 10
0
 20
0
 30
0
 70
128
 71
12
 72
11
 73
27
 74
27
 0
VERTEX
 8
MESH_224_F0
 10
0
 20
0
 30
0
 70
128
 71
13
 72
12
 73
26
 74
26
 0
VERTEX
 8
MESH_224_F0
 10
0
 20
0
 30
0
 70
128
 71
13
 72
26
 73
14
 74
14
 0
VERTEX
 8
MESH_224_F0
 10
0
 20
0
 30
0
 70
128
 71
26
 72
25
 73
14
 74
14
 0
VERTEX
 8
MESH_224_F0
 10
0
 20
0
 30
0
 70
128
 71
25
 72
15
 73
14
 74
14
 0
VERTEX
 8
MESH_224_F0
 10
0
 20
0
 30
0
 70
128
 71
24
 72
15
 73
25
 74
25
 0
VERTEX
 8
MESH_224_F0
 10
0
 20
0
 30
0
 70
128
 71
16
 72
15
 73
24
 74
24
 0
VERTEX
 8
MESH_224_F0
 10
0
 20
0
 30
0
 70
128
 71
16
 72
24
 73
17
 74
17
 0
VERTEX
 8
MESH_224_F0
 10
0
 20
0
 30
0
 70
128
 71
24
 72
23
 73
17
 74
17
 0
VERTEX
 8
MESH_224_F0
 10
0
 20
0
 30
0
 70
128
 71
23
 72
18
 73
17
 74
17
 0
VERTEX
 8
MESH_224_F0
 10
0
 20
0
 30
0
 70
128
 71
22
 72
18
 73
23
 74
23
 0
VERTEX
 8
MESH_224_F0
 10
0
 20
0
 30
0
 70
128
 71
19
 72
18
 73
22
 74
22
 0
VERTEX
 8
MESH_224_F0
 10
0
 20
0
 30
0
 70
128
 71
20
 72
19
 73
21
 74
21
 0
VERTEX
 8
MESH_224_F0
 10
0
 20
0
 30
0
 70
128
 71
19
 72
22
 73
21
 74
21
 0
VERTEX
 8
MESH_224_F0
 10
0
 20
0
 30
0
 70
128
 71
12
 72
27
 73
26
 74
26
 0
VERTEX
 8
MESH_224_F0
 10
0
 20
0
 30
0
 70
128
 71
8
 72
30
 73
29
 74
29
 0
VERTEX
 8
MESH_224_F0
 10
0
 20
0
 30
0
 70
128
 71
4
 72
33
 73
32
 74
32
 0
SEQEND
 0
POLYLINE
 8
MESH_223_F0
 66
1
 10
0.0
 20
0.0
 30
0.0
 70
64
 71
4
 72
2
 0
VERTEX
 8
MESH_223_F0
 10
182
 20
-88.5
 30
-384.5
 70
192
 0
VERTEX
 8
MESH_223_F0
 10
182
 20
-70.5
 30
-384.5
 70
192
 0
VERTEX
 8
MESH_223_F0
 10
-182
 20
-70.5
 30
-384.5
 70
192
 0
VERTEX
 8
MESH_223_F0
 10
-182
 20
-88.5
 30
-384.5
 70
192
 0
VERTEX
 8
MESH_223_F0
 10
0
 20
0
 30
0
 70
128
 71
1
 72
3
 73
2
 74
2
 0
VERTEX
 8
MESH_223_F0
 10
0
 20
0
 30
0
 70
128
 71
4
 72
3
 73
1
 74
1
 0
SEQEND
 0
POLYLINE
 8
MESH_222_F0
 66
1
 10
0.0
 20
0.0
 30
0.0
 70
64
 71
33
 72
31
 0
VERTEX
 8
MESH_222_F0
 10
-182
 20
-88.5
 30
-384.5
 70
192
 0
VERTEX
 8
MESH_222_F0
 10
-182
 20
-70.5
 30
-384.5
 70
192
 0
VERTEX
 8
MESH_222_F0
 10
-190.7577
 20
-70.5
 30
-384.1143
 70
192
 0
VERTEX
 8
MESH_222_F0
 10
-199.393
 20
-70.5
 30
-382.9758
 70
192
 0
VERTEX
 8
MESH_222_F0
 10
-207.9056
 20
-70.5
 30
-381.0849
 70
192
 0
VERTEX
 8
MESH_222_F0
 10
-216.2359
 20
-70.5
 30
-378.4568
 70
192
 0
VERTEX
 8
MESH_222_F0
 10
-224.2929
 20
-70.5
 30
-375.1166
 70
192
 0
VERTEX
 8
MESH_222_F0
 10
-232.0245
 20
-70.5
 30
-371.0883
 70
192
 0
VERTEX
 8
MESH_222_F0
 10
-239.373
 20
-70.5
 30
-366.4037
 70
192
 0
VERTEX
 8
MESH_222_F0
 10
-246.287
 20
-70.5
 30
-361.0974
 70
192
 0
VERTEX
 8
MESH_222_F0
 10
-252.711
 20
-70.5
 30
-355.2101
 70
192
 0
VERTEX
 8
MESH_222_F0
 10
-258.5981
 20
-70.5
 30
-348.7861
 70
192
 0
VERTEX
 8
MESH_222_F0
 10
-263.9043
 20
-70.5
 30
-341.8721
 70
192
 0
VERTEX
 8
MESH_222_F0
 10
-268.5888
 20
-70.5
 30
-334.5237
 70
192
 0
VERTEX
 8
MESH_222_F0
 10
-272.617
 20
-70.5
 30
-326.7921
 70
192
 0
VERTEX
 8
MESH_222_F0
 10
-275.9571
 20
-70.5
 30
-318.7351
 70
192
 0
VERTEX
 8
MESH_222_F0
 10
-278.5851
 20
-70.5
 30
-310.405
 70
192
 0
VERTEX
 8
MESH_222_F0
 10
-280.4759
 20
-70.5
 30
-301.8925
 70
192
 0
VERTEX
 8
MESH_222_F0
 10
-281.6143
 20
-70.5
 30
-293.2575
 70
192
 0
VERTEX
 8
MESH_222_F0
 10
-282
 20
-70.5
 30
-284.5
 70
192
 0
VERTEX
 8
MESH_222_F0
 10
-282
 20
-88.5
 30
-284.5
 70
192
 0
VERTEX
 8
MESH_222_F0
 10
-281.2709
 20
-88.5
 30
-296.5537
 70
192
 0
VERTEX
 8
MESH_222_F0
 10
-279.0942
 20
-88.5
 30
-308.4315
 70
192
 0
VERTEX
 8
MESH_222_F0
 10
-275.5016
 20
-88.5
 30
-319.9605
 70
192
 0
VERTEX
 8
MESH_222_F0
 10
-270.5456
 20
-88.5
 30
-330.9723
 70
192
 0
VERTEX
 8
MESH_222_F0
 10
-264.2984
 20
-88.5
 30
-341.3065
 70
192
 0
VERTEX
 8
MESH_222_F0
 10
-256.8511
 20
-88.5
 30
-350.8123
 70
192
 0
VERTEX
 8
MESH_222_F0
 10
-248.3123
 20
-88.5
 30
-359.351
 70
192
 0
VERTEX
 8
MESH_222_F0
 10
-238.8065
 20
-88.5
 30
-366.7984
 70
192
 0
VERTEX
 8
MESH_222_F0
 10
-228.4723
 20
-88.5
 30
-373.0456
 70
192
 0
VERTEX
 8
MESH_222_F0
 10
-217.4605
 20
-88.5
 30
-378.0016
 70
192
 0
VERTEX
 8
MESH_222_F0
 10
-205.9316
 20
-88.5
 30
-381.5942
 70
192
 0
VERTEX
 8
MESH_222_F0
 10
-194.0537
 20
-88.5
 30
-383.7709
 70
192
 0
VERTEX
 8
MESH_222_F0
 10
0
 20
0
 30
0
 70
128
 71
1
 72
3
 73
2
 74
2
 0
VERTEX
 8
MESH_222_F0
 10
0
 20
0
 30
0
 70
128
 71
33
 72
3
 73
1
 74
1
 0
VERTEX
 8
MESH_222_F0
 10
0
 20
0
 30
0
 70
128
 71
4
 72
3
 73
33
 74
33
 0
VERTEX
 8
MESH_222_F0
 10
0
 20
0
 30
0
 70
128
 71
5
 72
4
 73
32
 74
32
 0
VERTEX
 8
MESH_222_F0
 10
0
 20
0
 30
0
 70
128
 71
5
 72
32
 73
6
 74
6
 0
VERTEX
 8
MESH_222_F0
 10
0
 20
0
 30
0
 70
128
 71
32
 72
31
 73
6
 74
6
 0
VERTEX
 8
MESH_222_F0
 10
0
 20
0
 30
0
 70
128
 71
31
 72
7
 73
6
 74
6
 0
VERTEX
 8
MESH_222_F0
 10
0
 20
0
 30
0
 70
128
 71
30
 72
7
 73
31
 74
31
 0
VERTEX
 8
MESH_222_F0
 10
0
 20
0
 30
0
 70
128
 71
8
 72
7
 73
30
 74
30
 0
VERTEX
 8
MESH_222_F0
 10
0
 20
0
 30
0
 70
128
 71
9
 72
8
 73
29
 74
29
 0
VERTEX
 8
MESH_222_F0
 10
0
 20
0
 30
0
 70
128
 71
9
 72
29
 73
10
 74
10
 0
VERTEX
 8
MESH_222_F0
 10
0
 20
0
 30
0
 70
128
 71
29
 72
28
 73
10
 74
10
 0
VERTEX
 8
MESH_222_F0
 10
0
 20
0
 30
0
 70
128
 71
28
 72
11
 73
10
 74
10
 0
VERTEX
 8
MESH_222_F0
 10
0
 20
0
 30
0
 70
128
 71
27
 72
11
 73
28
 74
28
 0
VERTEX
 8
MESH_222_F0
 10
0
 20
0
 30
0
 70
128
 71
12
 72
11
 73
27
 74
27
 0
VERTEX
 8
MESH_222_F0
 10
0
 20
0
 30
0
 70
128
 71
13
 72
12
 73
26
 74
26
 0
VERTEX
 8
MESH_222_F0
 10
0
 20
0
 30
0
 70
128
 71
13
 72
26
 73
14
 74
14
 0
VERTEX
 8
MESH_222_F0
 10
0
 20
0
 30
0
 70
128
 71
26
 72
25
 73
14
 74
14
 0
VERTEX
 8
MESH_222_F0
 10
0
 20
0
 30
0
 70
128
 71
25
 72
15
 73
14
 74
14
 0
VERTEX
 8
MESH_222_F0
 10
0
 20
0
 30
0
 70
128
 71
24
 72
15
 73
25
 74
25
 0
VERTEX
 8
MESH_222_F0
 10
0
 20
0
 30
0
 70
128
 71
16
 72
15
 73
24
 74
24
 0
VERTEX
 8
MESH_222_F0
 10
0
 20
0
 30
0
 70
128
 71
16
 72
24
 73
17
 74
17
 0
VERTEX
 8
MESH_222_F0
 10
0
 20
0
 30
0
 70
128
 71
24
 72
23
 73
17
 74
17
 0
VERTEX
 8
MESH_222_F0
 10
0
 20
0
 30
0
 70
128
 71
23
 72
18
 73
17
 74
17
 0
VERTEX
 8
MESH_222_F0
 10
0
 20
0
 30
0
 70
128
 71
22
 72
18
 73
23
 74
23
 0
VERTEX
 8
MESH_222_F0
 10
0
 20
0
 30
0
 70
128
 71
19
 72
18
 73
22
 74
22
 0
VERTEX
 8
MESH_222_F0
 10
0
 20
0
 30
0
 70
128
 71
20
 72
19
 73
21
 74
21
 0
VERTEX
 8
MESH_222_F0
 10
0
 20
0
 30
0
 70
128
 71
19
 72
22
 73
21
 74
21
 0
VERTEX
 8
MESH_222_F0
 10
0
 20
0
 30
0
 70
128
 71
12
 72
27
 73
26
 74
26
 0
VERTEX
 8
MESH_222_F0
 10
0
 20
0
 30
0
 70
128
 71
8
 72
30
 73
29
 74
29
 0
VERTEX
 8
MESH_222_F0
 10
0
 20
0
 30
0
 70
128
 71
4
 72
33
 73
32
 74
32
 0
SEQEND
 0
POLYLINE
 8
MESH_221_F0
 66
1
 10
0.0
 20
0.0
 30
0.0
 70
64
 71
4
 72
2
 0
VERTEX
 8
MESH_221_F0
 10
-282
 20
-88.5
 30
-284.5
 70
192
 0
VERTEX
 8
MESH_221_F0
 10
-282
 20
-70.5
 30
-284.5
 70
192
 0
VERTEX
 8
MESH_221_F0
 10
-282
 20
-70.5
 30
-144.5
 70
192
 0
VERTEX
 8
MESH_221_F0
 10
-282
 20
-88.5
 30
-144.5
 70
192
 0
VERTEX
 8
MESH_221_F0
 10
0
 20
0
 30
0
 70
128
 71
4
 72
2
 73
1
 74
1
 0
VERTEX
 8
MESH_221_F0
 10
0
 20
0
 30
0
 70
128
 71
3
 72
2
 73
4
 74
4
 0
SEQEND
 0
POLYLINE
 8
MESH_220_F0
 66
1
 10
0.0
 20
0.0
 30
0.0
 70
64
 71
4
 72
2
 0
VERTEX
 8
MESH_220_F0
 10
-382
 20
-88.5
 30
-144.5
 70
192
 0
VERTEX
 8
MESH_220_F0
 10
-282
 20
-88.5
 30
-144.5
 70
192
 0
VERTEX
 8
MESH_220_F0
 10
-282
 20
-70.5
 30
-144.5
 70
192
 0
VERTEX
 8
MESH_220_F0
 10
-382
 20
-70.5
 30
-144.5
 70
192
 0
VERTEX
 8
MESH_220_F0
 10
0
 20
0
 30
0
 70
128
 71
1
 72
3
 73
2
 74
2
 0
VERTEX
 8
MESH_220_F0
 10
0
 20
0
 30
0
 70
128
 71
4
 72
3
 73
1
 74
1
 0
SEQEND
 0
POLYLINE
 8
MESH_219_F0
 66
1
 10
0.0
 20
0.0
 30
0.0
 70
64
 71
6
 72
4
 0
VERTEX
 8
MESH_219_F0
 10
-382
 20
-88.5
 30
-144.5
 70
192
 0
VERTEX
 8
MESH_219_F0
 10
-382
 20
-70.5
 30
-144.5
 70
192
 0
VERTEX
 8
MESH_219_F0
 10
-382
 20
-70.5
 30
-456.5
 70
192
 0
VERTEX
 8
MESH_219_F0
 10
-382
 20
0
 30
-456.5
 70
192
 0
VERTEX
 8
MESH_219_F0
 10
-382
 20
0
 30
0
 70
192
 0
VERTEX
 8
MESH_219_F0
 10
-382
 20
-88.5
 30
0
 70
192
 0
VERTEX
 8
MESH_219_F0
 10
0
 20
0
 30
0
 70
128
 71
6
 72
2
 73
1
 74
1
 0
VERTEX
 8
MESH_219_F0
 10
0
 20
0
 30
0
 70
128
 71
5
 72
2
 73
6
 74
6
 0
VERTEX
 8
MESH_219_F0
 10
0
 20
0
 30
0
 70
128
 71
4
 72
2
 73
5
 74
5
 0
VERTEX
 8
MESH_219_F0
 10
0
 20
0
 30
0
 70
128
 71
3
 72
2
 73
4
 74
4
 0
SEQEND
 0
POLYLINE
 8
MESH_218_F0
 66
1
 10
0.0
 20
0.0
 30
0.0
 70
64
 71
4
 72
2
 0
VERTEX
 8
MESH_218_F0
 10
382
 20
0
 30
-456.5
 70
192
 0
VERTEX
 8
MESH_218_F0
 10
-382
 20
0
 30
-456.5
 70
192
 0
VERTEX
 8
MESH_218_F0
 10
-382
 20
-70.5
 30
-456.5
 70
192
 0
VERTEX
 8
MESH_218_F0
 10
382
 20
-70.5
 30
-456.5
 70
192
 0
VERTEX
 8
MESH_218_F0
 10
0
 20
0
 30
0
 70
128
 71
1
 72
3
 73
2
 74
2
 0
VERTEX
 8
MESH_218_F0
 10
0
 20
0
 30
0
 70
128
 71
4
 72
3
 73
1
 74
1
 0
SEQEND
 0
POLYLINE
 8
MESH_217_F0
 66
1
 10
0.0
 20
0.0
 30
0.0
 70
64
 71
44
 72
42
 0
VERTEX
 8
MESH_217_F0
 10
382
 20
-70.5
 30
-456.5
 70
192
 0
VERTEX
 8
MESH_217_F0
 10
-382
 20
-70.5
 30
-456.5
 70
192
 0
VERTEX
 8
MESH_217_F0
 10
-382
 20
-70.5
 30
-144.5
 70
192
 0
VERTEX
 8
MESH_217_F0
 10
-282
 20
-70.5
 30
-144.5
 70
192
 0
VERTEX
 8
MESH_217_F0
 10
-282
 20
-70.5
 30
-284.5
 70
192
 0
VERTEX
 8
MESH_217_F0
 10
-281.6143
 20
-70.5
 30
-293.2575
 70
192
 0
VERTEX
 8
MESH_217_F0
 10
-280.4759
 20
-70.5
 30
-301.8925
 70
192
 0
VERTEX
 8
MESH_217_F0
 10
-278.5851
 20
-70.5
 30
-310.405
 70
192
 0
VERTEX
 8
MESH_217_F0
 10
-275.9571
 20
-70.5
 30
-318.7351
 70
192
 0
VERTEX
 8
MESH_217_F0
 10
-272.617
 20
-70.5
 30
-326.7921
 70
192
 0
VERTEX
 8
MESH_217_F0
 10
-268.5888
 20
-70.5
 30
-334.5237
 70
192
 0
VERTEX
 8
MESH_217_F0
 10
-263.9043
 20
-70.5
 30
-341.8721
 70
192
 0
VERTEX
 8
MESH_217_F0
 10
-258.5981
 20
-70.5
 30
-348.7861
 70
192
 0
VERTEX
 8
MESH_217_F0
 10
-252.711
 20
-70.5
 30
-355.2101
 70
192
 0
VERTEX
 8
MESH_217_F0
 10
-246.287
 20
-70.5
 30
-361.0974
 70
192
 0
VERTEX
 8
MESH_217_F0
 10
-239.373
 20
-70.5
 30
-366.4037
 70
192
 0
VERTEX
 8
MESH_217_F0
 10
-232.0245
 20
-70.5
 30
-371.0883
 70
192
 0
VERTEX
 8
MESH_217_F0
 10
-224.2929
 20
-70.5
 30
-375.1166
 70
192
 0
VERTEX
 8
MESH_217_F0
 10
-216.2359
 20
-70.5
 30
-378.4568
 70
192
 0
VERTEX
 8
MESH_217_F0
 10
-207.9056
 20
-70.5
 30
-381.0849
 70
192
 0
VERTEX
 8
MESH_217_F0
 10
-199.393
 20
-70.5
 30
-382.9758
 70
192
 0
VERTEX
 8
MESH_217_F0
 10
-190.7577
 20
-70.5
 30
-384.1143
 70
192
 0
VERTEX
 8
MESH_217_F0
 10
-182
 20
-70.5
 30
-384.5
 70
192
 0
VERTEX
 8
MESH_217_F0
 10
182
 20
-70.5
 30
-384.5
 70
192
 0
VERTEX
 8
MESH_217_F0
 10
190.7575
 20
-70.5
 30
-384.1143
 70
192
 0
VERTEX
 8
MESH_217_F0
 10
199.3925
 20
-70.5
 30
-382.9759
 70
192
 0
VERTEX
 8
MESH_217_F0
 10
207.905
 20
-70.5
 30
-381.0851
 70
192
 0
VERTEX
 8
MESH_217_F0
 10
216.2352
 20
-70.5
 30
-378.4571
 70
192
 0
VERTEX
 8
MESH_217_F0
 10
224.2921
 20
-70.5
 30
-375.117
 70
192
 0
VERTEX
 8
MESH_217_F0
 10
232.0237
 20
-70.5
 30
-371.0888
 70
192
 0
VERTEX
 8
MESH_217_F0
 10
239.3721
 20
-70.5
 30
-366.4043
 70
192
 0
VERTEX
 8
MESH_217_F0
 10
246.2861
 20
-70.5
 30
-361.0981
 70
192
 0
VERTEX
 8
MESH_217_F0
 10
252.7102
 20
-70.5
 30
-355.2109
 70
192
 0
VERTEX
 8
MESH_217_F0
 10
258.5974
 20
-70.5
 30
-348.787
 70
192
 0
VERTEX
 8
MESH_217_F0
 10
263.9037
 20
-70.5
 30
-341.873
 70
192
 0
VERTEX
 8
MESH_217_F0
 10
268.5883
 20
-70.5
 30
-334.5245
 70
192
 0
VERTEX
 8
MESH_217_F0
 10
272.6166
 20
-70.5
 30
-326.7929
 70
192
 0
VERTEX
 8
MESH_217_F0
 10
275.9569
 20
-70.5
 30
-318.7359
 70
192
 0
VERTEX
 8
MESH_217_F0
 10
278.5849
 20
-70.5
 30
-310.4056
 70
192
 0
VERTEX
 8
MESH_217_F0
 10
280.4758
 20
-70.5
 30
-301.893
 70
192
 0
VERTEX
 8
MESH_217_F0
 10
281.6143
 20
-70.5
 30
-293.2577
 70
192
 0
VERTEX
 8
MESH_217_F0
 10
282
 20
-70.5
 30
-284.5
 70
192
 0
VERTEX
 8
MESH_217_F0
 10
282
 20
-70.5
 30
-144.5
 70
192
 0
VERTEX
 8
MESH_217_F0
 10
382
 20
-70.5
 30
-144.5
 70
192
 0
VERTEX
 8
MESH_217_F0
 10
0
 20
0
 30
0
 70
128
 71
2
 72
23
 73
22
 74
22
 0
VERTEX
 8
MESH_217_F0
 10
0
 20
0
 30
0
 70
128
 71
20
 72
2
 73
21
 74
21
 0
VERTEX
 8
MESH_217_F0
 10
0
 20
0
 30
0
 70
128
 71
2
 72
22
 73
21
 74
21
 0
VERTEX
 8
MESH_217_F0
 10
0
 20
0
 30
0
 70
128
 71
3
 72
5
 73
4
 74
4
 0
VERTEX
 8
MESH_217_F0
 10
0
 20
0
 30
0
 70
128
 71
6
 72
5
 73
3
 74
3
 0
VERTEX
 8
MESH_217_F0
 10
0
 20
0
 30
0
 70
128
 71
7
 72
6
 73
2
 74
2
 0
VERTEX
 8
MESH_217_F0
 10
0
 20
0
 30
0
 70
128
 71
7
 72
2
 73
8
 74
8
 0
VERTEX
 8
MESH_217_F0
 10
0
 20
0
 30
0
 70
128
 71
2
 72
9
 73
8
 74
8
 0
VERTEX
 8
MESH_217_F0
 10
0
 20
0
 30
0
 70
128
 71
10
 72
9
 73
2
 74
2
 0
VERTEX
 8
MESH_217_F0
 10
0
 20
0
 30
0
 70
128
 71
10
 72
2
 73
11
 74
11
 0
VERTEX
 8
MESH_217_F0
 10
0
 20
0
 30
0
 70
128
 71
2
 72
12
 73
11
 74
11
 0
VERTEX
 8
MESH_217_F0
 10
0
 20
0
 30
0
 70
128
 71
13
 72
12
 73
2
 74
2
 0
VERTEX
 8
MESH_217_F0
 10
0
 20
0
 30
0
 70
128
 71
13
 72
2
 73
14
 74
14
 0
VERTEX
 8
MESH_217_F0
 10
0
 20
0
 30
0
 70
128
 71
2
 72
15
 73
14
 74
14
 0
VERTEX
 8
MESH_217_F0
 10
0
 20
0
 30
0
 70
128
 71
16
 72
15
 73
2
 74
2
 0
VERTEX
 8
MESH_217_F0
 10
0
 20
0
 30
0
 70
128
 71
16
 72
2
 73
17
 74
17
 0
VERTEX
 8
MESH_217_F0
 10
0
 20
0
 30
0
 70
128
 71
2
 72
18
 73
17
 74
17
 0
VERTEX
 8
MESH_217_F0
 10
0
 20
0
 30
0
 70
128
 71
19
 72
18
 73
2
 74
2
 0
VERTEX
 8
MESH_217_F0
 10
0
 20
0
 30
0
 70
128
 71
19
 72
2
 73
20
 74
20
 0
VERTEX
 8
MESH_217_F0
 10
0
 20
0
 30
0
 70
128
 71
2
 72
24
 73
23
 74
23
 0
VERTEX
 8
MESH_217_F0
 10
0
 20
0
 30
0
 70
128
 71
1
 72
24
 73
2
 74
2
 0
VERTEX
 8
MESH_217_F0
 10
0
 20
0
 30
0
 70
128
 71
25
 72
24
 73
1
 74
1
 0
VERTEX
 8
MESH_217_F0
 10
0
 20
0
 30
0
 70
128
 71
25
 72
1
 73
26
 74
26
 0
VERTEX
 8
MESH_217_F0
 10
0
 20
0
 30
0
 70
128
 71
1
 72
27
 73
26
 74
26
 0
VERTEX
 8
MESH_217_F0
 10
0
 20
0
 30
0
 70
128
 71
28
 72
27
 73
1
 74
1
 0
VERTEX
 8
MESH_217_F0
 10
0
 20
0
 30
0
 70
128
 71
28
 72
1
 73
29
 74
29
 0
VERTEX
 8
MESH_217_F0
 10
0
 20
0
 30
0
 70
128
 71
1
 72
30
 73
29
 74
29
 0
VERTEX
 8
MESH_217_F0
 10
0
 20
0
 30
0
 70
128
 71
31
 72
30
 73
1
 74
1
 0
VERTEX
 8
MESH_217_F0
 10
0
 20
0
 30
0
 70
128
 71
31
 72
1
 73
32
 74
32
 0
VERTEX
 8
MESH_217_F0
 10
0
 20
0
 30
0
 70
128
 71
1
 72
33
 73
32
 74
32
 0
VERTEX
 8
MESH_217_F0
 10
0
 20
0
 30
0
 70
128
 71
34
 72
33
 73
1
 74
1
 0
VERTEX
 8
MESH_217_F0
 10
0
 20
0
 30
0
 70
128
 71
34
 72
1
 73
35
 74
35
 0
VERTEX
 8
MESH_217_F0
 10
0
 20
0
 30
0
 70
128
 71
1
 72
36
 73
35
 74
35
 0
VERTEX
 8
MESH_217_F0
 10
0
 20
0
 30
0
 70
128
 71
37
 72
36
 73
1
 74
1
 0
VERTEX
 8
MESH_217_F0
 10
0
 20
0
 30
0
 70
128
 71
37
 72
1
 73
38
 74
38
 0
VERTEX
 8
MESH_217_F0
 10
0
 20
0
 30
0
 70
128
 71
1
 72
39
 73
38
 74
38
 0
VERTEX
 8
MESH_217_F0
 10
0
 20
0
 30
0
 70
128
 71
40
 72
39
 73
1
 74
1
 0
VERTEX
 8
MESH_217_F0
 10
0
 20
0
 30
0
 70
128
 71
40
 72
1
 73
41
 74
41
 0
VERTEX
 8
MESH_217_F0
 10
0
 20
0
 30
0
 70
128
 71
1
 72
44
 73
41
 74
41
 0
VERTEX
 8
MESH_217_F0
 10
0
 20
0
 30
0
 70
128
 71
44
 72
42
 73
41
 74
41
 0
VERTEX
 8
MESH_217_F0
 10
0
 20
0
 30
0
 70
128
 71
43
 72
42
 73
44
 74
44
 0
VERTEX
 8
MESH_217_F0
 10
0
 20
0
 30
0
 70
128
 71
3
 72
2
 73
6
 74
6
 0
SEQEND
 0
POLYLINE
 8
MESH_216_F0
 66
1
 10
0.0
 20
0.0
 30
0.0
 70
64
 71
4
 72
2
 0
VERTEX
 8
MESH_216_F0
 10
382
 20
-70.5
 30
-144.5
 70
192
 0
VERTEX
 8
MESH_216_F0
 10
282
 20
-70.5
 30
-144.5
 70
192
 0
VERTEX
 8
MESH_216_F0
 10
282
 20
-88.5
 30
-144.5
 70
192
 0
VERTEX
 8
MESH_216_F0
 10
382
 20
-88.5
 30
-144.5
 70
192
 0
VERTEX
 8
MESH_216_F0
 10
0
 20
0
 30
0
 70
128
 71
1
 72
3
 73
2
 74
2
 0
VERTEX
 8
MESH_216_F0
 10
0
 20
0
 30
0
 70
128
 71
4
 72
3
 73
1
 74
1
 0
SEQEND
 0
POLYLINE
 8
MESH_215_F0
 66
1
 10
0.0
 20
0.0
 30
0.0
 70
64
 71
34
 72
32
 0
VERTEX
 8
MESH_215_F0
 10
382
 20
-88.5
 30
-144.5
 70
192
 0
VERTEX
 8
MESH_215_F0
 10
282
 20
-88.5
 30
-144.5
 70
192
 0
VERTEX
 8
MESH_215_F0
 10
282
 20
-88.5
 30
-284.5
 70
192
 0
VERTEX
 8
MESH_215_F0
 10
281.2709
 20
-88.5
 30
-296.5537
 70
192
 0
VERTEX
 8
MESH_215_F0
 10
279.0942
 20
-88.5
 30
-308.4315
 70
192
 0
VERTEX
 8
MESH_215_F0
 10
275.5016
 20
-88.5
 30
-319.9605
 70
192
 0
VERTEX
 8
MESH_215_F0
 10
270.5456
 20
-88.5
 30
-330.9723
 70
192
 0
VERTEX
 8
MESH_215_F0
 10
264.2984
 20
-88.5
 30
-341.3065
 70
192
 0
VERTEX
 8
MESH_215_F0
 10
256.8511
 20
-88.5
 30
-350.8123
 70
192
 0
VERTEX
 8
MESH_215_F0
 10
248.3123
 20
-88.5
 30
-359.3511
 70
192
 0
VERTEX
 8
MESH_215_F0
 10
238.8065
 20
-88.5
 30
-366.7984
 70
192
 0
VERTEX
 8
MESH_215_F0
 10
228.4723
 20
-88.5
 30
-373.0456
 70
192
 0
VERTEX
 8
MESH_215_F0
 10
217.4605
 20
-88.5
 30
-378.0016
 70
192
 0
VERTEX
 8
MESH_215_F0
 10
205.9316
 20
-88.5
 30
-381.5942
 70
192
 0
VERTEX
 8
MESH_215_F0
 10
194.0537
 20
-88.5
 30
-383.7709
 70
192
 0
VERTEX
 8
MESH_215_F0
 10
182
 20
-88.5
 30
-384.5
 70
192
 0
VERTEX
 8
MESH_215_F0
 10
-182
 20
-88.5
 30
-384.5
 70
192
 0
VERTEX
 8
MESH_215_F0
 10
-194.0537
 20
-88.5
 30
-383.7709
 70
192
 0
VERTEX
 8
MESH_215_F0
 10
-205.9316
 20
-88.5
 30
-381.5942
 70
192
 0
VERTEX
 8
MESH_215_F0
 10
-217.4605
 20
-88.5
 30
-378.0016
 70
192
 0
VERTEX
 8
MESH_215_F0
 10
-228.4723
 20
-88.5
 30
-373.0456
 70
192
 0
VERTEX
 8
MESH_215_F0
 10
-238.8065
 20
-88.5
 30
-366.7984
 70
192
 0
VERTEX
 8
MESH_215_F0
 10
-248.3123
 20
-88.5
 30
-359.351
 70
192
 0
VERTEX
 8
MESH_215_F0
 10
-256.8511
 20
-88.5
 30
-350.8123
 70
192
 0
VERTEX
 8
MESH_215_F0
 10
-264.2984
 20
-88.5
 30
-341.3065
 70
192
 0
VERTEX
 8
MESH_215_F0
 10
-270.5456
 20
-88.5
 30
-330.9723
 70
192
 0
VERTEX
 8
MESH_215_F0
 10
-275.5016
 20
-88.5
 30
-319.9605
 70
192
 0
VERTEX
 8
MESH_215_F0
 10
-279.0942
 20
-88.5
 30
-308.4315
 70
192
 0
VERTEX
 8
MESH_215_F0
 10
-281.2709
 20
-88.5
 30
-296.5537
 70
192
 0
VERTEX
 8
MESH_215_F0
 10
-282
 20
-88.5
 30
-284.5
 70
192
 0
VERTEX
 8
MESH_215_F0
 10
-282
 20
-88.5
 30
-144.5
 70
192
 0
VERTEX
 8
MESH_215_F0
 10
-382
 20
-88.5
 30
-144.5
 70
192
 0
VERTEX
 8
MESH_215_F0
 10
-382
 20
-88.5
 30
0
 70
192
 0
VERTEX
 8
MESH_215_F0
 10
382
 20
-88.5
 30
0
 70
192
 0
VERTEX
 8
MESH_215_F0
 10
0
 20
0
 30
0
 70
128
 71
34
 72
2
 73
1
 74
1
 0
VERTEX
 8
MESH_215_F0
 10
0
 20
0
 30
0
 70
128
 71
33
 72
2
 73
34
 74
34
 0
VERTEX
 8
MESH_215_F0
 10
0
 20
0
 30
0
 70
128
 71
3
 72
2
 73
33
 74
33
 0
VERTEX
 8
MESH_215_F0
 10
0
 20
0
 30
0
 70
128
 71
4
 72
3
 73
16
 74
16
 0
VERTEX
 8
MESH_215_F0
 10
0
 20
0
 30
0
 70
128
 71
4
 72
16
 73
5
 74
5
 0
VERTEX
 8
MESH_215_F0
 10
0
 20
0
 30
0
 70
128
 71
16
 72
6
 73
5
 74
5
 0
VERTEX
 8
MESH_215_F0
 10
0
 20
0
 30
0
 70
128
 71
7
 72
6
 73
16
 74
16
 0
VERTEX
 8
MESH_215_F0
 10
0
 20
0
 30
0
 70
128
 71
7
 72
16
 73
8
 74
8
 0
VERTEX
 8
MESH_215_F0
 10
0
 20
0
 30
0
 70
128
 71
16
 72
9
 73
8
 74
8
 0
VERTEX
 8
MESH_215_F0
 10
0
 20
0
 30
0
 70
128
 71
10
 72
9
 73
16
 74
16
 0
VERTEX
 8
MESH_215_F0
 10
0
 20
0
 30
0
 70
128
 71
10
 72
16
 73
11
 74
11
 0
VERTEX
 8
MESH_215_F0
 10
0
 20
0
 30
0
 70
128
 71
16
 72
12
 73
11
 74
11
 0
VERTEX
 8
MESH_215_F0
 10
0
 20
0
 30
0
 70
128
 71
13
 72
12
 73
16
 74
16
 0
VERTEX
 8
MESH_215_F0
 10
0
 20
0
 30
0
 70
128
 71
13
 72
16
 73
14
 74
14
 0
VERTEX
 8
MESH_215_F0
 10
0
 20
0
 30
0
 70
128
 71
16
 72
15
 73
14
 74
14
 0
VERTEX
 8
MESH_215_F0
 10
0
 20
0
 30
0
 70
128
 71
16
 72
31
 73
17
 74
17
 0
VERTEX
 8
MESH_215_F0
 10
0
 20
0
 30
0
 70
128
 71
31
 72
18
 73
17
 74
17
 0
VERTEX
 8
MESH_215_F0
 10
0
 20
0
 30
0
 70
128
 71
19
 72
18
 73
31
 74
31
 0
VERTEX
 8
MESH_215_F0
 10
0
 20
0
 30
0
 70
128
 71
19
 72
31
 73
20
 74
20
 0
VERTEX
 8
MESH_215_F0
 10
0
 20
0
 30
0
 70
128
 71
31
 72
21
 73
20
 74
20
 0
VERTEX
 8
MESH_215_F0
 10
0
 20
0
 30
0
 70
128
 71
22
 72
21
 73
31
 74
31
 0
VERTEX
 8
MESH_215_F0
 10
0
 20
0
 30
0
 70
128
 71
22
 72
31
 73
23
 74
23
 0
VERTEX
 8
MESH_215_F0
 10
0
 20
0
 30
0
 70
128
 71
31
 72
24
 73
23
 74
23
 0
VERTEX
 8
MESH_215_F0
 10
0
 20
0
 30
0
 70
128
 71
25
 72
24
 73
31
 74
31
 0
VERTEX
 8
MESH_215_F0
 10
0
 20
0
 30
0
 70
128
 71
25
 72
31
 73
26
 74
26
 0
VERTEX
 8
MESH_215_F0
 10
0
 20
0
 30
0
 70
128
 71
31
 72
27
 73
26
 74
26
 0
VERTEX
 8
MESH_215_F0
 10
0
 20
0
 30
0
 70
128
 71
28
 72
27
 73
31
 74
31
 0
VERTEX
 8
MESH_215_F0
 10
0
 20
0
 30
0
 70
128
 71
28
 72
31
 73
29
 74
29
 0
VERTEX
 8
MESH_215_F0
 10
0
 20
0
 30
0
 70
128
 71
31
 72
30
 73
29
 74
29
 0
VERTEX
 8
MESH_215_F0
 10
0
 20
0
 30
0
 70
128
 71
31
 72
33
 73
32
 74
32
 0
VERTEX
 8
MESH_215_F0
 10
0
 20
0
 30
0
 70
128
 71
16
 72
33
 73
31
 74
31
 0
VERTEX
 8
MESH_215_F0
 10
0
 20
0
 30
0
 70
128
 71
3
 72
33
 73
16
 74
16
 0
SEQEND
 0
POLYLINE
 8
MESH_214_F0
 66
1
 10
0.0
 20
0.0
 30
0.0
 70
64
 71
8
 72
6
 0
VERTEX
 8
MESH_214_F0
 10
382
 20
-88.5
 30
0
 70
192
 0
VERTEX
 8
MESH_214_F0
 10
-382
 20
-88.5
 30
0
 70
192
 0
VERTEX
 8
MESH_214_F0
 10
-382
 20
0
 30
0
 70
192
 0
VERTEX
 8
MESH_214_F0
 10
-400
 20
0
 30
0
 70
192
 0
VERTEX
 8
MESH_214_F0
 10
-400
 20
-412
 30
0
 70
192
 0
VERTEX
 8
MESH_214_F0
 10
400
 20
-412
 30
0
 70
192
 0
VERTEX
 8
MESH_214_F0
 10
400
 20
0
 30
0
 70
192
 0
VERTEX
 8
MESH_214_F0
 10
382
 20
0
 30
0
 70
192
 0
VERTEX
 8
MESH_214_F0
 10
0
 20
0
 30
0
 70
128
 71
2
 72
4
 73
3
 74
3
 0
VERTEX
 8
MESH_214_F0
 10
0
 20
0
 30
0
 70
128
 71
5
 72
4
 73
2
 74
2
 0
VERTEX
 8
MESH_214_F0
 10
0
 20
0
 30
0
 70
128
 71
6
 72
5
 73
1
 74
1
 0
VERTEX
 8
MESH_214_F0
 10
0
 20
0
 30
0
 70
128
 71
6
 72
1
 73
7
 74
7
 0
VERTEX
 8
MESH_214_F0
 10
0
 20
0
 30
0
 70
128
 71
1
 72
8
 73
7
 74
7
 0
VERTEX
 8
MESH_214_F0
 10
0
 20
0
 30
0
 70
128
 71
1
 72
5
 73
2
 74
2
 0
SEQEND
 0
POLYLINE
 8
MESH_213_F0
 66
1
 10
0.0
 20
0.0
 30
0.0
 70
64
 71
6
 72
4
 0
VERTEX
 8
MESH_213_F0
 10
382
 20
-88.5
 30
0
 70
192
 0
VERTEX
 8
MESH_213_F0
 10
382
 20
0
 30
0
 70
192
 0
VERTEX
 8
MESH_213_F0
 10
382
 20
0
 30
-456.5
 70
192
 0
VERTEX
 8
MESH_213_F0
 10
382
 20
-70.5
 30
-456.5
 70
192
 0
VERTEX
 8
MESH_213_F0
 10
382
 20
-70.5
 30
-144.5
 70
192
 0
VERTEX
 8
MESH_213_F0
 10
382
 20
-88.5
 30
-144.5
 70
192
 0
VERTEX
 8
MESH_213_F0
 10
0
 20
0
 30
0
 70
128
 71
5
 72
1
 73
6
 74
6
 0
VERTEX
 8
MESH_213_F0
 10
0
 20
0
 30
0
 70
128
 71
2
 72
1
 73
5
 74
5
 0
VERTEX
 8
MESH_213_F0
 10
0
 20
0
 30
0
 70
128
 71
2
 72
5
 73
3
 74
3
 0
VERTEX
 8
MESH_213_F0
 10
0
 20
0
 30
0
 70
128
 71
5
 72
4
 73
3
 74
3
 0
SEQEND
 0
POLYLINE
 8
MESH_212_F0
 66
1
 10
0.0
 20
0.0
 30
0.0
 70
64
 71
12
 72
10
 0
VERTEX
 8
MESH_212_F0
 10
382
 20
0
 30
-456.5
 70
192
 0
VERTEX
 8
MESH_212_F0
 10
382
 20
0
 30
0
 70
192
 0
VERTEX
 8
MESH_212_F0
 10
400
 20
0
 30
0
 70
192
 0
VERTEX
 8
MESH_212_F0
 10
400
 20
0
 30
-475
 70
192
 0
VERTEX
 8
MESH_212_F0
 10
382
 20
0
 30
-475
 70
192
 0
VERTEX
 8
MESH_212_F0
 10
382
 20
0
 30
-474.5
 70
192
 0
VERTEX
 8
MESH_212_F0
 10
-382
 20
0
 30
-474.5
 70
192
 0
VERTEX
 8
MESH_212_F0
 10
-382
 20
0
 30
-475
 70
192
 0
VERTEX
 8
MESH_212_F0
 10
-400
 20
0
 30
-475
 70
192
 0
VERTEX
 8
MESH_212_F0
 10
-400
 20
0
 30
0
 70
192
 0
VERTEX
 8
MESH_212_F0
 10
-382
 20
0
 30
0
 70
192
 0
VERTEX
 8
MESH_212_F0
 10
-382
 20
0
 30
-456.5
 70
192
 0
VERTEX
 8
MESH_212_F0
 10
0
 20
0
 30
0
 70
128
 71
1
 72
3
 73
2
 74
2
 0
VERTEX
 8
MESH_212_F0
 10
0
 20
0
 30
0
 70
128
 71
4
 72
3
 73
1
 74
1
 0
VERTEX
 8
MESH_212_F0
 10
0
 20
0
 30
0
 70
128
 71
5
 72
4
 73
6
 74
6
 0
VERTEX
 8
MESH_212_F0
 10
0
 20
0
 30
0
 70
128
 71
4
 72
1
 73
6
 74
6
 0
VERTEX
 8
MESH_212_F0
 10
0
 20
0
 30
0
 70
128
 71
1
 72
7
 73
6
 74
6
 0
VERTEX
 8
MESH_212_F0
 10
0
 20
0
 30
0
 70
128
 71
12
 72
7
 73
1
 74
1
 0
VERTEX
 8
MESH_212_F0
 10
0
 20
0
 30
0
 70
128
 71
9
 72
7
 73
12
 74
12
 0
VERTEX
 8
MESH_212_F0
 10
0
 20
0
 30
0
 70
128
 71
10
 72
9
 73
11
 74
11
 0
VERTEX
 8
MESH_212_F0
 10
0
 20
0
 30
0
 70
128
 71
9
 72
12
 73
11
 74
11
 0
VERTEX
 8
MESH_212_F0
 10
0
 20
0
 30
0
 70
128
 71
9
 72
8
 73
7
 74
7
 0
SEQEND
 0
POLYLINE
 8
MESH_211_F0
 66
1
 10
0.0
 20
0.0
 30
0.0
 70
64
 71
4
 72
2
 0
VERTEX
 8
MESH_211_F0
 10
-400
 20
0
 30
-475
 70
192
 0
VERTEX
 8
MESH_211_F0
 10
-382
 20
0
 30
-475
 70
192
 0
VERTEX
 8
MESH_211_F0
 10
-382
 20
-412
 30
-475
 70
192
 0
VERTEX
 8
MESH_211_F0
 10
-400
 20
-412
 30
-475
 70
192
 0
VERTEX
 8
MESH_211_F0
 10
0
 20
0
 30
0
 70
128
 71
1
 72
3
 73
2
 74
2
 0
VERTEX
 8
MESH_211_F0
 10
0
 20
0
 30
0
 70
128
 71
4
 72
3
 73
1
 74
1
 0
SEQEND
 0
POLYLINE
 8
MESH_210_F0
 66
1
 10
0.0
 20
0.0
 30
0.0
 70
64
 71
6
 72
4
 0
VERTEX
 8
MESH_210_F0
 10
-382
 20
-412
 30
-474
 70
192
 0
VERTEX
 8
MESH_210_F0
 10
-382
 20
-412
 30
-475
 70
192
 0
VERTEX
 8
MESH_210_F0
 10
-382
 20
0
 30
-475
 70
192
 0
VERTEX
 8
MESH_210_F0
 10
-382
 20
0
 30
-474.5
 70
192
 0
VERTEX
 8
MESH_210_F0
 10
-382
 20
-411.5
 30
-474.5
 70
192
 0
VERTEX
 8
MESH_210_F0
 10
-382
 20
-411.5
 30
-474
 70
192
 0
VERTEX
 8
MESH_210_F0
 10
0
 20
0
 30
0
 70
128
 71
5
 72
1
 73
6
 74
6
 0
VERTEX
 8
MESH_210_F0
 10
0
 20
0
 30
0
 70
128
 71
2
 72
1
 73
5
 74
5
 0
VERTEX
 8
MESH_210_F0
 10
0
 20
0
 30
0
 70
128
 71
2
 72
5
 73
3
 74
3
 0
VERTEX
 8
MESH_210_F0
 10
0
 20
0
 30
0
 70
128
 71
5
 72
4
 73
3
 74
3
 0
SEQEND
 0
POLYLINE
 8
MESH_209_F0
 66
1
 10
0.0
 20
0.0
 30
0.0
 70
64
 71
4
 72
2
 0
VERTEX
 8
MESH_209_F0
 10
-382
 20
-411.5
 30
-474
 70
192
 0
VERTEX
 8
MESH_209_F0
 10
-382
 20
-411.5
 30
-474.5
 70
192
 0
VERTEX
 8
MESH_209_F0
 10
382
 20
-411.5
 30
-474.5
 70
192
 0
VERTEX
 8
MESH_209_F0
 10
382
 20
-411.5
 30
-474
 70
192
 0
VERTEX
 8
MESH_209_F0
 10
0
 20
0
 30
0
 70
128
 71
1
 72
3
 73
2
 74
2
 0
VERTEX
 8
MESH_209_F0
 10
0
 20
0
 30
0
 70
128
 71
4
 72
3
 73
1
 74
1
 0
SEQEND
 0
POLYLINE
 8
MESH_208_F0
 66
1
 10
0.0
 20
0.0
 30
0.0
 70
64
 71
6
 72
4
 0
VERTEX
 8
MESH_208_F0
 10
382
 20
-411.5
 30
-474
 70
192
 0
VERTEX
 8
MESH_208_F0
 10
382
 20
-411.5
 30
-474.5
 70
192
 0
VERTEX
 8
MESH_208_F0
 10
382
 20
0
 30
-474.5
 70
192
 0
VERTEX
 8
MESH_208_F0
 10
382
 20
0
 30
-475
 70
192
 0
VERTEX
 8
MESH_208_F0
 10
382
 20
-412
 30
-475
 70
192
 0
VERTEX
 8
MESH_208_F0
 10
382
 20
-412
 30
-474
 70
192
 0
VERTEX
 8
MESH_208_F0
 10
0
 20
0
 30
0
 70
128
 71
6
 72
2
 73
1
 74
1
 0
VERTEX
 8
MESH_208_F0
 10
0
 20
0
 30
0
 70
128
 71
5
 72
2
 73
6
 74
6
 0
VERTEX
 8
MESH_208_F0
 10
0
 20
0
 30
0
 70
128
 71
3
 72
2
 73
5
 74
5
 0
VERTEX
 8
MESH_208_F0
 10
0
 20
0
 30
0
 70
128
 71
3
 72
5
 73
4
 74
4
 0
SEQEND
 0
POLYLINE
 8
MESH_207_F0
 66
1
 10
0.0
 20
0.0
 30
0.0
 70
64
 71
30
 72
28
 0
VERTEX
 8
MESH_207_F0
 10
373.5
 20
-440.5
 30
-240
 70
192
 0
VERTEX
 8
MESH_207_F0
 10
373.5
 20
-440.5
 30
-244
 70
192
 0
VERTEX
 8
MESH_207_F0
 10
376.3842
 20
-440.3353
 30
-244
 70
192
 0
VERTEX
 8
MESH_207_F0
 10
379.2017
 20
-439.8543
 30
-244
 70
192
 0
VERTEX
 8
MESH_207_F0
 10
381.9446
 20
-439.0602
 30
-244
 70
192
 0
VERTEX
 8
MESH_207_F0
 10
384.5894
 20
-437.9624
 30
-244
 70
192
 0
VERTEX
 8
MESH_207_F0
 10
387.0845
 20
-436.5807
 30
-244
 70
192
 0
VERTEX
 8
MESH_207_F0
 10
389.4077
 20
-434.9296
 30
-244
 70
192
 0
VERTEX
 8
MESH_207_F0
 10
391.5308
 20
-433.0308
 30
-244
 70
192
 0
VERTEX
 8
MESH_207_F0
 10
393.4296
 20
-430.9077
 30
-244
 70
192
 0
VERTEX
 8
MESH_207_F0
 10
395.0807
 20
-428.5844
 30
-244
 70
192
 0
VERTEX
 8
MESH_207_F0
 10
396.4624
 20
-426.0894
 30
-244
 70
192
 0
VERTEX
 8
MESH_207_F0
 10
397.5602
 20
-423.4446
 30
-244
 70
192
 0
VERTEX
 8
MESH_207_F0
 10
398.3544
 20
-420.7017
 30
-244
 70
192
 0
VERTEX
 8
MESH_207_F0
 10
398.8353
 20
-417.8842
 30
-244
 70
192
 0
VERTEX
 8
MESH_207_F0
 10
399
 20
-415
 30
-244
 70
192
 0
VERTEX
 8
MESH_207_F0
 10
399
 20
-415
 30
-240
 70
192
 0
VERTEX
 8
MESH_207_F0
 10
398.8353
 20
-417.8842
 30
-240
 70
192
 0
VERTEX
 8
MESH_207_F0
 10
398.3544
 20
-420.7017
 30
-240
 70
192
 0
VERTEX
 8
MESH_207_F0
 10
397.5602
 20
-423.4446
 30
-240
 70
192
 0
VERTEX
 8
MESH_207_F0
 10
396.4624
 20
-426.0894
 30
-240
 70
192
 0
VERTEX
 8
MESH_207_F0
 10
395.0807
 20
-428.5844
 30
-240
 70
192
 0
VERTEX
 8
MESH_207_F0
 10
393.4296
 20
-430.9077
 30
-240
 70
192
 0
VERTEX
 8
MESH_207_F0
 10
391.5308
 20
-433.0308
 30
-240
 70
192
 0
VERTEX
 8
MESH_207_F0
 10
389.4077
 20
-434.9296
 30
-240
 70
192
 0
VERTEX
 8
MESH_207_F0
 10
387.0845
 20
-436.5807
 30
-240
 70
192
 0
VERTEX
 8
MESH_207_F0
 10
384.5894
 20
-437.9624
 30
-240
 70
192
 0
VERTEX
 8
MESH_207_F0
 10
381.9446
 20
-439.0602
 30
-240
 70
192
 0
VERTEX
 8
MESH_207_F0
 10
379.2017
 20
-439.8543
 30
-240
 70
192
 0
VERTEX
 8
MESH_207_F0
 10
376.3842
 20
-440.3353
 30
-240
 70
192
 0
VERTEX
 8
MESH_207_F0
 10
0
 20
0
 30
0
 70
128
 71
30
 72
2
 73
1
 74
1
 0
VERTEX
 8
MESH_207_F0
 10
0
 20
0
 30
0
 70
128
 71
3
 72
2
 73
30
 74
30
 0
VERTEX
 8
MESH_207_F0
 10
0
 20
0
 30
0
 70
128
 71
3
 72
30
 73
4
 74
4
 0
VERTEX
 8
MESH_207_F0
 10
0
 20
0
 30
0
 70
128
 71
30
 72
29
 73
4
 74
4
 0
VERTEX
 8
MESH_207_F0
 10
0
 20
0
 30
0
 70
128
 71
29
 72
5
 73
4
 74
4
 0
VERTEX
 8
MESH_207_F0
 10
0
 20
0
 30
0
 70
128
 71
28
 72
5
 73
29
 74
29
 0
VERTEX
 8
MESH_207_F0
 10
0
 20
0
 30
0
 70
128
 71
6
 72
5
 73
28
 74
28
 0
VERTEX
 8
MESH_207_F0
 10
0
 20
0
 30
0
 70
128
 71
7
 72
6
 73
27
 74
27
 0
VERTEX
 8
MESH_207_F0
 10
0
 20
0
 30
0
 70
128
 71
8
 72
7
 73
26
 74
26
 0
VERTEX
 8
MESH_207_F0
 10
0
 20
0
 30
0
 70
128
 71
9
 72
8
 73
25
 74
25
 0
VERTEX
 8
MESH_207_F0
 10
0
 20
0
 30
0
 70
128
 71
10
 72
9
 73
24
 74
24
 0
VERTEX
 8
MESH_207_F0
 10
0
 20
0
 30
0
 70
128
 71
11
 72
10
 73
23
 74
23
 0
VERTEX
 8
MESH_207_F0
 10
0
 20
0
 30
0
 70
128
 71
12
 72
11
 73
22
 74
22
 0
VERTEX
 8
MESH_207_F0
 10
0
 20
0
 30
0
 70
128
 71
13
 72
12
 73
21
 74
21
 0
VERTEX
 8
MESH_207_F0
 10
0
 20
0
 30
0
 70
128
 71
14
 72
13
 73
20
 74
20
 0
VERTEX
 8
MESH_207_F0
 10
0
 20
0
 30
0
 70
128
 71
15
 72
14
 73
19
 74
19
 0
VERTEX
 8
MESH_207_F0
 10
0
 20
0
 30
0
 70
128
 71
17
 72
15
 73
18
 74
18
 0
VERTEX
 8
MESH_207_F0
 10
0
 20
0
 30
0
 70
128
 71
15
 72
19
 73
18
 74
18
 0
VERTEX
 8
MESH_207_F0
 10
0
 20
0
 30
0
 70
128
 71
17
 72
16
 73
15
 74
15
 0
VERTEX
 8
MESH_207_F0
 10
0
 20
0
 30
0
 70
128
 71
14
 72
20
 73
19
 74
19
 0
VERTEX
 8
MESH_207_F0
 10
0
 20
0
 30
0
 70
128
 71
13
 72
21
 73
20
 74
20
 0
VERTEX
 8
MESH_207_F0
 10
0
 20
0
 30
0
 70
128
 71
12
 72
22
 73
21
 74
21
 0
VERTEX
 8
MESH_207_F0
 10
0
 20
0
 30
0
 70
128
 71
11
 72
23
 73
22
 74
22
 0
VERTEX
 8
MESH_207_F0
 10
0
 20
0
 30
0
 70
128
 71
10
 72
24
 73
23
 74
23
 0
VERTEX
 8
MESH_207_F0
 10
0
 20
0
 30
0
 70
128
 71
9
 72
25
 73
24
 74
24
 0
VERTEX
 8
MESH_207_F0
 10
0
 20
0
 30
0
 70
128
 71
8
 72
26
 73
25
 74
25
 0
VERTEX
 8
MESH_207_F0
 10
0
 20
0
 30
0
 70
128
 71
7
 72
27
 73
26
 74
26
 0
VERTEX
 8
MESH_207_F0
 10
0
 20
0
 30
0
 70
128
 71
6
 72
28
 73
27
 74
27
 0
SEQEND
 0
POLYLINE
 8
MESH_206_F0
 66
1
 10
0.0
 20
0.0
 30
0.0
 70
64
 71
4
 72
2
 0
VERTEX
 8
MESH_206_F0
 10
373.5
 20
-440.5
 30
-244
 70
192
 0
VERTEX
 8
MESH_206_F0
 10
373.5
 20
-440.5
 30
-240
 70
192
 0
VERTEX
 8
MESH_206_F0
 10
-373.5
 20
-440.5
 30
-240
 70
192
 0
VERTEX
 8
MESH_206_F0
 10
-373.5
 20
-440.5
 30
-244
 70
192
 0
VERTEX
 8
MESH_206_F0
 10
0
 20
0
 30
0
 70
128
 71
1
 72
3
 73
2
 74
2
 0
VERTEX
 8
MESH_206_F0
 10
0
 20
0
 30
0
 70
128
 71
4
 72
3
 73
1
 74
1
 0
SEQEND
 0
POLYLINE
 8
MESH_205_F0
 66
1
 10
0.0
 20
0.0
 30
0.0
 70
64
 71
30
 72
28
 0
VERTEX
 8
MESH_205_F0
 10
-399
 20
-415
 30
-240
 70
192
 0
VERTEX
 8
MESH_205_F0
 10
-399
 20
-415
 30
-244
 70
192
 0
VERTEX
 8
MESH_205_F0
 10
-398.8353
 20
-417.8842
 30
-244
 70
192
 0
VERTEX
 8
MESH_205_F0
 10
-398.3544
 20
-420.7017
 30
-244
 70
192
 0
VERTEX
 8
MESH_205_F0
 10
-397.5602
 20
-423.4446
 30
-244
 70
192
 0
VERTEX
 8
MESH_205_F0
 10
-396.4624
 20
-426.0894
 30
-244
 70
192
 0
VERTEX
 8
MESH_205_F0
 10
-395.0807
 20
-428.5844
 30
-244
 70
192
 0
VERTEX
 8
MESH_205_F0
 10
-393.4296
 20
-430.9077
 30
-244
 70
192
 0
VERTEX
 8
MESH_205_F0
 10
-391.5308
 20
-433.0308
 30
-244
 70
192
 0
VERTEX
 8
MESH_205_F0
 10
-389.4077
 20
-434.9296
 30
-244
 70
192
 0
VERTEX
 8
MESH_205_F0
 10
-387.0845
 20
-436.5807
 30
-244
 70
192
 0
VERTEX
 8
MESH_205_F0
 10
-384.5894
 20
-437.9624
 30
-244
 70
192
 0
VERTEX
 8
MESH_205_F0
 10
-381.9446
 20
-439.0602
 30
-244
 70
192
 0
VERTEX
 8
MESH_205_F0
 10
-379.2017
 20
-439.8543
 30
-244
 70
192
 0
VERTEX
 8
MESH_205_F0
 10
-376.3842
 20
-440.3353
 30
-244
 70
192
 0
VERTEX
 8
MESH_205_F0
 10
-373.5
 20
-440.5
 30
-244
 70
192
 0
VERTEX
 8
MESH_205_F0
 10
-373.5
 20
-440.5
 30
-240
 70
192
 0
VERTEX
 8
MESH_205_F0
 10
-376.3842
 20
-440.3353
 30
-240
 70
192
 0
VERTEX
 8
MESH_205_F0
 10
-379.2017
 20
-439.8543
 30
-240
 70
192
 0
VERTEX
 8
MESH_205_F0
 10
-381.9446
 20
-439.0602
 30
-240
 70
192
 0
VERTEX
 8
MESH_205_F0
 10
-384.5894
 20
-437.9624
 30
-240
 70
192
 0
VERTEX
 8
MESH_205_F0
 10
-387.0845
 20
-436.5807
 30
-240
 70
192
 0
VERTEX
 8
MESH_205_F0
 10
-389.4077
 20
-434.9296
 30
-240
 70
192
 0
VERTEX
 8
MESH_205_F0
 10
-391.5308
 20
-433.0308
 30
-240
 70
192
 0
VERTEX
 8
MESH_205_F0
 10
-393.4296
 20
-430.9077
 30
-240
 70
192
 0
VERTEX
 8
MESH_205_F0
 10
-395.0807
 20
-428.5844
 30
-240
 70
192
 0
VERTEX
 8
MESH_205_F0
 10
-396.4624
 20
-426.0894
 30
-240
 70
192
 0
VERTEX
 8
MESH_205_F0
 10
-397.5602
 20
-423.4446
 30
-240
 70
192
 0
VERTEX
 8
MESH_205_F0
 10
-398.3544
 20
-420.7017
 30
-240
 70
192
 0
VERTEX
 8
MESH_205_F0
 10
-398.8353
 20
-417.8842
 30
-240
 70
192
 0
VERTEX
 8
MESH_205_F0
 10
0
 20
0
 30
0
 70
128
 71
30
 72
2
 73
1
 74
1
 0
VERTEX
 8
MESH_205_F0
 10
0
 20
0
 30
0
 70
128
 71
3
 72
2
 73
30
 74
30
 0
VERTEX
 8
MESH_205_F0
 10
0
 20
0
 30
0
 70
128
 71
3
 72
30
 73
4
 74
4
 0
VERTEX
 8
MESH_205_F0
 10
0
 20
0
 30
0
 70
128
 71
30
 72
29
 73
4
 74
4
 0
VERTEX
 8
MESH_205_F0
 10
0
 20
0
 30
0
 70
128
 71
29
 72
5
 73
4
 74
4
 0
VERTEX
 8
MESH_205_F0
 10
0
 20
0
 30
0
 70
128
 71
28
 72
5
 73
29
 74
29
 0
VERTEX
 8
MESH_205_F0
 10
0
 20
0
 30
0
 70
128
 71
6
 72
5
 73
28
 74
28
 0
VERTEX
 8
MESH_205_F0
 10
0
 20
0
 30
0
 70
128
 71
7
 72
6
 73
27
 74
27
 0
VERTEX
 8
MESH_205_F0
 10
0
 20
0
 30
0
 70
128
 71
8
 72
7
 73
26
 74
26
 0
VERTEX
 8
MESH_205_F0
 10
0
 20
0
 30
0
 70
128
 71
9
 72
8
 73
25
 74
25
 0
VERTEX
 8
MESH_205_F0
 10
0
 20
0
 30
0
 70
128
 71
10
 72
9
 73
24
 74
24
 0
VERTEX
 8
MESH_205_F0
 10
0
 20
0
 30
0
 70
128
 71
11
 72
10
 73
23
 74
23
 0
VERTEX
 8
MESH_205_F0
 10
0
 20
0
 30
0
 70
128
 71
12
 72
11
 73
22
 74
22
 0
VERTEX
 8
MESH_205_F0
 10
0
 20
0
 30
0
 70
128
 71
13
 72
12
 73
21
 74
21
 0
VERTEX
 8
MESH_205_F0
 10
0
 20
0
 30
0
 70
128
 71
14
 72
13
 73
20
 74
20
 0
VERTEX
 8
MESH_205_F0
 10
0
 20
0
 30
0
 70
128
 71
15
 72
14
 73
19
 74
19
 0
VERTEX
 8
MESH_205_F0
 10
0
 20
0
 30
0
 70
128
 71
17
 72
15
 73
18
 74
18
 0
VERTEX
 8
MESH_205_F0
 10
0
 20
0
 30
0
 70
128
 71
15
 72
19
 73
18
 74
18
 0
VERTEX
 8
MESH_205_F0
 10
0
 20
0
 30
0
 70
128
 71
17
 72
16
 73
15
 74
15
 0
VERTEX
 8
MESH_205_F0
 10
0
 20
0
 30
0
 70
128
 71
14
 72
20
 73
19
 74
19
 0
VERTEX
 8
MESH_205_F0
 10
0
 20
0
 30
0
 70
128
 71
13
 72
21
 73
20
 74
20
 0
VERTEX
 8
MESH_205_F0
 10
0
 20
0
 30
0
 70
128
 71
12
 72
22
 73
21
 74
21
 0
VERTEX
 8
MESH_205_F0
 10
0
 20
0
 30
0
 70
128
 71
11
 72
23
 73
22
 74
22
 0
VERTEX
 8
MESH_205_F0
 10
0
 20
0
 30
0
 70
128
 71
10
 72
24
 73
23
 74
23
 0
VERTEX
 8
MESH_205_F0
 10
0
 20
0
 30
0
 70
128
 71
9
 72
25
 73
24
 74
24
 0
VERTEX
 8
MESH_205_F0
 10
0
 20
0
 30
0
 70
128
 71
8
 72
26
 73
25
 74
25
 0
VERTEX
 8
MESH_205_F0
 10
0
 20
0
 30
0
 70
128
 71
7
 72
27
 73
26
 74
26
 0
VERTEX
 8
MESH_205_F0
 10
0
 20
0
 30
0
 70
128
 71
6
 72
28
 73
27
 74
27
 0
SEQEND
 0
POLYLINE
 8
MESH_204_F0
 66
1
 10
0.0
 20
0.0
 30
0.0
 70
64
 71
4
 72
2
 0
VERTEX
 8
MESH_204_F0
 10
-399
 20
-412
 30
-244
 70
192
 0
VERTEX
 8
MESH_204_F0
 10
-399
 20
-415
 30
-244
 70
192
 0
VERTEX
 8
MESH_204_F0
 10
-399
 20
-415
 30
-240
 70
192
 0
VERTEX
 8
MESH_204_F0
 10
-399
 20
-412
 30
-240
 70
192
 0
VERTEX
 8
MESH_204_F0
 10
0
 20
0
 30
0
 70
128
 71
4
 72
2
 73
1
 74
1
 0
VERTEX
 8
MESH_204_F0
 10
0
 20
0
 30
0
 70
128
 71
3
 72
2
 73
4
 74
4
 0
SEQEND
 0
POLYLINE
 8
MESH_203_F0
 66
1
 10
0.0
 20
0.0
 30
0.0
 70
64
 71
32
 72
30
 0
VERTEX
 8
MESH_203_F0
 10
-399
 20
-412
 30
-240
 70
192
 0
VERTEX
 8
MESH_203_F0
 10
-399
 20
-415
 30
-240
 70
192
 0
VERTEX
 8
MESH_203_F0
 10
-398.8353
 20
-417.8842
 30
-240
 70
192
 0
VERTEX
 8
MESH_203_F0
 10
-398.3544
 20
-420.7017
 30
-240
 70
192
 0
VERTEX
 8
MESH_203_F0
 10
-397.5602
 20
-423.4446
 30
-240
 70
192
 0
VERTEX
 8
MESH_203_F0
 10
-396.4624
 20
-426.0894
 30
-240
 70
192
 0
VERTEX
 8
MESH_203_F0
 10
-395.0807
 20
-428.5844
 30
-240
 70
192
 0
VERTEX
 8
MESH_203_F0
 10
-393.4296
 20
-430.9077
 30
-240
 70
192
 0
VERTEX
 8
MESH_203_F0
 10
-391.5308
 20
-433.0308
 30
-240
 70
192
 0
VERTEX
 8
MESH_203_F0
 10
-389.4077
 20
-434.9296
 30
-240
 70
192
 0
VERTEX
 8
MESH_203_F0
 10
-387.0845
 20
-436.5807
 30
-240
 70
192
 0
VERTEX
 8
MESH_203_F0
 10
-384.5894
 20
-437.9624
 30
-240
 70
192
 0
VERTEX
 8
MESH_203_F0
 10
-381.9446
 20
-439.0602
 30
-240
 70
192
 0
VERTEX
 8
MESH_203_F0
 10
-379.2017
 20
-439.8543
 30
-240
 70
192
 0
VERTEX
 8
MESH_203_F0
 10
-376.3842
 20
-440.3353
 30
-240
 70
192
 0
VERTEX
 8
MESH_203_F0
 10
-373.5
 20
-440.5
 30
-240
 70
192
 0
VERTEX
 8
MESH_203_F0
 10
373.5
 20
-440.5
 30
-240
 70
192
 0
VERTEX
 8
MESH_203_F0
 10
376.3842
 20
-440.3353
 30
-240
 70
192
 0
VERTEX
 8
MESH_203_F0
 10
379.2017
 20
-439.8543
 30
-240
 70
192
 0
VERTEX
 8
MESH_203_F0
 10
381.9446
 20
-439.0602
 30
-240
 70
192
 0
VERTEX
 8
MESH_203_F0
 10
384.5894
 20
-437.9624
 30
-240
 70
192
 0
VERTEX
 8
MESH_203_F0
 10
387.0845
 20
-436.5807
 30
-240
 70
192
 0
VERTEX
 8
MESH_203_F0
 10
389.4077
 20
-434.9296
 30
-240
 70
192
 0
VERTEX
 8
MESH_203_F0
 10
391.5308
 20
-433.0308
 30
-240
 70
192
 0
VERTEX
 8
MESH_203_F0
 10
393.4296
 20
-430.9077
 30
-240
 70
192
 0
VERTEX
 8
MESH_203_F0
 10
395.0807
 20
-428.5844
 30
-240
 70
192
 0
VERTEX
 8
MESH_203_F0
 10
396.4624
 20
-426.0894
 30
-240
 70
192
 0
VERTEX
 8
MESH_203_F0
 10
397.5602
 20
-423.4446
 30
-240
 70
192
 0
VERTEX
 8
MESH_203_F0
 10
398.3544
 20
-420.7017
 30
-240
 70
192
 0
VERTEX
 8
MESH_203_F0
 10
398.8353
 20
-417.8842
 30
-240
 70
192
 0
VERTEX
 8
MESH_203_F0
 10
399
 20
-415
 30
-240
 70
192
 0
VERTEX
 8
MESH_203_F0
 10
399
 20
-412
 30
-240
 70
192
 0
VERTEX
 8
MESH_203_F0
 10
0
 20
0
 30
0
 70
128
 71
1
 72
30
 73
2
 74
2
 0
VERTEX
 8
MESH_203_F0
 10
0
 20
0
 30
0
 70
128
 71
30
 72
3
 73
2
 74
2
 0
VERTEX
 8
MESH_203_F0
 10
0
 20
0
 30
0
 70
128
 71
4
 72
3
 73
30
 74
30
 0
VERTEX
 8
MESH_203_F0
 10
0
 20
0
 30
0
 70
128
 71
5
 72
4
 73
29
 74
29
 0
VERTEX
 8
MESH_203_F0
 10
0
 20
0
 30
0
 70
128
 71
5
 72
29
 73
6
 74
6
 0
VERTEX
 8
MESH_203_F0
 10
0
 20
0
 30
0
 70
128
 71
29
 72
7
 73
6
 74
6
 0
VERTEX
 8
MESH_203_F0
 10
0
 20
0
 30
0
 70
128
 71
28
 72
7
 73
29
 74
29
 0
VERTEX
 8
MESH_203_F0
 10
0
 20
0
 30
0
 70
128
 71
8
 72
7
 73
28
 74
28
 0
VERTEX
 8
MESH_203_F0
 10
0
 20
0
 30
0
 70
128
 71
8
 72
28
 73
9
 74
9
 0
VERTEX
 8
MESH_203_F0
 10
0
 20
0
 30
0
 70
128
 71
28
 72
27
 73
9
 74
9
 0
VERTEX
 8
MESH_203_F0
 10
0
 20
0
 30
0
 70
128
 71
27
 72
10
 73
9
 74
9
 0
VERTEX
 8
MESH_203_F0
 10
0
 20
0
 30
0
 70
128
 71
11
 72
10
 73
27
 74
27
 0
VERTEX
 8
MESH_203_F0
 10
0
 20
0
 30
0
 70
128
 71
12
 72
11
 73
26
 74
26
 0
VERTEX
 8
MESH_203_F0
 10
0
 20
0
 30
0
 70
128
 71
13
 72
12
 73
16
 74
16
 0
VERTEX
 8
MESH_203_F0
 10
0
 20
0
 30
0
 70
128
 71
13
 72
16
 73
14
 74
14
 0
VERTEX
 8
MESH_203_F0
 10
0
 20
0
 30
0
 70
128
 71
16
 72
15
 73
14
 74
14
 0
VERTEX
 8
MESH_203_F0
 10
0
 20
0
 30
0
 70
128
 71
17
 72
20
 73
19
 74
19
 0
VERTEX
 8
MESH_203_F0
 10
0
 20
0
 30
0
 70
128
 71
17
 72
19
 73
18
 74
18
 0
VERTEX
 8
MESH_203_F0
 10
0
 20
0
 30
0
 70
128
 71
17
 72
21
 73
20
 74
20
 0
VERTEX
 8
MESH_203_F0
 10
0
 20
0
 30
0
 70
128
 71
16
 72
21
 73
17
 74
17
 0
VERTEX
 8
MESH_203_F0
 10
0
 20
0
 30
0
 70
128
 71
22
 72
21
 73
16
 74
16
 0
VERTEX
 8
MESH_203_F0
 10
0
 20
0
 30
0
 70
128
 71
22
 72
16
 73
23
 74
23
 0
VERTEX
 8
MESH_203_F0
 10
0
 20
0
 30
0
 70
128
 71
16
 72
24
 73
23
 74
23
 0
VERTEX
 8
MESH_203_F0
 10
0
 20
0
 30
0
 70
128
 71
25
 72
24
 73
16
 74
16
 0
VERTEX
 8
MESH_203_F0
 10
0
 20
0
 30
0
 70
128
 71
25
 72
16
 73
26
 74
26
 0
VERTEX
 8
MESH_203_F0
 10
0
 20
0
 30
0
 70
128
 71
16
 72
12
 73
26
 74
26
 0
VERTEX
 8
MESH_203_F0
 10
0
 20
0
 30
0
 70
128
 71
11
 72
27
 73
26
 74
26
 0
VERTEX
 8
MESH_203_F0
 10
0
 20
0
 30
0
 70
128
 71
4
 72
30
 73
29
 74
29
 0
VERTEX
 8
MESH_203_F0
 10
0
 20
0
 30
0
 70
128
 71
1
 72
31
 73
30
 74
30
 0
VERTEX
 8
MESH_203_F0
 10
0
 20
0
 30
0
 70
128
 71
32
 72
31
 73
1
 74
1
 0
SEQEND
 0
POLYLINE
 8
MESH_202_F0
 66
1
 10
0.0
 20
0.0
 30
0.0
 70
64
 71
4
 72
2
 0
VERTEX
 8
MESH_202_F0
 10
399
 20
-412
 30
-240
 70
192
 0
VERTEX
 8
MESH_202_F0
 10
399
 20
-415
 30
-240
 70
192
 0
VERTEX
 8
MESH_202_F0
 10
399
 20
-415
 30
-244
 70
192
 0
VERTEX
 8
MESH_202_F0
 10
399
 20
-412
 30
-244
 70
192
 0
VERTEX
 8
MESH_202_F0
 10
0
 20
0
 30
0
 70
128
 71
4
 72
2
 73
1
 74
1
 0
VERTEX
 8
MESH_202_F0
 10
0
 20
0
 30
0
 70
128
 71
3
 72
2
 73
4
 74
4
 0
SEQEND
 0
POLYLINE
 8
MESH_201_F0
 66
1
 10
0.0
 20
0.0
 30
0.0
 70
64
 71
62
 72
60
 0
VERTEX
 8
MESH_201_F0
 10
-398.3192
 20
-412
 30
-244
 70
192
 0
VERTEX
 8
MESH_201_F0
 10
-398.5
 20
-415.0125
 30
-244
 70
192
 0
VERTEX
 8
MESH_201_F0
 10
-398.3164
 20
-418.0248
 30
-244
 70
192
 0
VERTEX
 8
MESH_201_F0
 10
-397.7712
 20
-420.9931
 30
-244
 70
192
 0
VERTEX
 8
MESH_201_F0
 10
-396.8723
 20
-423.874
 30
-244
 70
192
 0
VERTEX
 8
MESH_201_F0
 10
-395.6328
 20
-426.6256
 30
-244
 70
192
 0
VERTEX
 8
MESH_201_F0
 10
-394.0708
 20
-429.2079
 30
-244
 70
192
 0
VERTEX
 8
MESH_201_F0
 10
-392.2089
 20
-431.583
 30
-244
 70
192
 0
VERTEX
 8
MESH_201_F0
 10
-390.0744
 20
-433.7166
 30
-244
 70
192
 0
VERTEX
 8
MESH_201_F0
 10
-387.6984
 20
-435.5773
 30
-244
 70
192
 0
VERTEX
 8
MESH_201_F0
 10
-385.1155
 20
-437.1381
 30
-244
 70
192
 0
VERTEX
 8
MESH_201_F0
 10
-382.3633
 20
-438.3764
 30
-244
 70
192
 0
VERTEX
 8
MESH_201_F0
 10
-379.4819
 20
-439.274
 30
-244
 70
192
 0
VERTEX
 8
MESH_201_F0
 10
-376.5134
 20
-439.8178
 30
-244
 70
192
 0
VERTEX
 8
MESH_201_F0
 10
-373.501
 20
-440
 30
-244
 70
192
 0
VERTEX
 8
MESH_201_F0
 10
373.501
 20
-440
 30
-244
 70
192
 0
VERTEX
 8
MESH_201_F0
 10
376.5134
 20
-439.8178
 30
-244
 70
192
 0
VERTEX
 8
MESH_201_F0
 10
379.4819
 20
-439.274
 30
-244
 70
192
 0
VERTEX
 8
MESH_201_F0
 10
382.3633
 20
-438.3764
 30
-244
 70
192
 0
VERTEX
 8
MESH_201_F0
 10
385.1155
 20
-437.1381
 30
-244
 70
192
 0
VERTEX
 8
MESH_201_F0
 10
387.6984
 20
-435.5773
 30
-244
 70
192
 0
VERTEX
 8
MESH_201_F0
 10
390.0744
 20
-433.7166
 30
-244
 70
192
 0
VERTEX
 8
MESH_201_F0
 10
392.2089
 20
-431.583
 30
-244
 70
192
 0
VERTEX
 8
MESH_201_F0
 10
394.0708
 20
-429.2079
 30
-244
 70
192
 0
VERTEX
 8
MESH_201_F0
 10
395.6328
 20
-426.6256
 30
-244
 70
192
 0
VERTEX
 8
MESH_201_F0
 10
396.8723
 20
-423.874
 30
-244
 70
192
 0
VERTEX
 8
MESH_201_F0
 10
397.7712
 20
-420.9931
 30
-244
 70
192
 0
VERTEX
 8
MESH_201_F0
 10
398.3164
 20
-418.0248
 30
-244
 70
192
 0
VERTEX
 8
MESH_201_F0
 10
398.5
 20
-415.0125
 30
-244
 70
192
 0
VERTEX
 8
MESH_201_F0
 10
398.3192
 20
-412
 30
-244
 70
192
 0
VERTEX
 8
MESH_201_F0
 10
399
 20
-412
 30
-244
 70
192
 0
VERTEX
 8
MESH_201_F0
 10
399
 20
-415
 30
-244
 70
192
 0
VERTEX
 8
MESH_201_F0
 10
398.8353
 20
-417.8842
 30
-244
 70
192
 0
VERTEX
 8
MESH_201_F0
 10
398.3544
 20
-420.7017
 30
-244
 70
192
 0
VERTEX
 8
MESH_201_F0
 10
397.5602
 20
-423.4446
 30
-244
 70
192
 0
VERTEX
 8
MESH_201_F0
 10
396.4624
 20
-426.0894
 30
-244
 70
192
 0
VERTEX
 8
MESH_201_F0
 10
395.0807
 20
-428.5844
 30
-244
 70
192
 0
VERTEX
 8
MESH_201_F0
 10
393.4296
 20
-430.9077
 30
-244
 70
192
 0
VERTEX
 8
MESH_201_F0
 10
391.5308
 20
-433.0308
 30
-244
 70
192
 0
VERTEX
 8
MESH_201_F0
 10
389.4077
 20
-434.9296
 30
-244
 70
192
 0
VERTEX
 8
MESH_201_F0
 10
387.0845
 20
-436.5807
 30
-244
 70
192
 0
VERTEX
 8
MESH_201_F0
 10
384.5894
 20
-437.9624
 30
-244
 70
192
 0
VERTEX
 8
MESH_201_F0
 10
381.9446
 20
-439.0602
 30
-244
 70
192
 0
VERTEX
 8
MESH_201_F0
 10
379.2017
 20
-439.8543
 30
-244
 70
192
 0
VERTEX
 8
MESH_201_F0
 10
376.3842
 20
-440.3353
 30
-244
 70
192
 0
VERTEX
 8
MESH_201_F0
 10
373.5
 20
-440.5
 30
-244
 70
192
 0
VERTEX
 8
MESH_201_F0
 10
-373.5
 20
-440.5
 30
-244
 70
192
 0
VERTEX
 8
MESH_201_F0
 10
-376.3842
 20
-440.3353
 30
-244
 70
192
 0
VERTEX
 8
MESH_201_F0
 10
-379.2017
 20
-439.8543
 30
-244
 70
192
 0
VERTEX
 8
MESH_201_F0
 10
-381.9446
 20
-439.0602
 30
-244
 70
192
 0
VERTEX
 8
MESH_201_F0
 10
-384.5894
 20
-437.9624
 30
-244
 70
192
 0
VERTEX
 8
MESH_201_F0
 10
-387.0845
 20
-436.5807
 30
-244
 70
192
 0
VERTEX
 8
MESH_201_F0
 10
-389.4077
 20
-434.9296
 30
-244
 70
192
 0
VERTEX
 8
MESH_201_F0
 10
-391.5308
 20
-433.0308
 30
-244
 70
192
 0
VERTEX
 8
MESH_201_F0
 10
-393.4296
 20
-430.9077
 30
-244
 70
192
 0
VERTEX
 8
MESH_201_F0
 10
-395.0807
 20
-428.5844
 30
-244
 70
192
 0
VERTEX
 8
MESH_201_F0
 10
-396.4624
 20
-426.0894
 30
-244
 70
192
 0
VERTEX
 8
MESH_201_F0
 10
-397.5602
 20
-423.4446
 30
-244
 70
192
 0
VERTEX
 8
MESH_201_F0
 10
-398.3544
 20
-420.7017
 30
-244
 70
192
 0
VERTEX
 8
MESH_201_F0
 10
-398.8353
 20
-417.8842
 30
-244
 70
192
 0
VERTEX
 8
MESH_201_F0
 10
-399
 20
-415
 30
-244
 70
192
 0
VERTEX
 8
MESH_201_F0
 10
-399
 20
-412
 30
-244
 70
192
 0
VERTEX
 8
MESH_201_F0
 10
0
 20
0
 30
0
 70
128
 71
62
 72
2
 73
1
 74
1
 0
VERTEX
 8
MESH_201_F0
 10
0
 20
0
 30
0
 70
128
 71
61
 72
2
 73
62
 74
62
 0
VERTEX
 8
MESH_201_F0
 10
0
 20
0
 30
0
 70
128
 71
60
 72
2
 73
61
 74
61
 0
VERTEX
 8
MESH_201_F0
 10
0
 20
0
 30
0
 70
128
 71
3
 72
2
 73
60
 74
60
 0
VERTEX
 8
MESH_201_F0
 10
0
 20
0
 30
0
 70
128
 71
4
 72
3
 73
59
 74
59
 0
VERTEX
 8
MESH_201_F0
 10
0
 20
0
 30
0
 70
128
 71
5
 72
4
 73
58
 74
58
 0
VERTEX
 8
MESH_201_F0
 10
0
 20
0
 30
0
 70
128
 71
6
 72
5
 73
57
 74
57
 0
VERTEX
 8
MESH_201_F0
 10
0
 20
0
 30
0
 70
128
 71
7
 72
6
 73
56
 74
56
 0
VERTEX
 8
MESH_201_F0
 10
0
 20
0
 30
0
 70
128
 71
8
 72
7
 73
55
 74
55
 0
VERTEX
 8
MESH_201_F0
 10
0
 20
0
 30
0
 70
128
 71
9
 72
8
 73
54
 74
54
 0
VERTEX
 8
MESH_201_F0
 10
0
 20
0
 30
0
 70
128
 71
10
 72
9
 73
53
 74
53
 0
VERTEX
 8
MESH_201_F0
 10
0
 20
0
 30
0
 70
128
 71
11
 72
10
 73
52
 74
52
 0
VERTEX
 8
MESH_201_F0
 10
0
 20
0
 30
0
 70
128
 71
12
 72
11
 73
51
 74
51
 0
VERTEX
 8
MESH_201_F0
 10
0
 20
0
 30
0
 70
128
 71
13
 72
12
 73
50
 74
50
 0
VERTEX
 8
MESH_201_F0
 10
0
 20
0
 30
0
 70
128
 71
14
 72
13
 73
49
 74
49
 0
VERTEX
 8
MESH_201_F0
 10
0
 20
0
 30
0
 70
128
 71
14
 72
49
 73
15
 74
15
 0
VERTEX
 8
MESH_201_F0
 10
0
 20
0
 30
0
 70
128
 71
49
 72
48
 73
15
 74
15
 0
VERTEX
 8
MESH_201_F0
 10
0
 20
0
 30
0
 70
128
 71
48
 72
47
 73
15
 74
15
 0
VERTEX
 8
MESH_201_F0
 10
0
 20
0
 30
0
 70
128
 71
47
 72
46
 73
15
 74
15
 0
VERTEX
 8
MESH_201_F0
 10
0
 20
0
 30
0
 70
128
 71
46
 72
16
 73
15
 74
15
 0
VERTEX
 8
MESH_201_F0
 10
0
 20
0
 30
0
 70
128
 71
45
 72
16
 73
46
 74
46
 0
VERTEX
 8
MESH_201_F0
 10
0
 20
0
 30
0
 70
128
 71
44
 72
16
 73
45
 74
45
 0
VERTEX
 8
MESH_201_F0
 10
0
 20
0
 30
0
 70
128
 71
17
 72
16
 73
44
 74
44
 0
VERTEX
 8
MESH_201_F0
 10
0
 20
0
 30
0
 70
128
 71
17
 72
44
 73
18
 74
18
 0
VERTEX
 8
MESH_201_F0
 10
0
 20
0
 30
0
 70
128
 71
44
 72
43
 73
18
 74
18
 0
VERTEX
 8
MESH_201_F0
 10
0
 20
0
 30
0
 70
128
 71
43
 72
19
 73
18
 74
18
 0
VERTEX
 8
MESH_201_F0
 10
0
 20
0
 30
0
 70
128
 71
42
 72
19
 73
43
 74
43
 0
VERTEX
 8
MESH_201_F0
 10
0
 20
0
 30
0
 70
128
 71
20
 72
19
 73
42
 74
42
 0
VERTEX
 8
MESH_201_F0
 10
0
 20
0
 30
0
 70
128
 71
21
 72
20
 73
41
 74
41
 0
VERTEX
 8
MESH_201_F0
 10
0
 20
0
 30
0
 70
128
 71
22
 72
21
 73
40
 74
40
 0
VERTEX
 8
MESH_201_F0
 10
0
 20
0
 30
0
 70
128
 71
23
 72
22
 73
39
 74
39
 0
VERTEX
 8
MESH_201_F0
 10
0
 20
0
 30
0
 70
128
 71
24
 72
23
 73
38
 74
38
 0
VERTEX
 8
MESH_201_F0
 10
0
 20
0
 30
0
 70
128
 71
25
 72
24
 73
37
 74
37
 0
VERTEX
 8
MESH_201_F0
 10
0
 20
0
 30
0
 70
128
 71
26
 72
25
 73
36
 74
36
 0
VERTEX
 8
MESH_201_F0
 10
0
 20
0
 30
0
 70
128
 71
27
 72
26
 73
35
 74
35
 0
VERTEX
 8
MESH_201_F0
 10
0
 20
0
 30
0
 70
128
 71
28
 72
27
 73
34
 74
34
 0
VERTEX
 8
MESH_201_F0
 10
0
 20
0
 30
0
 70
128
 71
29
 72
28
 73
33
 74
33
 0
VERTEX
 8
MESH_201_F0
 10
0
 20
0
 30
0
 70
128
 71
30
 72
29
 73
32
 74
32
 0
VERTEX
 8
MESH_201_F0
 10
0
 20
0
 30
0
 70
128
 71
30
 72
32
 73
31
 74
31
 0
VERTEX
 8
MESH_201_F0
 10
0
 20
0
 30
0
 70
128
 71
29
 72
33
 73
32
 74
32
 0
VERTEX
 8
MESH_201_F0
 10
0
 20
0
 30
0
 70
128
 71
28
 72
34
 73
33
 74
33
 0
VERTEX
 8
MESH_201_F0
 10
0
 20
0
 30
0
 70
128
 71
27
 72
35
 73
34
 74
34
 0
VERTEX
 8
MESH_201_F0
 10
0
 20
0
 30
0
 70
128
 71
26
 72
36
 73
35
 74
35
 0
VERTEX
 8
MESH_201_F0
 10
0
 20
0
 30
0
 70
128
 71
25
 72
37
 73
36
 74
36
 0
VERTEX
 8
MESH_201_F0
 10
0
 20
0
 30
0
 70
128
 71
24
 72
38
 73
37
 74
37
 0
VERTEX
 8
MESH_201_F0
 10
0
 20
0
 30
0
 70
128
 71
23
 72
39
 73
38
 74
38
 0
VERTEX
 8
MESH_201_F0
 10
0
 20
0
 30
0
 70
128
 71
22
 72
40
 73
39
 74
39
 0
VERTEX
 8
MESH_201_F0
 10
0
 20
0
 30
0
 70
128
 71
21
 72
41
 73
40
 74
40
 0
VERTEX
 8
MESH_201_F0
 10
0
 20
0
 30
0
 70
128
 71
20
 72
42
 73
41
 74
41
 0
VERTEX
 8
MESH_201_F0
 10
0
 20
0
 30
0
 70
128
 71
13
 72
50
 73
49
 74
49
 0
VERTEX
 8
MESH_201_F0
 10
0
 20
0
 30
0
 70
128
 71
12
 72
51
 73
50
 74
50
 0
VERTEX
 8
MESH_201_F0
 10
0
 20
0
 30
0
 70
128
 71
11
 72
52
 73
51
 74
51
 0
VERTEX
 8
MESH_201_F0
 10
0
 20
0
 30
0
 70
128
 71
10
 72
53
 73
52
 74
52
 0
VERTEX
 8
MESH_201_F0
 10
0
 20
0
 30
0
 70
128
 71
9
 72
54
 73
53
 74
53
 0
VERTEX
 8
MESH_201_F0
 10
0
 20
0
 30
0
 70
128
 71
8
 72
55
 73
54
 74
54
 0
VERTEX
 8
MESH_201_F0
 10
0
 20
0
 30
0
 70
128
 71
7
 72
56
 73
55
 74
55
 0
VERTEX
 8
MESH_201_F0
 10
0
 20
0
 30
0
 70
128
 71
6
 72
57
 73
56
 74
56
 0
VERTEX
 8
MESH_201_F0
 10
0
 20
0
 30
0
 70
128
 71
5
 72
58
 73
57
 74
57
 0
VERTEX
 8
MESH_201_F0
 10
0
 20
0
 30
0
 70
128
 71
4
 72
59
 73
58
 74
58
 0
VERTEX
 8
MESH_201_F0
 10
0
 20
0
 30
0
 70
128
 71
3
 72
60
 73
59
 74
59
 0
SEQEND
 0
POLYLINE
 8
MESH_200_F0
 66
1
 10
0.0
 20
0.0
 30
0.0
 70
64
 71
30
 72
28
 0
VERTEX
 8
MESH_200_F0
 10
398.3192
 20
-412
 30
-244
 70
192
 0
VERTEX
 8
MESH_200_F0
 10
398.5
 20
-415.0125
 30
-244
 70
192
 0
VERTEX
 8
MESH_200_F0
 10
398.3164
 20
-418.0248
 30
-244
 70
192
 0
VERTEX
 8
MESH_200_F0
 10
397.7712
 20
-420.9931
 30
-244
 70
192
 0
VERTEX
 8
MESH_200_F0
 10
396.8723
 20
-423.874
 30
-244
 70
192
 0
VERTEX
 8
MESH_200_F0
 10
395.6328
 20
-426.6256
 30
-244
 70
192
 0
VERTEX
 8
MESH_200_F0
 10
394.0708
 20
-429.2079
 30
-244
 70
192
 0
VERTEX
 8
MESH_200_F0
 10
392.2089
 20
-431.583
 30
-244
 70
192
 0
VERTEX
 8
MESH_200_F0
 10
390.0744
 20
-433.7166
 30
-244
 70
192
 0
VERTEX
 8
MESH_200_F0
 10
387.6984
 20
-435.5773
 30
-244
 70
192
 0
VERTEX
 8
MESH_200_F0
 10
385.1155
 20
-437.1381
 30
-244
 70
192
 0
VERTEX
 8
MESH_200_F0
 10
382.3633
 20
-438.3764
 30
-244
 70
192
 0
VERTEX
 8
MESH_200_F0
 10
379.4819
 20
-439.274
 30
-244
 70
192
 0
VERTEX
 8
MESH_200_F0
 10
376.5134
 20
-439.8178
 30
-244
 70
192
 0
VERTEX
 8
MESH_200_F0
 10
373.501
 20
-440
 30
-244
 70
192
 0
VERTEX
 8
MESH_200_F0
 10
373.501
 20
-440
 30
-474
 70
192
 0
VERTEX
 8
MESH_200_F0
 10
376.5134
 20
-439.8178
 30
-474
 70
192
 0
VERTEX
 8
MESH_200_F0
 10
379.4819
 20
-439.274
 30
-474
 70
192
 0
VERTEX
 8
MESH_200_F0
 10
382.3633
 20
-438.3764
 30
-474
 70
192
 0
VERTEX
 8
MESH_200_F0
 10
385.1155
 20
-437.1381
 30
-474
 70
192
 0
VERTEX
 8
MESH_200_F0
 10
387.6984
 20
-435.5773
 30
-474
 70
192
 0
VERTEX
 8
MESH_200_F0
 10
390.0744
 20
-433.7166
 30
-474
 70
192
 0
VERTEX
 8
MESH_200_F0
 10
392.2089
 20
-431.583
 30
-474
 70
192
 0
VERTEX
 8
MESH_200_F0
 10
394.0708
 20
-429.2079
 30
-474
 70
192
 0
VERTEX
 8
MESH_200_F0
 10
395.6328
 20
-426.6256
 30
-474
 70
192
 0
VERTEX
 8
MESH_200_F0
 10
396.8723
 20
-423.874
 30
-474
 70
192
 0
VERTEX
 8
MESH_200_F0
 10
397.7712
 20
-420.9931
 30
-474
 70
192
 0
VERTEX
 8
MESH_200_F0
 10
398.3164
 20
-418.0248
 30
-474
 70
192
 0
VERTEX
 8
MESH_200_F0
 10
398.5
 20
-415.0125
 30
-474
 70
192
 0
VERTEX
 8
MESH_200_F0
 10
398.3192
 20
-412
 30
-474
 70
192
 0
VERTEX
 8
MESH_200_F0
 10
0
 20
0
 30
0
 70
128
 71
29
 72
1
 73
30
 74
30
 0
VERTEX
 8
MESH_200_F0
 10
0
 20
0
 30
0
 70
128
 71
2
 72
1
 73
29
 74
29
 0
VERTEX
 8
MESH_200_F0
 10
0
 20
0
 30
0
 70
128
 71
3
 72
2
 73
28
 74
28
 0
VERTEX
 8
MESH_200_F0
 10
0
 20
0
 30
0
 70
128
 71
4
 72
3
 73
27
 74
27
 0
VERTEX
 8
MESH_200_F0
 10
0
 20
0
 30
0
 70
128
 71
5
 72
4
 73
26
 74
26
 0
VERTEX
 8
MESH_200_F0
 10
0
 20
0
 30
0
 70
128
 71
6
 72
5
 73
25
 74
25
 0
VERTEX
 8
MESH_200_F0
 10
0
 20
0
 30
0
 70
128
 71
7
 72
6
 73
24
 74
24
 0
VERTEX
 8
MESH_200_F0
 10
0
 20
0
 30
0
 70
128
 71
8
 72
7
 73
23
 74
23
 0
VERTEX
 8
MESH_200_F0
 10
0
 20
0
 30
0
 70
128
 71
9
 72
8
 73
22
 74
22
 0
VERTEX
 8
MESH_200_F0
 10
0
 20
0
 30
0
 70
128
 71
10
 72
9
 73
21
 74
21
 0
VERTEX
 8
MESH_200_F0
 10
0
 20
0
 30
0
 70
128
 71
11
 72
10
 73
20
 74
20
 0
VERTEX
 8
MESH_200_F0
 10
0
 20
0
 30
0
 70
128
 71
12
 72
11
 73
19
 74
19
 0
VERTEX
 8
MESH_200_F0
 10
0
 20
0
 30
0
 70
128
 71
13
 72
12
 73
18
 74
18
 0
VERTEX
 8
MESH_200_F0
 10
0
 20
0
 30
0
 70
128
 71
14
 72
13
 73
17
 74
17
 0
VERTEX
 8
MESH_200_F0
 10
0
 20
0
 30
0
 70
128
 71
15
 72
14
 73
16
 74
16
 0
VERTEX
 8
MESH_200_F0
 10
0
 20
0
 30
0
 70
128
 71
14
 72
17
 73
16
 74
16
 0
VERTEX
 8
MESH_200_F0
 10
0
 20
0
 30
0
 70
128
 71
13
 72
18
 73
17
 74
17
 0
VERTEX
 8
MESH_200_F0
 10
0
 20
0
 30
0
 70
128
 71
12
 72
19
 73
18
 74
18
 0
VERTEX
 8
MESH_200_F0
 10
0
 20
0
 30
0
 70
128
 71
11
 72
20
 73
19
 74
19
 0
VERTEX
 8
MESH_200_F0
 10
0
 20
0
 30
0
 70
128
 71
10
 72
21
 73
20
 74
20
 0
VERTEX
 8
MESH_200_F0
 10
0
 20
0
 30
0
 70
128
 71
9
 72
22
 73
21
 74
21
 0
VERTEX
 8
MESH_200_F0
 10
0
 20
0
 30
0
 70
128
 71
8
 72
23
 73
22
 74
22
 0
VERTEX
 8
MESH_200_F0
 10
0
 20
0
 30
0
 70
128
 71
7
 72
24
 73
23
 74
23
 0
VERTEX
 8
MESH_200_F0
 10
0
 20
0
 30
0
 70
128
 71
6
 72
25
 73
24
 74
24
 0
VERTEX
 8
MESH_200_F0
 10
0
 20
0
 30
0
 70
128
 71
5
 72
26
 73
25
 74
25
 0
VERTEX
 8
MESH_200_F0
 10
0
 20
0
 30
0
 70
128
 71
4
 72
27
 73
26
 74
26
 0
VERTEX
 8
MESH_200_F0
 10
0
 20
0
 30
0
 70
128
 71
3
 72
28
 73
27
 74
27
 0
VERTEX
 8
MESH_200_F0
 10
0
 20
0
 30
0
 70
128
 71
2
 72
29
 73
28
 74
28
 0
SEQEND
 0
POLYLINE
 8
MESH_199_F0
 66
1
 10
0.0
 20
0.0
 30
0.0
 70
64
 71
4
 72
2
 0
VERTEX
 8
MESH_199_F0
 10
-373.501
 20
-440
 30
-244
 70
192
 0
VERTEX
 8
MESH_199_F0
 10
-373.501
 20
-440
 30
-474
 70
192
 0
VERTEX
 8
MESH_199_F0
 10
373.501
 20
-440
 30
-474
 70
192
 0
VERTEX
 8
MESH_199_F0
 10
373.501
 20
-440
 30
-244
 70
192
 0
VERTEX
 8
MESH_199_F0
 10
0
 20
0
 30
0
 70
128
 71
1
 72
3
 73
2
 74
2
 0
VERTEX
 8
MESH_199_F0
 10
0
 20
0
 30
0
 70
128
 71
4
 72
3
 73
1
 74
1
 0
SEQEND
 0
POLYLINE
 8
MESH_198_F0
 66
1
 10
0.0
 20
0.0
 30
0.0
 70
64
 71
30
 72
28
 0
VERTEX
 8
MESH_198_F0
 10
-398.3192
 20
-412
 30
-474
 70
192
 0
VERTEX
 8
MESH_198_F0
 10
-398.5
 20
-415.0125
 30
-474
 70
192
 0
VERTEX
 8
MESH_198_F0
 10
-398.3164
 20
-418.0248
 30
-474
 70
192
 0
VERTEX
 8
MESH_198_F0
 10
-397.7712
 20
-420.9931
 30
-474
 70
192
 0
VERTEX
 8
MESH_198_F0
 10
-396.8723
 20
-423.874
 30
-474
 70
192
 0
VERTEX
 8
MESH_198_F0
 10
-395.6328
 20
-426.6256
 30
-474
 70
192
 0
VERTEX
 8
MESH_198_F0
 10
-394.0708
 20
-429.2079
 30
-474
 70
192
 0
VERTEX
 8
MESH_198_F0
 10
-392.2089
 20
-431.583
 30
-474
 70
192
 0
VERTEX
 8
MESH_198_F0
 10
-390.0744
 20
-433.7166
 30
-474
 70
192
 0
VERTEX
 8
MESH_198_F0
 10
-387.6984
 20
-435.5773
 30
-474
 70
192
 0
VERTEX
 8
MESH_198_F0
 10
-385.1155
 20
-437.1381
 30
-474
 70
192
 0
VERTEX
 8
MESH_198_F0
 10
-382.3633
 20
-438.3764
 30
-474
 70
192
 0
VERTEX
 8
MESH_198_F0
 10
-379.4819
 20
-439.274
 30
-474
 70
192
 0
VERTEX
 8
MESH_198_F0
 10
-376.5134
 20
-439.8178
 30
-474
 70
192
 0
VERTEX
 8
MESH_198_F0
 10
-373.501
 20
-440
 30
-474
 70
192
 0
VERTEX
 8
MESH_198_F0
 10
-373.501
 20
-440
 30
-244
 70
192
 0
VERTEX
 8
MESH_198_F0
 10
-376.5134
 20
-439.8178
 30
-244
 70
192
 0
VERTEX
 8
MESH_198_F0
 10
-379.4819
 20
-439.274
 30
-244
 70
192
 0
VERTEX
 8
MESH_198_F0
 10
-382.3633
 20
-438.3764
 30
-244
 70
192
 0
VERTEX
 8
MESH_198_F0
 10
-385.1155
 20
-437.1381
 30
-244
 70
192
 0
VERTEX
 8
MESH_198_F0
 10
-387.6984
 20
-435.5773
 30
-244
 70
192
 0
VERTEX
 8
MESH_198_F0
 10
-390.0744
 20
-433.7166
 30
-244
 70
192
 0
VERTEX
 8
MESH_198_F0
 10
-392.2089
 20
-431.583
 30
-244
 70
192
 0
VERTEX
 8
MESH_198_F0
 10
-394.0708
 20
-429.2079
 30
-244
 70
192
 0
VERTEX
 8
MESH_198_F0
 10
-395.6328
 20
-426.6256
 30
-244
 70
192
 0
VERTEX
 8
MESH_198_F0
 10
-396.8723
 20
-423.874
 30
-244
 70
192
 0
VERTEX
 8
MESH_198_F0
 10
-397.7712
 20
-420.9931
 30
-244
 70
192
 0
VERTEX
 8
MESH_198_F0
 10
-398.3164
 20
-418.0248
 30
-244
 70
192
 0
VERTEX
 8
MESH_198_F0
 10
-398.5
 20
-415.0125
 30
-244
 70
192
 0
VERTEX
 8
MESH_198_F0
 10
-398.3192
 20
-412
 30
-244
 70
192
 0
VERTEX
 8
MESH_198_F0
 10
0
 20
0
 30
0
 70
128
 71
29
 72
1
 73
30
 74
30
 0
VERTEX
 8
MESH_198_F0
 10
0
 20
0
 30
0
 70
128
 71
2
 72
1
 73
29
 74
29
 0
VERTEX
 8
MESH_198_F0
 10
0
 20
0
 30
0
 70
128
 71
3
 72
2
 73
28
 74
28
 0
VERTEX
 8
MESH_198_F0
 10
0
 20
0
 30
0
 70
128
 71
4
 72
3
 73
27
 74
27
 0
VERTEX
 8
MESH_198_F0
 10
0
 20
0
 30
0
 70
128
 71
5
 72
4
 73
26
 74
26
 0
VERTEX
 8
MESH_198_F0
 10
0
 20
0
 30
0
 70
128
 71
6
 72
5
 73
25
 74
25
 0
VERTEX
 8
MESH_198_F0
 10
0
 20
0
 30
0
 70
128
 71
7
 72
6
 73
24
 74
24
 0
VERTEX
 8
MESH_198_F0
 10
0
 20
0
 30
0
 70
128
 71
8
 72
7
 73
23
 74
23
 0
VERTEX
 8
MESH_198_F0
 10
0
 20
0
 30
0
 70
128
 71
9
 72
8
 73
22
 74
22
 0
VERTEX
 8
MESH_198_F0
 10
0
 20
0
 30
0
 70
128
 71
10
 72
9
 73
21
 74
21
 0
VERTEX
 8
MESH_198_F0
 10
0
 20
0
 30
0
 70
128
 71
11
 72
10
 73
20
 74
20
 0
VERTEX
 8
MESH_198_F0
 10
0
 20
0
 30
0
 70
128
 71
12
 72
11
 73
19
 74
19
 0
VERTEX
 8
MESH_198_F0
 10
0
 20
0
 30
0
 70
128
 71
13
 72
12
 73
18
 74
18
 0
VERTEX
 8
MESH_198_F0
 10
0
 20
0
 30
0
 70
128
 71
14
 72
13
 73
17
 74
17
 0
VERTEX
 8
MESH_198_F0
 10
0
 20
0
 30
0
 70
128
 71
15
 72
14
 73
16
 74
16
 0
VERTEX
 8
MESH_198_F0
 10
0
 20
0
 30
0
 70
128
 71
14
 72
17
 73
16
 74
16
 0
VERTEX
 8
MESH_198_F0
 10
0
 20
0
 30
0
 70
128
 71
13
 72
18
 73
17
 74
17
 0
VERTEX
 8
MESH_198_F0
 10
0
 20
0
 30
0
 70
128
 71
12
 72
19
 73
18
 74
18
 0
VERTEX
 8
MESH_198_F0
 10
0
 20
0
 30
0
 70
128
 71
11
 72
20
 73
19
 74
19
 0
VERTEX
 8
MESH_198_F0
 10
0
 20
0
 30
0
 70
128
 71
10
 72
21
 73
20
 74
20
 0
VERTEX
 8
MESH_198_F0
 10
0
 20
0
 30
0
 70
128
 71
9
 72
22
 73
21
 74
21
 0
VERTEX
 8
MESH_198_F0
 10
0
 20
0
 30
0
 70
128
 71
8
 72
23
 73
22
 74
22
 0
VERTEX
 8
MESH_198_F0
 10
0
 20
0
 30
0
 70
128
 71
7
 72
24
 73
23
 74
23
 0
VERTEX
 8
MESH_198_F0
 10
0
 20
0
 30
0
 70
128
 71
6
 72
25
 73
24
 74
24
 0
VERTEX
 8
MESH_198_F0
 10
0
 20
0
 30
0
 70
128
 71
5
 72
26
 73
25
 74
25
 0
VERTEX
 8
MESH_198_F0
 10
0
 20
0
 30
0
 70
128
 71
4
 72
27
 73
26
 74
26
 0
VERTEX
 8
MESH_198_F0
 10
0
 20
0
 30
0
 70
128
 71
3
 72
28
 73
27
 74
27
 0
VERTEX
 8
MESH_198_F0
 10
0
 20
0
 30
0
 70
128
 71
2
 72
29
 73
28
 74
28
 0
SEQEND
 0
POLYLINE
 8
MESH_197_F0
 66
1
 10
0.0
 20
0.0
 30
0.0
 70
64
 71
24
 72
24
 0
VERTEX
 8
MESH_197_F0
 10
-398.3192
 20
-412
 30
-474
 70
192
 0
VERTEX
 8
MESH_197_F0
 10
-398.3192
 20
-412
 30
-244
 70
192
 0
VERTEX
 8
MESH_197_F0
 10
-399
 20
-412
 30
-244
 70
192
 0
VERTEX
 8
MESH_197_F0
 10
-399
 20
-412
 30
-240
 70
192
 0
VERTEX
 8
MESH_197_F0
 10
399
 20
-412
 30
-240
 70
192
 0
VERTEX
 8
MESH_197_F0
 10
399
 20
-412
 30
-244
 70
192
 0
VERTEX
 8
MESH_197_F0
 10
398.3192
 20
-412
 30
-244
 70
192
 0
VERTEX
 8
MESH_197_F0
 10
398.3192
 20
-412
 30
-474
 70
192
 0
VERTEX
 8
MESH_197_F0
 10
382
 20
-412
 30
-474
 70
192
 0
VERTEX
 8
MESH_197_F0
 10
382
 20
-412
 30
-475
 70
192
 0
VERTEX
 8
MESH_197_F0
 10
400
 20
-412
 30
-475
 70
192
 0
VERTEX
 8
MESH_197_F0
 10
400
 20
-412
 30
0
 70
192
 0
VERTEX
 8
MESH_197_F0
 10
-400
 20
-412
 30
0
 70
192
 0
VERTEX
 8
MESH_197_F0
 10
-400
 20
-412
 30
-475
 70
192
 0
VERTEX
 8
MESH_197_F0
 10
-382
 20
-412
 30
-475
 70
192
 0
VERTEX
 8
MESH_197_F0
 10
-382
 20
-412
 30
-474
 70
192
 0
VERTEX
 8
MESH_197_F0
 10
-398.3192
 20
-412
 30
-237
 70
192
 0
VERTEX
 8
MESH_197_F0
 10
-398.3192
 20
-412
 30
-7
 70
192
 0
VERTEX
 8
MESH_197_F0
 10
-399
 20
-412
 30
-7
 70
192
 0
VERTEX
 8
MESH_197_F0
 10
-399
 20
-412
 30
-3
 70
192
 0
VERTEX
 8
MESH_197_F0
 10
399
 20
-412
 30
-3
 70
192
 0
VERTEX
 8
MESH_197_F0
 10
399
 20
-412
 30
-7
 70
192
 0
VERTEX
 8
MESH_197_F0
 10
398.3192
 20
-412
 30
-7
 70
192
 0
VERTEX
 8
MESH_197_F0
 10
398.3192
 20
-412
 30
-237
 70
192
 0
VERTEX
 8
MESH_197_F0
 10
0
 20
0
 30
0
 70
128
 71
1
 72
3
 73
2
 74
2
 0
VERTEX
 8
MESH_197_F0
 10
0
 20
0
 30
0
 70
128
 71
14
 72
3
 73
1
 74
1
 0
VERTEX
 8
MESH_197_F0
 10
0
 20
0
 30
0
 70
128
 71
14
 72
1
 73
15
 74
15
 0
VERTEX
 8
MESH_197_F0
 10
0
 20
0
 30
0
 70
128
 71
1
 72
16
 73
15
 74
15
 0
VERTEX
 8
MESH_197_F0
 10
0
 20
0
 30
0
 70
128
 71
14
 72
4
 73
3
 74
3
 0
VERTEX
 8
MESH_197_F0
 10
0
 20
0
 30
0
 70
128
 71
13
 72
4
 73
14
 74
14
 0
VERTEX
 8
MESH_197_F0
 10
0
 20
0
 30
0
 70
128
 71
19
 72
4
 73
13
 74
13
 0
VERTEX
 8
MESH_197_F0
 10
0
 20
0
 30
0
 70
128
 71
19
 72
13
 73
20
 74
20
 0
VERTEX
 8
MESH_197_F0
 10
0
 20
0
 30
0
 70
128
 71
13
 72
21
 73
20
 74
20
 0
VERTEX
 8
MESH_197_F0
 10
0
 20
0
 30
0
 70
128
 71
12
 72
21
 73
13
 74
13
 0
VERTEX
 8
MESH_197_F0
 10
0
 20
0
 30
0
 70
128
 71
22
 72
21
 73
12
 74
12
 0
VERTEX
 8
MESH_197_F0
 10
0
 20
0
 30
0
 70
128
 71
23
 72
22
 73
5
 74
5
 0
VERTEX
 8
MESH_197_F0
 10
0
 20
0
 30
0
 70
128
 71
23
 72
5
 73
24
 74
24
 0
VERTEX
 8
MESH_197_F0
 10
0
 20
0
 30
0
 70
128
 71
5
 72
17
 73
24
 74
24
 0
VERTEX
 8
MESH_197_F0
 10
0
 20
0
 30
0
 70
128
 71
4
 72
17
 73
5
 74
5
 0
VERTEX
 8
MESH_197_F0
 10
0
 20
0
 30
0
 70
128
 71
19
 72
17
 73
4
 74
4
 0
VERTEX
 8
MESH_197_F0
 10
0
 20
0
 30
0
 70
128
 71
18
 72
17
 73
19
 74
19
 0
VERTEX
 8
MESH_197_F0
 10
0
 20
0
 30
0
 70
128
 71
5
 72
11
 73
6
 74
6
 0
VERTEX
 8
MESH_197_F0
 10
0
 20
0
 30
0
 70
128
 71
11
 72
7
 73
6
 74
6
 0
VERTEX
 8
MESH_197_F0
 10
0
 20
0
 30
0
 70
128
 71
8
 72
7
 73
11
 74
11
 0
VERTEX
 8
MESH_197_F0
 10
0
 20
0
 30
0
 70
128
 71
9
 72
8
 73
10
 74
10
 0
VERTEX
 8
MESH_197_F0
 10
0
 20
0
 30
0
 70
128
 71
8
 72
11
 73
10
 74
10
 0
VERTEX
 8
MESH_197_F0
 10
0
 20
0
 30
0
 70
128
 71
5
 72
12
 73
11
 74
11
 0
VERTEX
 8
MESH_197_F0
 10
0
 20
0
 30
0
 70
128
 71
22
 72
12
 73
5
 74
5
 0
SEQEND
 0
POLYLINE
 8
MESH_196_F0
 66
1
 10
0.0
 20
0.0
 30
0.0
 70
64
 71
34
 72
32
 0
VERTEX
 8
MESH_196_F0
 10
382
 20
-412
 30
-474
 70
192
 0
VERTEX
 8
MESH_196_F0
 10
398.3192
 20
-412
 30
-474
 70
192
 0
VERTEX
 8
MESH_196_F0
 10
398.5
 20
-415.0125
 30
-474
 70
192
 0
VERTEX
 8
MESH_196_F0
 10
398.3164
 20
-418.0248
 30
-474
 70
192
 0
VERTEX
 8
MESH_196_F0
 10
397.7712
 20
-420.9931
 30
-474
 70
192
 0
VERTEX
 8
MESH_196_F0
 10
396.8723
 20
-423.874
 30
-474
 70
192
 0
VERTEX
 8
MESH_196_F0
 10
395.6328
 20
-426.6256
 30
-474
 70
192
 0
VERTEX
 8
MESH_196_F0
 10
394.0708
 20
-429.2079
 30
-474
 70
192
 0
VERTEX
 8
MESH_196_F0
 10
392.2089
 20
-431.583
 30
-474
 70
192
 0
VERTEX
 8
MESH_196_F0
 10
390.0744
 20
-433.7166
 30
-474
 70
192
 0
VERTEX
 8
MESH_196_F0
 10
387.6984
 20
-435.5773
 30
-474
 70
192
 0
VERTEX
 8
MESH_196_F0
 10
385.1155
 20
-437.1381
 30
-474
 70
192
 0
VERTEX
 8
MESH_196_F0
 10
382.3633
 20
-438.3764
 30
-474
 70
192
 0
VERTEX
 8
MESH_196_F0
 10
379.4819
 20
-439.274
 30
-474
 70
192
 0
VERTEX
 8
MESH_196_F0
 10
376.5134
 20
-439.8178
 30
-474
 70
192
 0
VERTEX
 8
MESH_196_F0
 10
373.501
 20
-440
 30
-474
 70
192
 0
VERTEX
 8
MESH_196_F0
 10
-373.501
 20
-440
 30
-474
 70
192
 0
VERTEX
 8
MESH_196_F0
 10
-376.5134
 20
-439.8178
 30
-474
 70
192
 0
VERTEX
 8
MESH_196_F0
 10
-379.4819
 20
-439.274
 30
-474
 70
192
 0
VERTEX
 8
MESH_196_F0
 10
-382.3633
 20
-438.3764
 30
-474
 70
192
 0
VERTEX
 8
MESH_196_F0
 10
-385.1155
 20
-437.1381
 30
-474
 70
192
 0
VERTEX
 8
MESH_196_F0
 10
-387.6984
 20
-435.5773
 30
-474
 70
192
 0
VERTEX
 8
MESH_196_F0
 10
-390.0744
 20
-433.7166
 30
-474
 70
192
 0
VERTEX
 8
MESH_196_F0
 10
-392.2089
 20
-431.583
 30
-474
 70
192
 0
VERTEX
 8
MESH_196_F0
 10
-394.0708
 20
-429.2079
 30
-474
 70
192
 0
VERTEX
 8
MESH_196_F0
 10
-395.6328
 20
-426.6256
 30
-474
 70
192
 0
VERTEX
 8
MESH_196_F0
 10
-396.8723
 20
-423.874
 30
-474
 70
192
 0
VERTEX
 8
MESH_196_F0
 10
-397.7712
 20
-420.9931
 30
-474
 70
192
 0
VERTEX
 8
MESH_196_F0
 10
-398.3164
 20
-418.0248
 30
-474
 70
192
 0
VERTEX
 8
MESH_196_F0
 10
-398.5
 20
-415.0125
 30
-474
 70
192
 0
VERTEX
 8
MESH_196_F0
 10
-398.3192
 20
-412
 30
-474
 70
192
 0
VERTEX
 8
MESH_196_F0
 10
-382
 20
-412
 30
-474
 70
192
 0
VERTEX
 8
MESH_196_F0
 10
-382
 20
-411.5
 30
-474
 70
192
 0
VERTEX
 8
MESH_196_F0
 10
382
 20
-411.5
 30
-474
 70
192
 0
VERTEX
 8
MESH_196_F0
 10
0
 20
0
 30
0
 70
128
 71
1
 72
3
 73
2
 74
2
 0
VERTEX
 8
MESH_196_F0
 10
0
 20
0
 30
0
 70
128
 71
4
 72
3
 73
1
 74
1
 0
VERTEX
 8
MESH_196_F0
 10
0
 20
0
 30
0
 70
128
 71
4
 72
1
 73
5
 74
5
 0
VERTEX
 8
MESH_196_F0
 10
0
 20
0
 30
0
 70
128
 71
1
 72
6
 73
5
 74
5
 0
VERTEX
 8
MESH_196_F0
 10
0
 20
0
 30
0
 70
128
 71
7
 72
6
 73
1
 74
1
 0
VERTEX
 8
MESH_196_F0
 10
0
 20
0
 30
0
 70
128
 71
7
 72
1
 73
8
 74
8
 0
VERTEX
 8
MESH_196_F0
 10
0
 20
0
 30
0
 70
128
 71
1
 72
26
 73
8
 74
8
 0
VERTEX
 8
MESH_196_F0
 10
0
 20
0
 30
0
 70
128
 71
26
 72
9
 73
8
 74
8
 0
VERTEX
 8
MESH_196_F0
 10
0
 20
0
 30
0
 70
128
 71
10
 72
9
 73
26
 74
26
 0
VERTEX
 8
MESH_196_F0
 10
0
 20
0
 30
0
 70
128
 71
10
 72
26
 73
11
 74
11
 0
VERTEX
 8
MESH_196_F0
 10
0
 20
0
 30
0
 70
128
 71
26
 72
12
 73
11
 74
11
 0
VERTEX
 8
MESH_196_F0
 10
0
 20
0
 30
0
 70
128
 71
13
 72
12
 73
26
 74
26
 0
VERTEX
 8
MESH_196_F0
 10
0
 20
0
 30
0
 70
128
 71
13
 72
26
 73
14
 74
14
 0
VERTEX
 8
MESH_196_F0
 10
0
 20
0
 30
0
 70
128
 71
26
 72
25
 73
14
 74
14
 0
VERTEX
 8
MESH_196_F0
 10
0
 20
0
 30
0
 70
128
 71
25
 72
24
 73
14
 74
14
 0
VERTEX
 8
MESH_196_F0
 10
0
 20
0
 30
0
 70
128
 71
24
 72
23
 73
14
 74
14
 0
VERTEX
 8
MESH_196_F0
 10
0
 20
0
 30
0
 70
128
 71
23
 72
22
 73
14
 74
14
 0
VERTEX
 8
MESH_196_F0
 10
0
 20
0
 30
0
 70
128
 71
22
 72
21
 73
14
 74
14
 0
VERTEX
 8
MESH_196_F0
 10
0
 20
0
 30
0
 70
128
 71
21
 72
20
 73
14
 74
14
 0
VERTEX
 8
MESH_196_F0
 10
0
 20
0
 30
0
 70
128
 71
20
 72
17
 73
14
 74
14
 0
VERTEX
 8
MESH_196_F0
 10
0
 20
0
 30
0
 70
128
 71
17
 72
16
 73
14
 74
14
 0
VERTEX
 8
MESH_196_F0
 10
0
 20
0
 30
0
 70
128
 71
16
 72
15
 73
14
 74
14
 0
VERTEX
 8
MESH_196_F0
 10
0
 20
0
 30
0
 70
128
 71
17
 72
19
 73
18
 74
18
 0
VERTEX
 8
MESH_196_F0
 10
0
 20
0
 30
0
 70
128
 71
20
 72
19
 73
17
 74
17
 0
VERTEX
 8
MESH_196_F0
 10
0
 20
0
 30
0
 70
128
 71
1
 72
27
 73
26
 74
26
 0
VERTEX
 8
MESH_196_F0
 10
0
 20
0
 30
0
 70
128
 71
28
 72
27
 73
1
 74
1
 0
VERTEX
 8
MESH_196_F0
 10
0
 20
0
 30
0
 70
128
 71
28
 72
1
 73
29
 74
29
 0
VERTEX
 8
MESH_196_F0
 10
0
 20
0
 30
0
 70
128
 71
1
 72
30
 73
29
 74
29
 0
VERTEX
 8
MESH_196_F0
 10
0
 20
0
 30
0
 70
128
 71
32
 72
30
 73
1
 74
1
 0
VERTEX
 8
MESH_196_F0
 10
0
 20
0
 30
0
 70
128
 71
32
 72
1
 73
33
 74
33
 0
VERTEX
 8
MESH_196_F0
 10
0
 20
0
 30
0
 70
128
 71
1
 72
34
 73
33
 74
33
 0
VERTEX
 8
MESH_196_F0
 10
0
 20
0
 30
0
 70
128
 71
32
 72
31
 73
30
 74
30
 0
SEQEND
 0
ENDSEC
 0
EOF
