 0
SECTION
 2
HEADER
 9
$ACADVER
 1
AC1009
 0
ENDSEC
 0
SECTION
 2
TABLES
 0
TABLE
 2
LTYPE
 70
1
 0
LTYPE
 2
CONTINUOUS
 70
64
 3
solid line
 72
65
 73
0
 40
0.0
 0
ENDTAB
 0
TABLE
 2
LAYER
 70
6
 0
LAYER
 2
0
 70
0
 62
7
 6
CONTINUOUS
 0
LAYER
 2
MESH_249_F0
 70
64
 62
7
 6
CONTINUOUS
 0
LAYER
 2
MESH_248_F0
 70
64
 62
7
 6
CONTINUOUS
 0
LAYER
 2
MESH_247_F0
 70
64
 62
7
 6
CONTINUOUS
 0
LAYER
 2
MESH_246_F0
 70
64
 62
7
 6
CONTINUOUS
 0
LAYER
 2
MESH_245_F0
 70
64
 62
7
 6
CONTINUOUS
 0
LAYER
 2
MESH_244_F0
 70
64
 62
7
 6
CONTINUOUS
 0
LAYER
 2
MESH_243_F0
 70
64
 62
7
 6
CONTINUOUS
 0
LAYER
 2
MESH_242_F0
 70
64
 62
7
 6
CONTINUOUS
 0
LAYER
 2
MESH_241_F0
 70
64
 62
7
 6
CONTINUOUS
 0
LAYER
 2
MESH_240_F0
 70
64
 62
7
 6
CONTINUOUS
 0
LAYER
 2
MESH_239_F0
 70
64
 62
7
 6
CONTINUOUS
 0
LAYER
 2
MESH_238_F0
 70
64
 62
7
 6
CONTINUOUS
 0
LAYER
 2
MESH_237_F0
 70
64
 62
7
 6
CONTINUOUS
 0
LAYER
 2
MESH_236_F0
 70
64
 62
7
 6
CONTINUOUS
 0
LAYER
 2
MESH_235_F0
 70
64
 62
7
 6
CONTINUOUS
 0
LAYER
 2
MESH_234_F0
 70
64
 62
7
 6
CONTINUOUS
 0
LAYER
 2
MESH_233_F0
 70
64
 62
7
 6
CONTINUOUS
 0
LAYER
 2
MESH_232_F0
 70
64
 62
7
 6
CONTINUOUS
 0
LAYER
 2
MESH_231_F0
 70
64
 62
7
 6
CONTINUOUS
 0
LAYER
 2
MESH_230_F0
 70
64
 62
7
 6
CONTINUOUS
 0
LAYER
 2
MESH_229_F0
 70
64
 62
7
 6
CONTINUOUS
 0
LAYER
 2
MESH_228_F0
 70
64
 62
7
 6
CONTINUOUS
 0
LAYER
 2
MESH_227_F0
 70
64
 62
7
 6
CONTINUOUS
 0
LAYER
 2
MESH_226_F0
 70
64
 62
7
 6
CONTINUOUS
 0
LAYER
 2
MESH_225_F0
 70
64
 62
7
 6
CONTINUOUS
 0
LAYER
 2
MESH_224_F0
 70
64
 62
7
 6
CONTINUOUS
 0
LAYER
 2
MESH_223_F0
 70
64
 62
7
 6
CONTINUOUS
 0
LAYER
 2
MESH_222_F0
 70
64
 62
7
 6
CONTINUOUS
 0
LAYER
 2
MESH_221_F0
 70
64
 62
7
 6
CONTINUOUS
 0
LAYER
 2
MESH_220_F0
 70
64
 62
7
 6
CONTINUOUS
 0
LAYER
 2
MESH_219_F0
 70
64
 62
7
 6
CONTINUOUS
 0
LAYER
 2
MESH_218_F0
 70
64
 62
7
 6
CONTINUOUS
 0
LAYER
 2
MESH_217_F0
 70
64
 62
7
 6
CONTINUOUS
 0
LAYER
 2
MESH_216_F0
 70
64
 62
7
 6
CONTINUOUS
 0
LAYER
 2
MESH_215_F0
 70
64
 62
7
 6
CONTINUOUS
 0
LAYER
 2
MESH_214_F0
 70
64
 62
7
 6
CONTINUOUS
 0
LAYER
 2
MESH_213_F0
 70
64
 62
7
 6
CONTINUOUS
 0
LAYER
 2
MESH_212_F0
 70
64
 62
7
 6
CONTINUOUS
 0
LAYER
 2
MESH_211_F0
 70
64
 62
7
 6
CONTINUOUS
 0
LAYER
 2
MESH_210_F0
 70
64
 62
7
 6
CONTINUOUS
 0
LAYER
 2
MESH_209_F0
 70
64
 62
7
 6
CONTINUOUS
 0
LAYER
 2
MESH_208_F0
 70
64
 62
7
 6
CONTINUOUS
 0
LAYER
 2
MESH_207_F0
 70
64
 62
7
 6
CONTINUOUS
 0
LAYER
 2
MESH_206_F0
 70
64
 62
7
 6
CONTINUOUS
 0
LAYER
 2
MESH_205_F0
 70
64
 62
7
 6
CONTINUOUS
 0
LAYER
 2
MESH_204_F0
 70
64
 62
7
 6
CONTINUOUS
 0
LAYER
 2
MESH_203_F0
 70
64
 62
7
 6
CONTINUOUS
 0
LAYER
 2
MESH_202_F0
 70
64
 62
7
 6
CONTINUOUS
 0
LAYER
 2
MESH_201_F0
 70
64
 62
7
 6
CONTINUOUS
 0
ENDTAB
 0
ENDSEC
 0
SECTION
 2
BLOCKS
 0
ENDSEC
 0
SECTION
 2
ENTITIES
 0
POLYLINE
 8
MESH_249_F0
 66
1
 10
0.0
 20
0.0
 30
0.0
 70
64
 71
28
 72
26
 0
VERTEX
 8
MESH_249_F0
 10
475.5
 20
-440.5
 30
-240
 70
192
 0
VERTEX
 8
MESH_249_F0
 10
475.5
 20
-440.5
 30
-244
 70
192
 0
VERTEX
 8
MESH_249_F0
 10
478.3326
 20
-440.3286
 30
-244
 70
192
 0
VERTEX
 8
MESH_249_F0
 10
481.1239
 20
-439.8171
 30
-244
 70
192
 0
VERTEX
 8
MESH_249_F0
 10
483.8332
 20
-438.9729
 30
-244
 70
192
 0
VERTEX
 8
MESH_249_F0
 10
486.421
 20
-437.8082
 30
-244
 70
192
 0
VERTEX
 8
MESH_249_F0
 10
488.8495
 20
-436.3401
 30
-244
 70
192
 0
VERTEX
 8
MESH_249_F0
 10
491.0834
 20
-434.59
 30
-244
 70
192
 0
VERTEX
 8
MESH_249_F0
 10
493.09
 20
-432.5834
 30
-244
 70
192
 0
VERTEX
 8
MESH_249_F0
 10
494.8401
 20
-430.3495
 30
-244
 70
192
 0
VERTEX
 8
MESH_249_F0
 10
496.3082
 20
-427.921
 30
-244
 70
192
 0
VERTEX
 8
MESH_249_F0
 10
497.4729
 20
-425.3332
 30
-244
 70
192
 0
VERTEX
 8
MESH_249_F0
 10
498.3171
 20
-422.6239
 30
-244
 70
192
 0
VERTEX
 8
MESH_249_F0
 10
498.8286
 20
-419.8326
 30
-244
 70
192
 0
VERTEX
 8
MESH_249_F0
 10
499
 20
-417
 30
-244
 70
192
 0
VERTEX
 8
MESH_249_F0
 10
499
 20
-417
 30
-240
 70
192
 0
VERTEX
 8
MESH_249_F0
 10
498.8286
 20
-419.8326
 30
-240
 70
192
 0
VERTEX
 8
MESH_249_F0
 10
498.3171
 20
-422.6239
 30
-240
 70
192
 0
VERTEX
 8
MESH_249_F0
 10
497.4729
 20
-425.3332
 30
-240
 70
192
 0
VERTEX
 8
MESH_249_F0
 10
496.3082
 20
-427.921
 30
-240
 70
192
 0
VERTEX
 8
MESH_249_F0
 10
494.8401
 20
-430.3495
 30
-240
 70
192
 0
VERTEX
 8
MESH_249_F0
 10
493.09
 20
-432.5834
 30
-240
 70
192
 0
VERTEX
 8
MESH_249_F0
 10
491.0834
 20
-434.59
 30
-240
 70
192
 0
VERTEX
 8
MESH_249_F0
 10
488.8495
 20
-436.3401
 30
-240
 70
192
 0
VERTEX
 8
MESH_249_F0
 10
486.421
 20
-437.8082
 30
-240
 70
192
 0
VERTEX
 8
MESH_249_F0
 10
483.8332
 20
-438.9729
 30
-240
 70
192
 0
VERTEX
 8
MESH_249_F0
 10
481.1239
 20
-439.8171
 30
-240
 70
192
 0
VERTEX
 8
MESH_249_F0
 10
478.3326
 20
-440.3286
 30
-240
 70
192
 0
VERTEX
 8
MESH_249_F0
 10
0
 20
0
 30
0
 70
128
 71
28
 72
2
 73
1
 74
1
 0
VERTEX
 8
MESH_249_F0
 10
0
 20
0
 30
0
 70
128
 71
3
 72
2
 73
28
 74
28
 0
VERTEX
 8
MESH_249_F0
 10
0
 20
0
 30
0
 70
128
 71
4
 72
3
 73
27
 74
27
 0
VERTEX
 8
MESH_249_F0
 10
0
 20
0
 30
0
 70
128
 71
5
 72
4
 73
26
 74
26
 0
VERTEX
 8
MESH_249_F0
 10
0
 20
0
 30
0
 70
128
 71
6
 72
5
 73
25
 74
25
 0
VERTEX
 8
MESH_249_F0
 10
0
 20
0
 30
0
 70
128
 71
7
 72
6
 73
24
 74
24
 0
VERTEX
 8
MESH_249_F0
 10
0
 20
0
 30
0
 70
128
 71
8
 72
7
 73
23
 74
23
 0
VERTEX
 8
MESH_249_F0
 10
0
 20
0
 30
0
 70
128
 71
9
 72
8
 73
22
 74
22
 0
VERTEX
 8
MESH_249_F0
 10
0
 20
0
 30
0
 70
128
 71
10
 72
9
 73
21
 74
21
 0
VERTEX
 8
MESH_249_F0
 10
0
 20
0
 30
0
 70
128
 71
11
 72
10
 73
20
 74
20
 0
VERTEX
 8
MESH_249_F0
 10
0
 20
0
 30
0
 70
128
 71
12
 72
11
 73
19
 74
19
 0
VERTEX
 8
MESH_249_F0
 10
0
 20
0
 30
0
 70
128
 71
13
 72
12
 73
18
 74
18
 0
VERTEX
 8
MESH_249_F0
 10
0
 20
0
 30
0
 70
128
 71
14
 72
13
 73
17
 74
17
 0
VERTEX
 8
MESH_249_F0
 10
0
 20
0
 30
0
 70
128
 71
15
 72
14
 73
16
 74
16
 0
VERTEX
 8
MESH_249_F0
 10
0
 20
0
 30
0
 70
128
 71
14
 72
17
 73
16
 74
16
 0
VERTEX
 8
MESH_249_F0
 10
0
 20
0
 30
0
 70
128
 71
13
 72
18
 73
17
 74
17
 0
VERTEX
 8
MESH_249_F0
 10
0
 20
0
 30
0
 70
128
 71
12
 72
19
 73
18
 74
18
 0
VERTEX
 8
MESH_249_F0
 10
0
 20
0
 30
0
 70
128
 71
11
 72
20
 73
19
 74
19
 0
VERTEX
 8
MESH_249_F0
 10
0
 20
0
 30
0
 70
128
 71
10
 72
21
 73
20
 74
20
 0
VERTEX
 8
MESH_249_F0
 10
0
 20
0
 30
0
 70
128
 71
9
 72
22
 73
21
 74
21
 0
VERTEX
 8
MESH_249_F0
 10
0
 20
0
 30
0
 70
128
 71
8
 72
23
 73
22
 74
22
 0
VERTEX
 8
MESH_249_F0
 10
0
 20
0
 30
0
 70
128
 71
7
 72
24
 73
23
 74
23
 0
VERTEX
 8
MESH_249_F0
 10
0
 20
0
 30
0
 70
128
 71
6
 72
25
 73
24
 74
24
 0
VERTEX
 8
MESH_249_F0
 10
0
 20
0
 30
0
 70
128
 71
5
 72
26
 73
25
 74
25
 0
VERTEX
 8
MESH_249_F0
 10
0
 20
0
 30
0
 70
128
 71
4
 72
27
 73
26
 74
26
 0
VERTEX
 8
MESH_249_F0
 10
0
 20
0
 30
0
 70
128
 71
3
 72
28
 73
27
 74
27
 0
SEQEND
 0
POLYLINE
 8
MESH_248_F0
 66
1
 10
0.0
 20
0.0
 30
0.0
 70
64
 71
4
 72
2
 0
VERTEX
 8
MESH_248_F0
 10
475.5
 20
-440.5
 30
-244
 70
192
 0
VERTEX
 8
MESH_248_F0
 10
475.5
 20
-440.5
 30
-240
 70
192
 0
VERTEX
 8
MESH_248_F0
 10
-475.5
 20
-440.5
 30
-240
 70
192
 0
VERTEX
 8
MESH_248_F0
 10
-475.5
 20
-440.5
 30
-244
 70
192
 0
VERTEX
 8
MESH_248_F0
 10
0
 20
0
 30
0
 70
128
 71
1
 72
3
 73
2
 74
2
 0
VERTEX
 8
MESH_248_F0
 10
0
 20
0
 30
0
 70
128
 71
4
 72
3
 73
1
 74
1
 0
SEQEND
 0
POLYLINE
 8
MESH_247_F0
 66
1
 10
0.0
 20
0.0
 30
0.0
 70
64
 71
28
 72
26
 0
VERTEX
 8
MESH_247_F0
 10
-499
 20
-417
 30
-240
 70
192
 0
VERTEX
 8
MESH_247_F0
 10
-499
 20
-417
 30
-244
 70
192
 0
VERTEX
 8
MESH_247_F0
 10
-498.8286
 20
-419.8326
 30
-244
 70
192
 0
VERTEX
 8
MESH_247_F0
 10
-498.3171
 20
-422.6239
 30
-244
 70
192
 0
VERTEX
 8
MESH_247_F0
 10
-497.4729
 20
-425.3332
 30
-244
 70
192
 0
VERTEX
 8
MESH_247_F0
 10
-496.3082
 20
-427.921
 30
-244
 70
192
 0
VERTEX
 8
MESH_247_F0
 10
-494.8401
 20
-430.3495
 30
-244
 70
192
 0
VERTEX
 8
MESH_247_F0
 10
-493.09
 20
-432.5834
 30
-244
 70
192
 0
VERTEX
 8
MESH_247_F0
 10
-491.0834
 20
-434.59
 30
-244
 70
192
 0
VERTEX
 8
MESH_247_F0
 10
-488.8495
 20
-436.3401
 30
-244
 70
192
 0
VERTEX
 8
MESH_247_F0
 10
-486.421
 20
-437.8082
 30
-244
 70
192
 0
VERTEX
 8
MESH_247_F0
 10
-483.8332
 20
-438.9729
 30
-244
 70
192
 0
VERTEX
 8
MESH_247_F0
 10
-481.1239
 20
-439.8171
 30
-244
 70
192
 0
VERTEX
 8
MESH_247_F0
 10
-478.3326
 20
-440.3286
 30
-244
 70
192
 0
VERTEX
 8
MESH_247_F0
 10
-475.5
 20
-440.5
 30
-244
 70
192
 0
VERTEX
 8
MESH_247_F0
 10
-475.5
 20
-440.5
 30
-240
 70
192
 0
VERTEX
 8
MESH_247_F0
 10
-478.3326
 20
-440.3286
 30
-240
 70
192
 0
VERTEX
 8
MESH_247_F0
 10
-481.1239
 20
-439.8171
 30
-240
 70
192
 0
VERTEX
 8
MESH_247_F0
 10
-483.8332
 20
-438.9729
 30
-240
 70
192
 0
VERTEX
 8
MESH_247_F0
 10
-486.421
 20
-437.8082
 30
-240
 70
192
 0
VERTEX
 8
MESH_247_F0
 10
-488.8495
 20
-436.3401
 30
-240
 70
192
 0
VERTEX
 8
MESH_247_F0
 10
-491.0834
 20
-434.59
 30
-240
 70
192
 0
VERTEX
 8
MESH_247_F0
 10
-493.09
 20
-432.5834
 30
-240
 70
192
 0
VERTEX
 8
MESH_247_F0
 10
-494.8401
 20
-430.3495
 30
-240
 70
192
 0
VERTEX
 8
MESH_247_F0
 10
-496.3082
 20
-427.921
 30
-240
 70
192
 0
VERTEX
 8
MESH_247_F0
 10
-497.4729
 20
-425.3332
 30
-240
 70
192
 0
VERTEX
 8
MESH_247_F0
 10
-498.3171
 20
-422.6239
 30
-240
 70
192
 0
VERTEX
 8
MESH_247_F0
 10
-498.8286
 20
-419.8326
 30
-240
 70
192
 0
VERTEX
 8
MESH_247_F0
 10
0
 20
0
 30
0
 70
128
 71
28
 72
2
 73
1
 74
1
 0
VERTEX
 8
MESH_247_F0
 10
0
 20
0
 30
0
 70
128
 71
3
 72
2
 73
28
 74
28
 0
VERTEX
 8
MESH_247_F0
 10
0
 20
0
 30
0
 70
128
 71
4
 72
3
 73
27
 74
27
 0
VERTEX
 8
MESH_247_F0
 10
0
 20
0
 30
0
 70
128
 71
5
 72
4
 73
26
 74
26
 0
VERTEX
 8
MESH_247_F0
 10
0
 20
0
 30
0
 70
128
 71
6
 72
5
 73
25
 74
25
 0
VERTEX
 8
MESH_247_F0
 10
0
 20
0
 30
0
 70
128
 71
7
 72
6
 73
24
 74
24
 0
VERTEX
 8
MESH_247_F0
 10
0
 20
0
 30
0
 70
128
 71
8
 72
7
 73
23
 74
23
 0
VERTEX
 8
MESH_247_F0
 10
0
 20
0
 30
0
 70
128
 71
9
 72
8
 73
22
 74
22
 0
VERTEX
 8
MESH_247_F0
 10
0
 20
0
 30
0
 70
128
 71
10
 72
9
 73
21
 74
21
 0
VERTEX
 8
MESH_247_F0
 10
0
 20
0
 30
0
 70
128
 71
11
 72
10
 73
20
 74
20
 0
VERTEX
 8
MESH_247_F0
 10
0
 20
0
 30
0
 70
128
 71
12
 72
11
 73
19
 74
19
 0
VERTEX
 8
MESH_247_F0
 10
0
 20
0
 30
0
 70
128
 71
13
 72
12
 73
18
 74
18
 0
VERTEX
 8
MESH_247_F0
 10
0
 20
0
 30
0
 70
128
 71
14
 72
13
 73
17
 74
17
 0
VERTEX
 8
MESH_247_F0
 10
0
 20
0
 30
0
 70
128
 71
15
 72
14
 73
16
 74
16
 0
VERTEX
 8
MESH_247_F0
 10
0
 20
0
 30
0
 70
128
 71
14
 72
17
 73
16
 74
16
 0
VERTEX
 8
MESH_247_F0
 10
0
 20
0
 30
0
 70
128
 71
13
 72
18
 73
17
 74
17
 0
VERTEX
 8
MESH_247_F0
 10
0
 20
0
 30
0
 70
128
 71
12
 72
19
 73
18
 74
18
 0
VERTEX
 8
MESH_247_F0
 10
0
 20
0
 30
0
 70
128
 71
11
 72
20
 73
19
 74
19
 0
VERTEX
 8
MESH_247_F0
 10
0
 20
0
 30
0
 70
128
 71
10
 72
21
 73
20
 74
20
 0
VERTEX
 8
MESH_247_F0
 10
0
 20
0
 30
0
 70
128
 71
9
 72
22
 73
21
 74
21
 0
VERTEX
 8
MESH_247_F0
 10
0
 20
0
 30
0
 70
128
 71
8
 72
23
 73
22
 74
22
 0
VERTEX
 8
MESH_247_F0
 10
0
 20
0
 30
0
 70
128
 71
7
 72
24
 73
23
 74
23
 0
VERTEX
 8
MESH_247_F0
 10
0
 20
0
 30
0
 70
128
 71
6
 72
25
 73
24
 74
24
 0
VERTEX
 8
MESH_247_F0
 10
0
 20
0
 30
0
 70
128
 71
5
 72
26
 73
25
 74
25
 0
VERTEX
 8
MESH_247_F0
 10
0
 20
0
 30
0
 70
128
 71
4
 72
27
 73
26
 74
26
 0
VERTEX
 8
MESH_247_F0
 10
0
 20
0
 30
0
 70
128
 71
3
 72
28
 73
27
 74
27
 0
SEQEND
 0
POLYLINE
 8
MESH_246_F0
 66
1
 10
0.0
 20
0.0
 30
0.0
 70
64
 71
4
 72
2
 0
VERTEX
 8
MESH_246_F0
 10
-499
 20
-412
 30
-244
 70
192
 0
VERTEX
 8
MESH_246_F0
 10
-499
 20
-417
 30
-244
 70
192
 0
VERTEX
 8
MESH_246_F0
 10
-499
 20
-417
 30
-240
 70
192
 0
VERTEX
 8
MESH_246_F0
 10
-499
 20
-412
 30
-240
 70
192
 0
VERTEX
 8
MESH_246_F0
 10
0
 20
0
 30
0
 70
128
 71
4
 72
2
 73
1
 74
1
 0
VERTEX
 8
MESH_246_F0
 10
0
 20
0
 30
0
 70
128
 71
3
 72
2
 73
4
 74
4
 0
SEQEND
 0
POLYLINE
 8
MESH_245_F0
 66
1
 10
0.0
 20
0.0
 30
0.0
 70
64
 71
30
 72
28
 0
VERTEX
 8
MESH_245_F0
 10
-499
 20
-412
 30
-240
 70
192
 0
VERTEX
 8
MESH_245_F0
 10
-499
 20
-417
 30
-240
 70
192
 0
VERTEX
 8
MESH_245_F0
 10
-498.8286
 20
-419.8326
 30
-240
 70
192
 0
VERTEX
 8
MESH_245_F0
 10
-498.3171
 20
-422.6239
 30
-240
 70
192
 0
VERTEX
 8
MESH_245_F0
 10
-497.4729
 20
-425.3332
 30
-240
 70
192
 0
VERTEX
 8
MESH_245_F0
 10
-496.3082
 20
-427.921
 30
-240
 70
192
 0
VERTEX
 8
MESH_245_F0
 10
-494.8401
 20
-430.3495
 30
-240
 70
192
 0
VERTEX
 8
MESH_245_F0
 10
-493.09
 20
-432.5834
 30
-240
 70
192
 0
VERTEX
 8
MESH_245_F0
 10
-491.0834
 20
-434.59
 30
-240
 70
192
 0
VERTEX
 8
MESH_245_F0
 10
-488.8495
 20
-436.3401
 30
-240
 70
192
 0
VERTEX
 8
MESH_245_F0
 10
-486.421
 20
-437.8082
 30
-240
 70
192
 0
VERTEX
 8
MESH_245_F0
 10
-483.8332
 20
-438.9729
 30
-240
 70
192
 0
VERTEX
 8
MESH_245_F0
 10
-481.1239
 20
-439.8171
 30
-240
 70
192
 0
VERTEX
 8
MESH_245_F0
 10
-478.3326
 20
-440.3286
 30
-240
 70
192
 0
VERTEX
 8
MESH_245_F0
 10
-475.5
 20
-440.5
 30
-240
 70
192
 0
VERTEX
 8
MESH_245_F0
 10
475.5
 20
-440.5
 30
-240
 70
192
 0
VERTEX
 8
MESH_245_F0
 10
478.3326
 20
-440.3286
 30
-240
 70
192
 0
VERTEX
 8
MESH_245_F0
 10
481.1239
 20
-439.8171
 30
-240
 70
192
 0
VERTEX
 8
MESH_245_F0
 10
483.8332
 20
-438.9729
 30
-240
 70
192
 0
VERTEX
 8
MESH_245_F0
 10
486.421
 20
-437.8082
 30
-240
 70
192
 0
VERTEX
 8
MESH_245_F0
 10
488.8495
 20
-436.3401
 30
-240
 70
192
 0
VERTEX
 8
MESH_245_F0
 10
491.0834
 20
-434.59
 30
-240
 70
192
 0
VERTEX
 8
MESH_245_F0
 10
493.09
 20
-432.5834
 30
-240
 70
192
 0
VERTEX
 8
MESH_245_F0
 10
494.8401
 20
-430.3495
 30
-240
 70
192
 0
VERTEX
 8
MESH_245_F0
 10
496.3082
 20
-427.921
 30
-240
 70
192
 0
VERTEX
 8
MESH_245_F0
 10
497.4729
 20
-425.3332
 30
-240
 70
192
 0
VERTEX
 8
MESH_245_F0
 10
498.3171
 20
-422.6239
 30
-240
 70
192
 0
VERTEX
 8
MESH_245_F0
 10
498.8286
 20
-419.8326
 30
-240
 70
192
 0
VERTEX
 8
MESH_245_F0
 10
499
 20
-417
 30
-240
 70
192
 0
VERTEX
 8
MESH_245_F0
 10
499
 20
-412
 30
-240
 70
192
 0
VERTEX
 8
MESH_245_F0
 10
0
 20
0
 30
0
 70
128
 71
1
 72
28
 73
2
 74
2
 0
VERTEX
 8
MESH_245_F0
 10
0
 20
0
 30
0
 70
128
 71
28
 72
3
 73
2
 74
2
 0
VERTEX
 8
MESH_245_F0
 10
0
 20
0
 30
0
 70
128
 71
4
 72
3
 73
28
 74
28
 0
VERTEX
 8
MESH_245_F0
 10
0
 20
0
 30
0
 70
128
 71
4
 72
28
 73
5
 74
5
 0
VERTEX
 8
MESH_245_F0
 10
0
 20
0
 30
0
 70
128
 71
28
 72
27
 73
5
 74
5
 0
VERTEX
 8
MESH_245_F0
 10
0
 20
0
 30
0
 70
128
 71
27
 72
6
 73
5
 74
5
 0
VERTEX
 8
MESH_245_F0
 10
0
 20
0
 30
0
 70
128
 71
7
 72
6
 73
27
 74
27
 0
VERTEX
 8
MESH_245_F0
 10
0
 20
0
 30
0
 70
128
 71
7
 72
27
 73
8
 74
8
 0
VERTEX
 8
MESH_245_F0
 10
0
 20
0
 30
0
 70
128
 71
27
 72
26
 73
8
 74
8
 0
VERTEX
 8
MESH_245_F0
 10
0
 20
0
 30
0
 70
128
 71
26
 72
9
 73
8
 74
8
 0
VERTEX
 8
MESH_245_F0
 10
0
 20
0
 30
0
 70
128
 71
25
 72
9
 73
26
 74
26
 0
VERTEX
 8
MESH_245_F0
 10
0
 20
0
 30
0
 70
128
 71
10
 72
9
 73
25
 74
25
 0
VERTEX
 8
MESH_245_F0
 10
0
 20
0
 30
0
 70
128
 71
10
 72
25
 73
11
 74
11
 0
VERTEX
 8
MESH_245_F0
 10
0
 20
0
 30
0
 70
128
 71
25
 72
12
 73
11
 74
11
 0
VERTEX
 8
MESH_245_F0
 10
0
 20
0
 30
0
 70
128
 71
15
 72
12
 73
25
 74
25
 0
VERTEX
 8
MESH_245_F0
 10
0
 20
0
 30
0
 70
128
 71
23
 72
15
 73
24
 74
24
 0
VERTEX
 8
MESH_245_F0
 10
0
 20
0
 30
0
 70
128
 71
15
 72
25
 73
24
 74
24
 0
VERTEX
 8
MESH_245_F0
 10
0
 20
0
 30
0
 70
128
 71
15
 72
13
 73
12
 74
12
 0
VERTEX
 8
MESH_245_F0
 10
0
 20
0
 30
0
 70
128
 71
14
 72
13
 73
15
 74
15
 0
VERTEX
 8
MESH_245_F0
 10
0
 20
0
 30
0
 70
128
 71
16
 72
18
 73
17
 74
17
 0
VERTEX
 8
MESH_245_F0
 10
0
 20
0
 30
0
 70
128
 71
19
 72
18
 73
16
 74
16
 0
VERTEX
 8
MESH_245_F0
 10
0
 20
0
 30
0
 70
128
 71
20
 72
19
 73
15
 74
15
 0
VERTEX
 8
MESH_245_F0
 10
0
 20
0
 30
0
 70
128
 71
20
 72
15
 73
21
 74
21
 0
VERTEX
 8
MESH_245_F0
 10
0
 20
0
 30
0
 70
128
 71
15
 72
22
 73
21
 74
21
 0
VERTEX
 8
MESH_245_F0
 10
0
 20
0
 30
0
 70
128
 71
23
 72
22
 73
15
 74
15
 0
VERTEX
 8
MESH_245_F0
 10
0
 20
0
 30
0
 70
128
 71
1
 72
29
 73
28
 74
28
 0
VERTEX
 8
MESH_245_F0
 10
0
 20
0
 30
0
 70
128
 71
30
 72
29
 73
1
 74
1
 0
VERTEX
 8
MESH_245_F0
 10
0
 20
0
 30
0
 70
128
 71
15
 72
19
 73
16
 74
16
 0
SEQEND
 0
POLYLINE
 8
MESH_244_F0
 66
1
 10
0.0
 20
0.0
 30
0.0
 70
64
 71
4
 72
2
 0
VERTEX
 8
MESH_244_F0
 10
499
 20
-412
 30
-240
 70
192
 0
VERTEX
 8
MESH_244_F0
 10
499
 20
-417
 30
-240
 70
192
 0
VERTEX
 8
MESH_244_F0
 10
499
 20
-417
 30
-244
 70
192
 0
VERTEX
 8
MESH_244_F0
 10
499
 20
-412
 30
-244
 70
192
 0
VERTEX
 8
MESH_244_F0
 10
0
 20
0
 30
0
 70
128
 71
4
 72
2
 73
1
 74
1
 0
VERTEX
 8
MESH_244_F0
 10
0
 20
0
 30
0
 70
128
 71
3
 72
2
 73
4
 74
4
 0
SEQEND
 0
POLYLINE
 8
MESH_243_F0
 66
1
 10
0.0
 20
0.0
 30
0.0
 70
64
 71
28
 72
26
 0
VERTEX
 8
MESH_243_F0
 10
475.5
 20
-440
 30
-244
 70
192
 0
VERTEX
 8
MESH_243_F0
 10
475.5
 20
-440
 30
-474
 70
192
 0
VERTEX
 8
MESH_243_F0
 10
478.2723
 20
-439.8323
 30
-474
 70
192
 0
VERTEX
 8
MESH_243_F0
 10
481.0042
 20
-439.3317
 30
-474
 70
192
 0
VERTEX
 8
MESH_243_F0
 10
483.6559
 20
-438.5053
 30
-474
 70
192
 0
VERTEX
 8
MESH_243_F0
 10
486.1886
 20
-437.3655
 30
-474
 70
192
 0
VERTEX
 8
MESH_243_F0
 10
488.5655
 20
-435.9286
 30
-474
 70
192
 0
VERTEX
 8
MESH_243_F0
 10
490.7518
 20
-434.2157
 30
-474
 70
192
 0
VERTEX
 8
MESH_243_F0
 10
492.7158
 20
-432.2518
 30
-474
 70
192
 0
VERTEX
 8
MESH_243_F0
 10
494.4286
 20
-430.0655
 30
-474
 70
192
 0
VERTEX
 8
MESH_243_F0
 10
495.8654
 20
-427.6886
 30
-474
 70
192
 0
VERTEX
 8
MESH_243_F0
 10
497.0054
 20
-425.1559
 30
-474
 70
192
 0
VERTEX
 8
MESH_243_F0
 10
497.8317
 20
-422.5042
 30
-474
 70
192
 0
VERTEX
 8
MESH_243_F0
 10
498.3323
 20
-419.7723
 30
-474
 70
192
 0
VERTEX
 8
MESH_243_F0
 10
498.5
 20
-417
 30
-474
 70
192
 0
VERTEX
 8
MESH_243_F0
 10
498.5
 20
-417
 30
-244
 70
192
 0
VERTEX
 8
MESH_243_F0
 10
498.3323
 20
-419.7723
 30
-244
 70
192
 0
VERTEX
 8
MESH_243_F0
 10
497.8317
 20
-422.5042
 30
-244
 70
192
 0
VERTEX
 8
MESH_243_F0
 10
497.0054
 20
-425.1559
 30
-244
 70
192
 0
VERTEX
 8
MESH_243_F0
 10
495.8654
 20
-427.6886
 30
-244
 70
192
 0
VERTEX
 8
MESH_243_F0
 10
494.4286
 20
-430.0655
 30
-244
 70
192
 0
VERTEX
 8
MESH_243_F0
 10
492.7158
 20
-432.2518
 30
-244
 70
192
 0
VERTEX
 8
MESH_243_F0
 10
490.7518
 20
-434.2157
 30
-244
 70
192
 0
VERTEX
 8
MESH_243_F0
 10
488.5655
 20
-435.9286
 30
-244
 70
192
 0
VERTEX
 8
MESH_243_F0
 10
486.1886
 20
-437.3655
 30
-244
 70
192
 0
VERTEX
 8
MESH_243_F0
 10
483.6559
 20
-438.5053
 30
-244
 70
192
 0
VERTEX
 8
MESH_243_F0
 10
481.0042
 20
-439.3317
 30
-244
 70
192
 0
VERTEX
 8
MESH_243_F0
 10
478.2723
 20
-439.8323
 30
-244
 70
192
 0
VERTEX
 8
MESH_243_F0
 10
0
 20
0
 30
0
 70
128
 71
28
 72
2
 73
1
 74
1
 0
VERTEX
 8
MESH_243_F0
 10
0
 20
0
 30
0
 70
128
 71
3
 72
2
 73
28
 74
28
 0
VERTEX
 8
MESH_243_F0
 10
0
 20
0
 30
0
 70
128
 71
4
 72
3
 73
27
 74
27
 0
VERTEX
 8
MESH_243_F0
 10
0
 20
0
 30
0
 70
128
 71
5
 72
4
 73
26
 74
26
 0
VERTEX
 8
MESH_243_F0
 10
0
 20
0
 30
0
 70
128
 71
6
 72
5
 73
25
 74
25
 0
VERTEX
 8
MESH_243_F0
 10
0
 20
0
 30
0
 70
128
 71
7
 72
6
 73
24
 74
24
 0
VERTEX
 8
MESH_243_F0
 10
0
 20
0
 30
0
 70
128
 71
8
 72
7
 73
23
 74
23
 0
VERTEX
 8
MESH_243_F0
 10
0
 20
0
 30
0
 70
128
 71
9
 72
8
 73
22
 74
22
 0
VERTEX
 8
MESH_243_F0
 10
0
 20
0
 30
0
 70
128
 71
10
 72
9
 73
21
 74
21
 0
VERTEX
 8
MESH_243_F0
 10
0
 20
0
 30
0
 70
128
 71
11
 72
10
 73
20
 74
20
 0
VERTEX
 8
MESH_243_F0
 10
0
 20
0
 30
0
 70
128
 71
12
 72
11
 73
19
 74
19
 0
VERTEX
 8
MESH_243_F0
 10
0
 20
0
 30
0
 70
128
 71
13
 72
12
 73
18
 74
18
 0
VERTEX
 8
MESH_243_F0
 10
0
 20
0
 30
0
 70
128
 71
14
 72
13
 73
17
 74
17
 0
VERTEX
 8
MESH_243_F0
 10
0
 20
0
 30
0
 70
128
 71
15
 72
14
 73
16
 74
16
 0
VERTEX
 8
MESH_243_F0
 10
0
 20
0
 30
0
 70
128
 71
14
 72
17
 73
16
 74
16
 0
VERTEX
 8
MESH_243_F0
 10
0
 20
0
 30
0
 70
128
 71
13
 72
18
 73
17
 74
17
 0
VERTEX
 8
MESH_243_F0
 10
0
 20
0
 30
0
 70
128
 71
12
 72
19
 73
18
 74
18
 0
VERTEX
 8
MESH_243_F0
 10
0
 20
0
 30
0
 70
128
 71
11
 72
20
 73
19
 74
19
 0
VERTEX
 8
MESH_243_F0
 10
0
 20
0
 30
0
 70
128
 71
10
 72
21
 73
20
 74
20
 0
VERTEX
 8
MESH_243_F0
 10
0
 20
0
 30
0
 70
128
 71
9
 72
22
 73
21
 74
21
 0
VERTEX
 8
MESH_243_F0
 10
0
 20
0
 30
0
 70
128
 71
8
 72
23
 73
22
 74
22
 0
VERTEX
 8
MESH_243_F0
 10
0
 20
0
 30
0
 70
128
 71
7
 72
24
 73
23
 74
23
 0
VERTEX
 8
MESH_243_F0
 10
0
 20
0
 30
0
 70
128
 71
6
 72
25
 73
24
 74
24
 0
VERTEX
 8
MESH_243_F0
 10
0
 20
0
 30
0
 70
128
 71
5
 72
26
 73
25
 74
25
 0
VERTEX
 8
MESH_243_F0
 10
0
 20
0
 30
0
 70
128
 71
4
 72
27
 73
26
 74
26
 0
VERTEX
 8
MESH_243_F0
 10
0
 20
0
 30
0
 70
128
 71
3
 72
28
 73
27
 74
27
 0
SEQEND
 0
POLYLINE
 8
MESH_242_F0
 66
1
 10
0.0
 20
0.0
 30
0.0
 70
64
 71
4
 72
2
 0
VERTEX
 8
MESH_242_F0
 10
-475.5
 20
-440
 30
-244
 70
192
 0
VERTEX
 8
MESH_242_F0
 10
-475.5
 20
-440
 30
-474
 70
192
 0
VERTEX
 8
MESH_242_F0
 10
475.5
 20
-440
 30
-474
 70
192
 0
VERTEX
 8
MESH_242_F0
 10
475.5
 20
-440
 30
-244
 70
192
 0
VERTEX
 8
MESH_242_F0
 10
0
 20
0
 30
0
 70
128
 71
1
 72
3
 73
2
 74
2
 0
VERTEX
 8
MESH_242_F0
 10
0
 20
0
 30
0
 70
128
 71
4
 72
3
 73
1
 74
1
 0
SEQEND
 0
POLYLINE
 8
MESH_241_F0
 66
1
 10
0.0
 20
0.0
 30
0.0
 70
64
 71
28
 72
26
 0
VERTEX
 8
MESH_241_F0
 10
-498.5
 20
-417
 30
-244
 70
192
 0
VERTEX
 8
MESH_241_F0
 10
-498.5
 20
-417
 30
-474
 70
192
 0
VERTEX
 8
MESH_241_F0
 10
-498.3323
 20
-419.7723
 30
-474
 70
192
 0
VERTEX
 8
MESH_241_F0
 10
-497.8317
 20
-422.5042
 30
-474
 70
192
 0
VERTEX
 8
MESH_241_F0
 10
-497.0054
 20
-425.1559
 30
-474
 70
192
 0
VERTEX
 8
MESH_241_F0
 10
-495.8654
 20
-427.6886
 30
-474
 70
192
 0
VERTEX
 8
MESH_241_F0
 10
-494.4286
 20
-430.0655
 30
-474
 70
192
 0
VERTEX
 8
MESH_241_F0
 10
-492.7158
 20
-432.2518
 30
-474
 70
192
 0
VERTEX
 8
MESH_241_F0
 10
-490.7518
 20
-434.2157
 30
-474
 70
192
 0
VERTEX
 8
MESH_241_F0
 10
-488.5655
 20
-435.9286
 30
-474
 70
192
 0
VERTEX
 8
MESH_241_F0
 10
-486.1886
 20
-437.3655
 30
-474
 70
192
 0
VERTEX
 8
MESH_241_F0
 10
-483.6559
 20
-438.5053
 30
-474
 70
192
 0
VERTEX
 8
MESH_241_F0
 10
-481.0042
 20
-439.3317
 30
-474
 70
192
 0
VERTEX
 8
MESH_241_F0
 10
-478.2723
 20
-439.8323
 30
-474
 70
192
 0
VERTEX
 8
MESH_241_F0
 10
-475.5
 20
-440
 30
-474
 70
192
 0
VERTEX
 8
MESH_241_F0
 10
-475.5
 20
-440
 30
-244
 70
192
 0
VERTEX
 8
MESH_241_F0
 10
-478.2723
 20
-439.8323
 30
-244
 70
192
 0
VERTEX
 8
MESH_241_F0
 10
-481.0042
 20
-439.3317
 30
-244
 70
192
 0
VERTEX
 8
MESH_241_F0
 10
-483.6559
 20
-438.5053
 30
-244
 70
192
 0
VERTEX
 8
MESH_241_F0
 10
-486.1886
 20
-437.3655
 30
-244
 70
192
 0
VERTEX
 8
MESH_241_F0
 10
-488.5655
 20
-435.9286
 30
-244
 70
192
 0
VERTEX
 8
MESH_241_F0
 10
-490.7518
 20
-434.2157
 30
-244
 70
192
 0
VERTEX
 8
MESH_241_F0
 10
-492.7158
 20
-432.2518
 30
-244
 70
192
 0
VERTEX
 8
MESH_241_F0
 10
-494.4286
 20
-430.0655
 30
-244
 70
192
 0
VERTEX
 8
MESH_241_F0
 10
-495.8654
 20
-427.6886
 30
-244
 70
192
 0
VERTEX
 8
MESH_241_F0
 10
-497.0054
 20
-425.1559
 30
-244
 70
192
 0
VERTEX
 8
MESH_241_F0
 10
-497.8317
 20
-422.5042
 30
-244
 70
192
 0
VERTEX
 8
MESH_241_F0
 10
-498.3323
 20
-419.7723
 30
-244
 70
192
 0
VERTEX
 8
MESH_241_F0
 10
0
 20
0
 30
0
 70
128
 71
28
 72
2
 73
1
 74
1
 0
VERTEX
 8
MESH_241_F0
 10
0
 20
0
 30
0
 70
128
 71
3
 72
2
 73
28
 74
28
 0
VERTEX
 8
MESH_241_F0
 10
0
 20
0
 30
0
 70
128
 71
4
 72
3
 73
27
 74
27
 0
VERTEX
 8
MESH_241_F0
 10
0
 20
0
 30
0
 70
128
 71
5
 72
4
 73
26
 74
26
 0
VERTEX
 8
MESH_241_F0
 10
0
 20
0
 30
0
 70
128
 71
6
 72
5
 73
25
 74
25
 0
VERTEX
 8
MESH_241_F0
 10
0
 20
0
 30
0
 70
128
 71
7
 72
6
 73
24
 74
24
 0
VERTEX
 8
MESH_241_F0
 10
0
 20
0
 30
0
 70
128
 71
8
 72
7
 73
23
 74
23
 0
VERTEX
 8
MESH_241_F0
 10
0
 20
0
 30
0
 70
128
 71
9
 72
8
 73
22
 74
22
 0
VERTEX
 8
MESH_241_F0
 10
0
 20
0
 30
0
 70
128
 71
10
 72
9
 73
21
 74
21
 0
VERTEX
 8
MESH_241_F0
 10
0
 20
0
 30
0
 70
128
 71
11
 72
10
 73
20
 74
20
 0
VERTEX
 8
MESH_241_F0
 10
0
 20
0
 30
0
 70
128
 71
12
 72
11
 73
19
 74
19
 0
VERTEX
 8
MESH_241_F0
 10
0
 20
0
 30
0
 70
128
 71
13
 72
12
 73
18
 74
18
 0
VERTEX
 8
MESH_241_F0
 10
0
 20
0
 30
0
 70
128
 71
14
 72
13
 73
17
 74
17
 0
VERTEX
 8
MESH_241_F0
 10
0
 20
0
 30
0
 70
128
 71
15
 72
14
 73
16
 74
16
 0
VERTEX
 8
MESH_241_F0
 10
0
 20
0
 30
0
 70
128
 71
14
 72
17
 73
16
 74
16
 0
VERTEX
 8
MESH_241_F0
 10
0
 20
0
 30
0
 70
128
 71
13
 72
18
 73
17
 74
17
 0
VERTEX
 8
MESH_241_F0
 10
0
 20
0
 30
0
 70
128
 71
12
 72
19
 73
18
 74
18
 0
VERTEX
 8
MESH_241_F0
 10
0
 20
0
 30
0
 70
128
 71
11
 72
20
 73
19
 74
19
 0
VERTEX
 8
MESH_241_F0
 10
0
 20
0
 30
0
 70
128
 71
10
 72
21
 73
20
 74
20
 0
VERTEX
 8
MESH_241_F0
 10
0
 20
0
 30
0
 70
128
 71
9
 72
22
 73
21
 74
21
 0
VERTEX
 8
MESH_241_F0
 10
0
 20
0
 30
0
 70
128
 71
8
 72
23
 73
22
 74
22
 0
VERTEX
 8
MESH_241_F0
 10
0
 20
0
 30
0
 70
128
 71
7
 72
24
 73
23
 74
23
 0
VERTEX
 8
MESH_241_F0
 10
0
 20
0
 30
0
 70
128
 71
6
 72
25
 73
24
 74
24
 0
VERTEX
 8
MESH_241_F0
 10
0
 20
0
 30
0
 70
128
 71
5
 72
26
 73
25
 74
25
 0
VERTEX
 8
MESH_241_F0
 10
0
 20
0
 30
0
 70
128
 71
4
 72
27
 73
26
 74
26
 0
VERTEX
 8
MESH_241_F0
 10
0
 20
0
 30
0
 70
128
 71
3
 72
28
 73
27
 74
27
 0
SEQEND
 0
POLYLINE
 8
MESH_240_F0
 66
1
 10
0.0
 20
0.0
 30
0.0
 70
64
 71
4
 72
2
 0
VERTEX
 8
MESH_240_F0
 10
-498.5
 20
-412
 30
-474
 70
192
 0
VERTEX
 8
MESH_240_F0
 10
-498.5
 20
-417
 30
-474
 70
192
 0
VERTEX
 8
MESH_240_F0
 10
-498.5
 20
-417
 30
-244
 70
192
 0
VERTEX
 8
MESH_240_F0
 10
-498.5
 20
-412
 30
-244
 70
192
 0
VERTEX
 8
MESH_240_F0
 10
0
 20
0
 30
0
 70
128
 71
4
 72
2
 73
1
 74
1
 0
VERTEX
 8
MESH_240_F0
 10
0
 20
0
 30
0
 70
128
 71
3
 72
2
 73
4
 74
4
 0
SEQEND
 0
POLYLINE
 8
MESH_239_F0
 66
1
 10
0.0
 20
0.0
 30
0.0
 70
64
 71
60
 72
58
 0
VERTEX
 8
MESH_239_F0
 10
-498.5
 20
-412
 30
-244
 70
192
 0
VERTEX
 8
MESH_239_F0
 10
-498.5
 20
-417
 30
-244
 70
192
 0
VERTEX
 8
MESH_239_F0
 10
-498.3323
 20
-419.7723
 30
-244
 70
192
 0
VERTEX
 8
MESH_239_F0
 10
-497.8317
 20
-422.5042
 30
-244
 70
192
 0
VERTEX
 8
MESH_239_F0
 10
-497.0054
 20
-425.1559
 30
-244
 70
192
 0
VERTEX
 8
MESH_239_F0
 10
-495.8654
 20
-427.6886
 30
-244
 70
192
 0
VERTEX
 8
MESH_239_F0
 10
-494.4286
 20
-430.0655
 30
-244
 70
192
 0
VERTEX
 8
MESH_239_F0
 10
-492.7158
 20
-432.2518
 30
-244
 70
192
 0
VERTEX
 8
MESH_239_F0
 10
-490.7518
 20
-434.2157
 30
-244
 70
192
 0
VERTEX
 8
MESH_239_F0
 10
-488.5655
 20
-435.9286
 30
-244
 70
192
 0
VERTEX
 8
MESH_239_F0
 10
-486.1886
 20
-437.3655
 30
-244
 70
192
 0
VERTEX
 8
MESH_239_F0
 10
-483.6559
 20
-438.5053
 30
-244
 70
192
 0
VERTEX
 8
MESH_239_F0
 10
-481.0042
 20
-439.3317
 30
-244
 70
192
 0
VERTEX
 8
MESH_239_F0
 10
-478.2723
 20
-439.8323
 30
-244
 70
192
 0
VERTEX
 8
MESH_239_F0
 10
-475.5
 20
-440
 30
-244
 70
192
 0
VERTEX
 8
MESH_239_F0
 10
475.5
 20
-440
 30
-244
 70
192
 0
VERTEX
 8
MESH_239_F0
 10
478.2723
 20
-439.8323
 30
-244
 70
192
 0
VERTEX
 8
MESH_239_F0
 10
481.0042
 20
-439.3317
 30
-244
 70
192
 0
VERTEX
 8
MESH_239_F0
 10
483.6559
 20
-438.5053
 30
-244
 70
192
 0
VERTEX
 8
MESH_239_F0
 10
486.1886
 20
-437.3655
 30
-244
 70
192
 0
VERTEX
 8
MESH_239_F0
 10
488.5655
 20
-435.9286
 30
-244
 70
192
 0
VERTEX
 8
MESH_239_F0
 10
490.7518
 20
-434.2157
 30
-244
 70
192
 0
VERTEX
 8
MESH_239_F0
 10
492.7158
 20
-432.2518
 30
-244
 70
192
 0
VERTEX
 8
MESH_239_F0
 10
494.4286
 20
-430.0655
 30
-244
 70
192
 0
VERTEX
 8
MESH_239_F0
 10
495.8654
 20
-427.6886
 30
-244
 70
192
 0
VERTEX
 8
MESH_239_F0
 10
497.0054
 20
-425.1559
 30
-244
 70
192
 0
VERTEX
 8
MESH_239_F0
 10
497.8317
 20
-422.5042
 30
-244
 70
192
 0
VERTEX
 8
MESH_239_F0
 10
498.3323
 20
-419.7723
 30
-244
 70
192
 0
VERTEX
 8
MESH_239_F0
 10
498.5
 20
-417
 30
-244
 70
192
 0
VERTEX
 8
MESH_239_F0
 10
498.5
 20
-412
 30
-244
 70
192
 0
VERTEX
 8
MESH_239_F0
 10
499
 20
-412
 30
-244
 70
192
 0
VERTEX
 8
MESH_239_F0
 10
499
 20
-417
 30
-244
 70
192
 0
VERTEX
 8
MESH_239_F0
 10
498.8286
 20
-419.8326
 30
-244
 70
192
 0
VERTEX
 8
MESH_239_F0
 10
498.3171
 20
-422.6239
 30
-244
 70
192
 0
VERTEX
 8
MESH_239_F0
 10
497.4729
 20
-425.3332
 30
-244
 70
192
 0
VERTEX
 8
MESH_239_F0
 10
496.3082
 20
-427.921
 30
-244
 70
192
 0
VERTEX
 8
MESH_239_F0
 10
494.8401
 20
-430.3495
 30
-244
 70
192
 0
VERTEX
 8
MESH_239_F0
 10
493.09
 20
-432.5834
 30
-244
 70
192
 0
VERTEX
 8
MESH_239_F0
 10
491.0834
 20
-434.59
 30
-244
 70
192
 0
VERTEX
 8
MESH_239_F0
 10
488.8495
 20
-436.3401
 30
-244
 70
192
 0
VERTEX
 8
MESH_239_F0
 10
486.421
 20
-437.8082
 30
-244
 70
192
 0
VERTEX
 8
MESH_239_F0
 10
483.8332
 20
-438.9729
 30
-244
 70
192
 0
VERTEX
 8
MESH_239_F0
 10
481.1239
 20
-439.8171
 30
-244
 70
192
 0
VERTEX
 8
MESH_239_F0
 10
478.3326
 20
-440.3286
 30
-244
 70
192
 0
VERTEX
 8
MESH_239_F0
 10
475.5
 20
-440.5
 30
-244
 70
192
 0
VERTEX
 8
MESH_239_F0
 10
-475.5
 20
-440.5
 30
-244
 70
192
 0
VERTEX
 8
MESH_239_F0
 10
-478.3326
 20
-440.3286
 30
-244
 70
192
 0
VERTEX
 8
MESH_239_F0
 10
-481.1239
 20
-439.8171
 30
-244
 70
192
 0
VERTEX
 8
MESH_239_F0
 10
-483.8332
 20
-438.9729
 30
-244
 70
192
 0
VERTEX
 8
MESH_239_F0
 10
-486.421
 20
-437.8082
 30
-244
 70
192
 0
VERTEX
 8
MESH_239_F0
 10
-488.8495
 20
-436.3401
 30
-244
 70
192
 0
VERTEX
 8
MESH_239_F0
 10
-491.0834
 20
-434.59
 30
-244
 70
192
 0
VERTEX
 8
MESH_239_F0
 10
-493.09
 20
-432.5834
 30
-244
 70
192
 0
VERTEX
 8
MESH_239_F0
 10
-494.8401
 20
-430.3495
 30
-244
 70
192
 0
VERTEX
 8
MESH_239_F0
 10
-496.3082
 20
-427.921
 30
-244
 70
192
 0
VERTEX
 8
MESH_239_F0
 10
-497.4729
 20
-425.3332
 30
-244
 70
192
 0
VERTEX
 8
MESH_239_F0
 10
-498.3171
 20
-422.6239
 30
-244
 70
192
 0
VERTEX
 8
MESH_239_F0
 10
-498.8286
 20
-419.8326
 30
-244
 70
192
 0
VERTEX
 8
MESH_239_F0
 10
-499
 20
-417
 30
-244
 70
192
 0
VERTEX
 8
MESH_239_F0
 10
-499
 20
-412
 30
-244
 70
192
 0
VERTEX
 8
MESH_239_F0
 10
0
 20
0
 30
0
 70
128
 71
60
 72
2
 73
1
 74
1
 0
VERTEX
 8
MESH_239_F0
 10
0
 20
0
 30
0
 70
128
 71
59
 72
2
 73
60
 74
60
 0
VERTEX
 8
MESH_239_F0
 10
0
 20
0
 30
0
 70
128
 71
58
 72
2
 73
59
 74
59
 0
VERTEX
 8
MESH_239_F0
 10
0
 20
0
 30
0
 70
128
 71
3
 72
2
 73
58
 74
58
 0
VERTEX
 8
MESH_239_F0
 10
0
 20
0
 30
0
 70
128
 71
3
 72
58
 73
4
 74
4
 0
VERTEX
 8
MESH_239_F0
 10
0
 20
0
 30
0
 70
128
 71
58
 72
57
 73
4
 74
4
 0
VERTEX
 8
MESH_239_F0
 10
0
 20
0
 30
0
 70
128
 71
57
 72
5
 73
4
 74
4
 0
VERTEX
 8
MESH_239_F0
 10
0
 20
0
 30
0
 70
128
 71
56
 72
5
 73
57
 74
57
 0
VERTEX
 8
MESH_239_F0
 10
0
 20
0
 30
0
 70
128
 71
6
 72
5
 73
56
 74
56
 0
VERTEX
 8
MESH_239_F0
 10
0
 20
0
 30
0
 70
128
 71
7
 72
6
 73
55
 74
55
 0
VERTEX
 8
MESH_239_F0
 10
0
 20
0
 30
0
 70
128
 71
8
 72
7
 73
54
 74
54
 0
VERTEX
 8
MESH_239_F0
 10
0
 20
0
 30
0
 70
128
 71
9
 72
8
 73
53
 74
53
 0
VERTEX
 8
MESH_239_F0
 10
0
 20
0
 30
0
 70
128
 71
10
 72
9
 73
52
 74
52
 0
VERTEX
 8
MESH_239_F0
 10
0
 20
0
 30
0
 70
128
 71
11
 72
10
 73
51
 74
51
 0
VERTEX
 8
MESH_239_F0
 10
0
 20
0
 30
0
 70
128
 71
12
 72
11
 73
50
 74
50
 0
VERTEX
 8
MESH_239_F0
 10
0
 20
0
 30
0
 70
128
 71
13
 72
12
 73
49
 74
49
 0
VERTEX
 8
MESH_239_F0
 10
0
 20
0
 30
0
 70
128
 71
14
 72
13
 73
48
 74
48
 0
VERTEX
 8
MESH_239_F0
 10
0
 20
0
 30
0
 70
128
 71
14
 72
48
 73
15
 74
15
 0
VERTEX
 8
MESH_239_F0
 10
0
 20
0
 30
0
 70
128
 71
48
 72
47
 73
15
 74
15
 0
VERTEX
 8
MESH_239_F0
 10
0
 20
0
 30
0
 70
128
 71
47
 72
46
 73
15
 74
15
 0
VERTEX
 8
MESH_239_F0
 10
0
 20
0
 30
0
 70
128
 71
46
 72
45
 73
15
 74
15
 0
VERTEX
 8
MESH_239_F0
 10
0
 20
0
 30
0
 70
128
 71
45
 72
16
 73
15
 74
15
 0
VERTEX
 8
MESH_239_F0
 10
0
 20
0
 30
0
 70
128
 71
44
 72
16
 73
45
 74
45
 0
VERTEX
 8
MESH_239_F0
 10
0
 20
0
 30
0
 70
128
 71
43
 72
16
 73
44
 74
44
 0
VERTEX
 8
MESH_239_F0
 10
0
 20
0
 30
0
 70
128
 71
17
 72
16
 73
43
 74
43
 0
VERTEX
 8
MESH_239_F0
 10
0
 20
0
 30
0
 70
128
 71
17
 72
43
 73
18
 74
18
 0
VERTEX
 8
MESH_239_F0
 10
0
 20
0
 30
0
 70
128
 71
43
 72
42
 73
18
 74
18
 0
VERTEX
 8
MESH_239_F0
 10
0
 20
0
 30
0
 70
128
 71
42
 72
19
 73
18
 74
18
 0
VERTEX
 8
MESH_239_F0
 10
0
 20
0
 30
0
 70
128
 71
41
 72
19
 73
42
 74
42
 0
VERTEX
 8
MESH_239_F0
 10
0
 20
0
 30
0
 70
128
 71
20
 72
19
 73
41
 74
41
 0
VERTEX
 8
MESH_239_F0
 10
0
 20
0
 30
0
 70
128
 71
21
 72
20
 73
40
 74
40
 0
VERTEX
 8
MESH_239_F0
 10
0
 20
0
 30
0
 70
128
 71
22
 72
21
 73
39
 74
39
 0
VERTEX
 8
MESH_239_F0
 10
0
 20
0
 30
0
 70
128
 71
23
 72
22
 73
38
 74
38
 0
VERTEX
 8
MESH_239_F0
 10
0
 20
0
 30
0
 70
128
 71
24
 72
23
 73
37
 74
37
 0
VERTEX
 8
MESH_239_F0
 10
0
 20
0
 30
0
 70
128
 71
25
 72
24
 73
36
 74
36
 0
VERTEX
 8
MESH_239_F0
 10
0
 20
0
 30
0
 70
128
 71
26
 72
25
 73
35
 74
35
 0
VERTEX
 8
MESH_239_F0
 10
0
 20
0
 30
0
 70
128
 71
27
 72
26
 73
34
 74
34
 0
VERTEX
 8
MESH_239_F0
 10
0
 20
0
 30
0
 70
128
 71
28
 72
27
 73
33
 74
33
 0
VERTEX
 8
MESH_239_F0
 10
0
 20
0
 30
0
 70
128
 71
28
 72
33
 73
29
 74
29
 0
VERTEX
 8
MESH_239_F0
 10
0
 20
0
 30
0
 70
128
 71
33
 72
32
 73
29
 74
29
 0
VERTEX
 8
MESH_239_F0
 10
0
 20
0
 30
0
 70
128
 71
32
 72
30
 73
29
 74
29
 0
VERTEX
 8
MESH_239_F0
 10
0
 20
0
 30
0
 70
128
 71
31
 72
30
 73
32
 74
32
 0
VERTEX
 8
MESH_239_F0
 10
0
 20
0
 30
0
 70
128
 71
27
 72
34
 73
33
 74
33
 0
VERTEX
 8
MESH_239_F0
 10
0
 20
0
 30
0
 70
128
 71
26
 72
35
 73
34
 74
34
 0
VERTEX
 8
MESH_239_F0
 10
0
 20
0
 30
0
 70
128
 71
25
 72
36
 73
35
 74
35
 0
VERTEX
 8
MESH_239_F0
 10
0
 20
0
 30
0
 70
128
 71
24
 72
37
 73
36
 74
36
 0
VERTEX
 8
MESH_239_F0
 10
0
 20
0
 30
0
 70
128
 71
23
 72
38
 73
37
 74
37
 0
VERTEX
 8
MESH_239_F0
 10
0
 20
0
 30
0
 70
128
 71
22
 72
39
 73
38
 74
38
 0
VERTEX
 8
MESH_239_F0
 10
0
 20
0
 30
0
 70
128
 71
21
 72
40
 73
39
 74
39
 0
VERTEX
 8
MESH_239_F0
 10
0
 20
0
 30
0
 70
128
 71
20
 72
41
 73
40
 74
40
 0
VERTEX
 8
MESH_239_F0
 10
0
 20
0
 30
0
 70
128
 71
13
 72
49
 73
48
 74
48
 0
VERTEX
 8
MESH_239_F0
 10
0
 20
0
 30
0
 70
128
 71
12
 72
50
 73
49
 74
49
 0
VERTEX
 8
MESH_239_F0
 10
0
 20
0
 30
0
 70
128
 71
11
 72
51
 73
50
 74
50
 0
VERTEX
 8
MESH_239_F0
 10
0
 20
0
 30
0
 70
128
 71
10
 72
52
 73
51
 74
51
 0
VERTEX
 8
MESH_239_F0
 10
0
 20
0
 30
0
 70
128
 71
9
 72
53
 73
52
 74
52
 0
VERTEX
 8
MESH_239_F0
 10
0
 20
0
 30
0
 70
128
 71
8
 72
54
 73
53
 74
53
 0
VERTEX
 8
MESH_239_F0
 10
0
 20
0
 30
0
 70
128
 71
7
 72
55
 73
54
 74
54
 0
VERTEX
 8
MESH_239_F0
 10
0
 20
0
 30
0
 70
128
 71
6
 72
56
 73
55
 74
55
 0
SEQEND
 0
POLYLINE
 8
MESH_238_F0
 66
1
 10
0.0
 20
0.0
 30
0.0
 70
64
 71
4
 72
2
 0
VERTEX
 8
MESH_238_F0
 10
498.5
 20
-412
 30
-244
 70
192
 0
VERTEX
 8
MESH_238_F0
 10
498.5
 20
-417
 30
-244
 70
192
 0
VERTEX
 8
MESH_238_F0
 10
498.5
 20
-417
 30
-474
 70
192
 0
VERTEX
 8
MESH_238_F0
 10
498.5
 20
-412
 30
-474
 70
192
 0
VERTEX
 8
MESH_238_F0
 10
0
 20
0
 30
0
 70
128
 71
4
 72
2
 73
1
 74
1
 0
VERTEX
 8
MESH_238_F0
 10
0
 20
0
 30
0
 70
128
 71
3
 72
2
 73
4
 74
4
 0
SEQEND
 0
POLYLINE
 8
MESH_237_F0
 66
1
 10
0.0
 20
0.0
 30
0.0
 70
64
 71
4
 72
2
 0
VERTEX
 8
MESH_237_F0
 10
-500
 20
0
 30
-475
 70
192
 0
VERTEX
 8
MESH_237_F0
 10
-500
 20
-412
 30
-475
 70
192
 0
VERTEX
 8
MESH_237_F0
 10
-500
 20
-412
 30
0
 70
192
 0
VERTEX
 8
MESH_237_F0
 10
-500
 20
0
 30
0
 70
192
 0
VERTEX
 8
MESH_237_F0
 10
0
 20
0
 30
0
 70
128
 71
4
 72
2
 73
1
 74
1
 0
VERTEX
 8
MESH_237_F0
 10
0
 20
0
 30
0
 70
128
 71
3
 72
2
 73
4
 74
4
 0
SEQEND
 0
POLYLINE
 8
MESH_236_F0
 66
1
 10
0.0
 20
0.0
 30
0.0
 70
64
 71
6
 72
4
 0
VERTEX
 8
MESH_236_F0
 10
482
 20
-18.5
 30
-144.5
 70
192
 0
VERTEX
 8
MESH_236_F0
 10
482
 20
-18.5
 30
0
 70
192
 0
VERTEX
 8
MESH_236_F0
 10
482
 20
0
 30
0
 70
192
 0
VERTEX
 8
MESH_236_F0
 10
482
 20
0
 30
-456.5
 70
192
 0
VERTEX
 8
MESH_236_F0
 10
482
 20
-0.5
 30
-456.5
 70
192
 0
VERTEX
 8
MESH_236_F0
 10
482
 20
-0.5
 30
-144.5
 70
192
 0
VERTEX
 8
MESH_236_F0
 10
0
 20
0
 30
0
 70
128
 71
1
 72
3
 73
2
 74
2
 0
VERTEX
 8
MESH_236_F0
 10
0
 20
0
 30
0
 70
128
 71
6
 72
3
 73
1
 74
1
 0
VERTEX
 8
MESH_236_F0
 10
0
 20
0
 30
0
 70
128
 71
4
 72
3
 73
6
 74
6
 0
VERTEX
 8
MESH_236_F0
 10
0
 20
0
 30
0
 70
128
 71
4
 72
6
 73
5
 74
5
 0
SEQEND
 0
POLYLINE
 8
MESH_235_F0
 66
1
 10
0.0
 20
0.0
 30
0.0
 70
64
 71
4
 72
2
 0
VERTEX
 8
MESH_235_F0
 10
382
 20
-18.5
 30
-144.5
 70
192
 0
VERTEX
 8
MESH_235_F0
 10
382
 20
-0.5
 30
-144.5
 70
192
 0
VERTEX
 8
MESH_235_F0
 10
382
 20
-0.5
 30
-284.5
 70
192
 0
VERTEX
 8
MESH_235_F0
 10
382
 20
-18.5
 30
-284.5
 70
192
 0
VERTEX
 8
MESH_235_F0
 10
0
 20
0
 30
0
 70
128
 71
4
 72
2
 73
1
 74
1
 0
VERTEX
 8
MESH_235_F0
 10
0
 20
0
 30
0
 70
128
 71
3
 72
2
 73
4
 74
4
 0
SEQEND
 0
POLYLINE
 8
MESH_234_F0
 66
1
 10
0.0
 20
0.0
 30
0.0
 70
64
 71
28
 72
26
 0
VERTEX
 8
MESH_234_F0
 10
382
 20
-18.5
 30
-284.5
 70
192
 0
VERTEX
 8
MESH_234_F0
 10
382
 20
-0.5
 30
-284.5
 70
192
 0
VERTEX
 8
MESH_234_F0
 10
381.2709
 20
-0.5
 30
-296.5537
 70
192
 0
VERTEX
 8
MESH_234_F0
 10
379.0942
 20
-0.5
 30
-308.4315
 70
192
 0
VERTEX
 8
MESH_234_F0
 10
375.5016
 20
-0.5
 30
-319.9605
 70
192
 0
VERTEX
 8
MESH_234_F0
 10
370.5456
 20
-0.5
 30
-330.9723
 70
192
 0
VERTEX
 8
MESH_234_F0
 10
364.2984
 20
-0.5
 30
-341.3065
 70
192
 0
VERTEX
 8
MESH_234_F0
 10
356.8511
 20
-0.5
 30
-350.8123
 70
192
 0
VERTEX
 8
MESH_234_F0
 10
348.3123
 20
-0.5
 30
-359.3511
 70
192
 0
VERTEX
 8
MESH_234_F0
 10
338.8065
 20
-0.5
 30
-366.7984
 70
192
 0
VERTEX
 8
MESH_234_F0
 10
328.4723
 20
-0.5
 30
-373.0456
 70
192
 0
VERTEX
 8
MESH_234_F0
 10
317.4605
 20
-0.5
 30
-378.0016
 70
192
 0
VERTEX
 8
MESH_234_F0
 10
305.9315
 20
-0.5
 30
-381.5942
 70
192
 0
VERTEX
 8
MESH_234_F0
 10
294.0536
 20
-0.5
 30
-383.7709
 70
192
 0
VERTEX
 8
MESH_234_F0
 10
282
 20
-0.5
 30
-384.5
 70
192
 0
VERTEX
 8
MESH_234_F0
 10
282
 20
-18.5
 30
-384.5
 70
192
 0
VERTEX
 8
MESH_234_F0
 10
294.0536
 20
-18.5
 30
-383.7709
 70
192
 0
VERTEX
 8
MESH_234_F0
 10
305.9315
 20
-18.5
 30
-381.5942
 70
192
 0
VERTEX
 8
MESH_234_F0
 10
317.4605
 20
-18.5
 30
-378.0016
 70
192
 0
VERTEX
 8
MESH_234_F0
 10
328.4723
 20
-18.5
 30
-373.0456
 70
192
 0
VERTEX
 8
MESH_234_F0
 10
338.8065
 20
-18.5
 30
-366.7984
 70
192
 0
VERTEX
 8
MESH_234_F0
 10
348.3123
 20
-18.5
 30
-359.3511
 70
192
 0
VERTEX
 8
MESH_234_F0
 10
356.8511
 20
-18.5
 30
-350.8123
 70
192
 0
VERTEX
 8
MESH_234_F0
 10
364.2984
 20
-18.5
 30
-341.3065
 70
192
 0
VERTEX
 8
MESH_234_F0
 10
370.5456
 20
-18.5
 30
-330.9723
 70
192
 0
VERTEX
 8
MESH_234_F0
 10
375.5016
 20
-18.5
 30
-319.9605
 70
192
 0
VERTEX
 8
MESH_234_F0
 10
379.0942
 20
-18.5
 30
-308.4315
 70
192
 0
VERTEX
 8
MESH_234_F0
 10
381.2709
 20
-18.5
 30
-296.5537
 70
192
 0
VERTEX
 8
MESH_234_F0
 10
0
 20
0
 30
0
 70
128
 71
28
 72
2
 73
1
 74
1
 0
VERTEX
 8
MESH_234_F0
 10
0
 20
0
 30
0
 70
128
 71
3
 72
2
 73
28
 74
28
 0
VERTEX
 8
MESH_234_F0
 10
0
 20
0
 30
0
 70
128
 71
4
 72
3
 73
27
 74
27
 0
VERTEX
 8
MESH_234_F0
 10
0
 20
0
 30
0
 70
128
 71
5
 72
4
 73
26
 74
26
 0
VERTEX
 8
MESH_234_F0
 10
0
 20
0
 30
0
 70
128
 71
6
 72
5
 73
25
 74
25
 0
VERTEX
 8
MESH_234_F0
 10
0
 20
0
 30
0
 70
128
 71
7
 72
6
 73
24
 74
24
 0
VERTEX
 8
MESH_234_F0
 10
0
 20
0
 30
0
 70
128
 71
8
 72
7
 73
23
 74
23
 0
VERTEX
 8
MESH_234_F0
 10
0
 20
0
 30
0
 70
128
 71
9
 72
8
 73
22
 74
22
 0
VERTEX
 8
MESH_234_F0
 10
0
 20
0
 30
0
 70
128
 71
10
 72
9
 73
21
 74
21
 0
VERTEX
 8
MESH_234_F0
 10
0
 20
0
 30
0
 70
128
 71
11
 72
10
 73
20
 74
20
 0
VERTEX
 8
MESH_234_F0
 10
0
 20
0
 30
0
 70
128
 71
12
 72
11
 73
19
 74
19
 0
VERTEX
 8
MESH_234_F0
 10
0
 20
0
 30
0
 70
128
 71
13
 72
12
 73
18
 74
18
 0
VERTEX
 8
MESH_234_F0
 10
0
 20
0
 30
0
 70
128
 71
14
 72
13
 73
17
 74
17
 0
VERTEX
 8
MESH_234_F0
 10
0
 20
0
 30
0
 70
128
 71
15
 72
14
 73
16
 74
16
 0
VERTEX
 8
MESH_234_F0
 10
0
 20
0
 30
0
 70
128
 71
14
 72
17
 73
16
 74
16
 0
VERTEX
 8
MESH_234_F0
 10
0
 20
0
 30
0
 70
128
 71
13
 72
18
 73
17
 74
17
 0
VERTEX
 8
MESH_234_F0
 10
0
 20
0
 30
0
 70
128
 71
12
 72
19
 73
18
 74
18
 0
VERTEX
 8
MESH_234_F0
 10
0
 20
0
 30
0
 70
128
 71
11
 72
20
 73
19
 74
19
 0
VERTEX
 8
MESH_234_F0
 10
0
 20
0
 30
0
 70
128
 71
10
 72
21
 73
20
 74
20
 0
VERTEX
 8
MESH_234_F0
 10
0
 20
0
 30
0
 70
128
 71
9
 72
22
 73
21
 74
21
 0
VERTEX
 8
MESH_234_F0
 10
0
 20
0
 30
0
 70
128
 71
8
 72
23
 73
22
 74
22
 0
VERTEX
 8
MESH_234_F0
 10
0
 20
0
 30
0
 70
128
 71
7
 72
24
 73
23
 74
23
 0
VERTEX
 8
MESH_234_F0
 10
0
 20
0
 30
0
 70
128
 71
6
 72
25
 73
24
 74
24
 0
VERTEX
 8
MESH_234_F0
 10
0
 20
0
 30
0
 70
128
 71
5
 72
26
 73
25
 74
25
 0
VERTEX
 8
MESH_234_F0
 10
0
 20
0
 30
0
 70
128
 71
4
 72
27
 73
26
 74
26
 0
VERTEX
 8
MESH_234_F0
 10
0
 20
0
 30
0
 70
128
 71
3
 72
28
 73
27
 74
27
 0
SEQEND
 0
POLYLINE
 8
MESH_233_F0
 66
1
 10
0.0
 20
0.0
 30
0.0
 70
64
 71
4
 72
2
 0
VERTEX
 8
MESH_233_F0
 10
282
 20
-18.5
 30
-384.5
 70
192
 0
VERTEX
 8
MESH_233_F0
 10
282
 20
-0.5
 30
-384.5
 70
192
 0
VERTEX
 8
MESH_233_F0
 10
-282
 20
-0.5
 30
-384.5
 70
192
 0
VERTEX
 8
MESH_233_F0
 10
-282
 20
-18.5
 30
-384.5
 70
192
 0
VERTEX
 8
MESH_233_F0
 10
0
 20
0
 30
0
 70
128
 71
4
 72
2
 73
1
 74
1
 0
VERTEX
 8
MESH_233_F0
 10
0
 20
0
 30
0
 70
128
 71
3
 72
2
 73
4
 74
4
 0
SEQEND
 0
POLYLINE
 8
MESH_232_F0
 66
1
 10
0.0
 20
0.0
 30
0.0
 70
64
 71
28
 72
26
 0
VERTEX
 8
MESH_232_F0
 10
-282
 20
-18.5
 30
-384.5
 70
192
 0
VERTEX
 8
MESH_232_F0
 10
-282
 20
-0.5
 30
-384.5
 70
192
 0
VERTEX
 8
MESH_232_F0
 10
-294.0536
 20
-0.5
 30
-383.7709
 70
192
 0
VERTEX
 8
MESH_232_F0
 10
-305.9315
 20
-0.5
 30
-381.5942
 70
192
 0
VERTEX
 8
MESH_232_F0
 10
-317.4605
 20
-0.5
 30
-378.0016
 70
192
 0
VERTEX
 8
MESH_232_F0
 10
-328.4723
 20
-0.5
 30
-373.0456
 70
192
 0
VERTEX
 8
MESH_232_F0
 10
-338.8065
 20
-0.5
 30
-366.7984
 70
192
 0
VERTEX
 8
MESH_232_F0
 10
-348.3123
 20
-0.5
 30
-359.3511
 70
192
 0
VERTEX
 8
MESH_232_F0
 10
-356.8511
 20
-0.5
 30
-350.8123
 70
192
 0
VERTEX
 8
MESH_232_F0
 10
-364.2984
 20
-0.5
 30
-341.3065
 70
192
 0
VERTEX
 8
MESH_232_F0
 10
-370.5456
 20
-0.5
 30
-330.9723
 70
192
 0
VERTEX
 8
MESH_232_F0
 10
-375.5016
 20
-0.5
 30
-319.9605
 70
192
 0
VERTEX
 8
MESH_232_F0
 10
-379.0942
 20
-0.5
 30
-308.4315
 70
192
 0
VERTEX
 8
MESH_232_F0
 10
-381.2709
 20
-0.5
 30
-296.5537
 70
192
 0
VERTEX
 8
MESH_232_F0
 10
-382
 20
-0.5
 30
-284.5
 70
192
 0
VERTEX
 8
MESH_232_F0
 10
-382
 20
-18.5
 30
-284.5
 70
192
 0
VERTEX
 8
MESH_232_F0
 10
-381.2709
 20
-18.5
 30
-296.5537
 70
192
 0
VERTEX
 8
MESH_232_F0
 10
-379.0942
 20
-18.5
 30
-308.4315
 70
192
 0
VERTEX
 8
MESH_232_F0
 10
-375.5016
 20
-18.5
 30
-319.9605
 70
192
 0
VERTEX
 8
MESH_232_F0
 10
-370.5456
 20
-18.5
 30
-330.9723
 70
192
 0
VERTEX
 8
MESH_232_F0
 10
-364.2984
 20
-18.5
 30
-341.3065
 70
192
 0
VERTEX
 8
MESH_232_F0
 10
-356.8511
 20
-18.5
 30
-350.8123
 70
192
 0
VERTEX
 8
MESH_232_F0
 10
-348.3123
 20
-18.5
 30
-359.3511
 70
192
 0
VERTEX
 8
MESH_232_F0
 10
-338.8065
 20
-18.5
 30
-366.7984
 70
192
 0
VERTEX
 8
MESH_232_F0
 10
-328.4723
 20
-18.5
 30
-373.0456
 70
192
 0
VERTEX
 8
MESH_232_F0
 10
-317.4605
 20
-18.5
 30
-378.0016
 70
192
 0
VERTEX
 8
MESH_232_F0
 10
-305.9315
 20
-18.5
 30
-381.5942
 70
192
 0
VERTEX
 8
MESH_232_F0
 10
-294.0536
 20
-18.5
 30
-383.7709
 70
192
 0
VERTEX
 8
MESH_232_F0
 10
0
 20
0
 30
0
 70
128
 71
28
 72
2
 73
1
 74
1
 0
VERTEX
 8
MESH_232_F0
 10
0
 20
0
 30
0
 70
128
 71
3
 72
2
 73
28
 74
28
 0
VERTEX
 8
MESH_232_F0
 10
0
 20
0
 30
0
 70
128
 71
4
 72
3
 73
27
 74
27
 0
VERTEX
 8
MESH_232_F0
 10
0
 20
0
 30
0
 70
128
 71
5
 72
4
 73
26
 74
26
 0
VERTEX
 8
MESH_232_F0
 10
0
 20
0
 30
0
 70
128
 71
6
 72
5
 73
25
 74
25
 0
VERTEX
 8
MESH_232_F0
 10
0
 20
0
 30
0
 70
128
 71
7
 72
6
 73
24
 74
24
 0
VERTEX
 8
MESH_232_F0
 10
0
 20
0
 30
0
 70
128
 71
8
 72
7
 73
23
 74
23
 0
VERTEX
 8
MESH_232_F0
 10
0
 20
0
 30
0
 70
128
 71
9
 72
8
 73
22
 74
22
 0
VERTEX
 8
MESH_232_F0
 10
0
 20
0
 30
0
 70
128
 71
10
 72
9
 73
21
 74
21
 0
VERTEX
 8
MESH_232_F0
 10
0
 20
0
 30
0
 70
128
 71
11
 72
10
 73
20
 74
20
 0
VERTEX
 8
MESH_232_F0
 10
0
 20
0
 30
0
 70
128
 71
12
 72
11
 73
19
 74
19
 0
VERTEX
 8
MESH_232_F0
 10
0
 20
0
 30
0
 70
128
 71
13
 72
12
 73
18
 74
18
 0
VERTEX
 8
MESH_232_F0
 10
0
 20
0
 30
0
 70
128
 71
14
 72
13
 73
17
 74
17
 0
VERTEX
 8
MESH_232_F0
 10
0
 20
0
 30
0
 70
128
 71
15
 72
14
 73
16
 74
16
 0
VERTEX
 8
MESH_232_F0
 10
0
 20
0
 30
0
 70
128
 71
14
 72
17
 73
16
 74
16
 0
VERTEX
 8
MESH_232_F0
 10
0
 20
0
 30
0
 70
128
 71
13
 72
18
 73
17
 74
17
 0
VERTEX
 8
MESH_232_F0
 10
0
 20
0
 30
0
 70
128
 71
12
 72
19
 73
18
 74
18
 0
VERTEX
 8
MESH_232_F0
 10
0
 20
0
 30
0
 70
128
 71
11
 72
20
 73
19
 74
19
 0
VERTEX
 8
MESH_232_F0
 10
0
 20
0
 30
0
 70
128
 71
10
 72
21
 73
20
 74
20
 0
VERTEX
 8
MESH_232_F0
 10
0
 20
0
 30
0
 70
128
 71
9
 72
22
 73
21
 74
21
 0
VERTEX
 8
MESH_232_F0
 10
0
 20
0
 30
0
 70
128
 71
8
 72
23
 73
22
 74
22
 0
VERTEX
 8
MESH_232_F0
 10
0
 20
0
 30
0
 70
128
 71
7
 72
24
 73
23
 74
23
 0
VERTEX
 8
MESH_232_F0
 10
0
 20
0
 30
0
 70
128
 71
6
 72
25
 73
24
 74
24
 0
VERTEX
 8
MESH_232_F0
 10
0
 20
0
 30
0
 70
128
 71
5
 72
26
 73
25
 74
25
 0
VERTEX
 8
MESH_232_F0
 10
0
 20
0
 30
0
 70
128
 71
4
 72
27
 73
26
 74
26
 0
VERTEX
 8
MESH_232_F0
 10
0
 20
0
 30
0
 70
128
 71
3
 72
28
 73
27
 74
27
 0
SEQEND
 0
POLYLINE
 8
MESH_231_F0
 66
1
 10
0.0
 20
0.0
 30
0.0
 70
64
 71
4
 72
2
 0
VERTEX
 8
MESH_231_F0
 10
-382
 20
-18.5
 30
-284.5
 70
192
 0
VERTEX
 8
MESH_231_F0
 10
-382
 20
-0.5
 30
-284.5
 70
192
 0
VERTEX
 8
MESH_231_F0
 10
-382
 20
-0.5
 30
-144.5
 70
192
 0
VERTEX
 8
MESH_231_F0
 10
-382
 20
-18.5
 30
-144.5
 70
192
 0
VERTEX
 8
MESH_231_F0
 10
0
 20
0
 30
0
 70
128
 71
4
 72
2
 73
1
 74
1
 0
VERTEX
 8
MESH_231_F0
 10
0
 20
0
 30
0
 70
128
 71
3
 72
2
 73
4
 74
4
 0
SEQEND
 0
POLYLINE
 8
MESH_230_F0
 66
1
 10
0.0
 20
0.0
 30
0.0
 70
64
 71
4
 72
2
 0
VERTEX
 8
MESH_230_F0
 10
-482
 20
-18.5
 30
-144.5
 70
192
 0
VERTEX
 8
MESH_230_F0
 10
-382
 20
-18.5
 30
-144.5
 70
192
 0
VERTEX
 8
MESH_230_F0
 10
-382
 20
-0.5
 30
-144.5
 70
192
 0
VERTEX
 8
MESH_230_F0
 10
-482
 20
-0.5
 30
-144.5
 70
192
 0
VERTEX
 8
MESH_230_F0
 10
0
 20
0
 30
0
 70
128
 71
1
 72
3
 73
2
 74
2
 0
VERTEX
 8
MESH_230_F0
 10
0
 20
0
 30
0
 70
128
 71
4
 72
3
 73
1
 74
1
 0
SEQEND
 0
POLYLINE
 8
MESH_229_F0
 66
1
 10
0.0
 20
0.0
 30
0.0
 70
64
 71
6
 72
4
 0
VERTEX
 8
MESH_229_F0
 10
-482
 20
0
 30
-456.5
 70
192
 0
VERTEX
 8
MESH_229_F0
 10
-482
 20
0
 30
0
 70
192
 0
VERTEX
 8
MESH_229_F0
 10
-482
 20
-18.5
 30
0
 70
192
 0
VERTEX
 8
MESH_229_F0
 10
-482
 20
-18.5
 30
-144.5
 70
192
 0
VERTEX
 8
MESH_229_F0
 10
-482
 20
-0.5
 30
-144.5
 70
192
 0
VERTEX
 8
MESH_229_F0
 10
-482
 20
-0.5
 30
-456.5
 70
192
 0
VERTEX
 8
MESH_229_F0
 10
0
 20
0
 30
0
 70
128
 71
5
 72
1
 73
6
 74
6
 0
VERTEX
 8
MESH_229_F0
 10
0
 20
0
 30
0
 70
128
 71
2
 72
1
 73
5
 74
5
 0
VERTEX
 8
MESH_229_F0
 10
0
 20
0
 30
0
 70
128
 71
2
 72
5
 73
3
 74
3
 0
VERTEX
 8
MESH_229_F0
 10
0
 20
0
 30
0
 70
128
 71
5
 72
4
 73
3
 74
3
 0
SEQEND
 0
POLYLINE
 8
MESH_228_F0
 66
1
 10
0.0
 20
0.0
 30
0.0
 70
64
 71
4
 72
2
 0
VERTEX
 8
MESH_228_F0
 10
482
 20
0
 30
-456.5
 70
192
 0
VERTEX
 8
MESH_228_F0
 10
-482
 20
0
 30
-456.5
 70
192
 0
VERTEX
 8
MESH_228_F0
 10
-482
 20
-0.5
 30
-456.5
 70
192
 0
VERTEX
 8
MESH_228_F0
 10
482
 20
-0.5
 30
-456.5
 70
192
 0
VERTEX
 8
MESH_228_F0
 10
0
 20
0
 30
0
 70
128
 71
1
 72
3
 73
2
 74
2
 0
VERTEX
 8
MESH_228_F0
 10
0
 20
0
 30
0
 70
128
 71
4
 72
3
 73
1
 74
1
 0
SEQEND
 0
POLYLINE
 8
MESH_227_F0
 66
1
 10
0.0
 20
0.0
 30
0.0
 70
64
 71
34
 72
32
 0
VERTEX
 8
MESH_227_F0
 10
482
 20
-0.5
 30
-456.5
 70
192
 0
VERTEX
 8
MESH_227_F0
 10
-482
 20
-0.5
 30
-456.5
 70
192
 0
VERTEX
 8
MESH_227_F0
 10
-482
 20
-0.5
 30
-144.5
 70
192
 0
VERTEX
 8
MESH_227_F0
 10
-382
 20
-0.5
 30
-144.5
 70
192
 0
VERTEX
 8
MESH_227_F0
 10
-382
 20
-0.5
 30
-284.5
 70
192
 0
VERTEX
 8
MESH_227_F0
 10
-381.2709
 20
-0.5
 30
-296.5537
 70
192
 0
VERTEX
 8
MESH_227_F0
 10
-379.0942
 20
-0.5
 30
-308.4315
 70
192
 0
VERTEX
 8
MESH_227_F0
 10
-375.5016
 20
-0.5
 30
-319.9605
 70
192
 0
VERTEX
 8
MESH_227_F0
 10
-370.5456
 20
-0.5
 30
-330.9723
 70
192
 0
VERTEX
 8
MESH_227_F0
 10
-364.2984
 20
-0.5
 30
-341.3065
 70
192
 0
VERTEX
 8
MESH_227_F0
 10
-356.8511
 20
-0.5
 30
-350.8123
 70
192
 0
VERTEX
 8
MESH_227_F0
 10
-348.3123
 20
-0.5
 30
-359.3511
 70
192
 0
VERTEX
 8
MESH_227_F0
 10
-338.8065
 20
-0.5
 30
-366.7984
 70
192
 0
VERTEX
 8
MESH_227_F0
 10
-328.4723
 20
-0.5
 30
-373.0456
 70
192
 0
VERTEX
 8
MESH_227_F0
 10
-317.4605
 20
-0.5
 30
-378.0016
 70
192
 0
VERTEX
 8
MESH_227_F0
 10
-305.9315
 20
-0.5
 30
-381.5942
 70
192
 0
VERTEX
 8
MESH_227_F0
 10
-294.0536
 20
-0.5
 30
-383.7709
 70
192
 0
VERTEX
 8
MESH_227_F0
 10
-282
 20
-0.5
 30
-384.5
 70
192
 0
VERTEX
 8
MESH_227_F0
 10
282
 20
-0.5
 30
-384.5
 70
192
 0
VERTEX
 8
MESH_227_F0
 10
294.0536
 20
-0.5
 30
-383.7709
 70
192
 0
VERTEX
 8
MESH_227_F0
 10
305.9315
 20
-0.5
 30
-381.5942
 70
192
 0
VERTEX
 8
MESH_227_F0
 10
317.4605
 20
-0.5
 30
-378.0016
 70
192
 0
VERTEX
 8
MESH_227_F0
 10
328.4723
 20
-0.5
 30
-373.0456
 70
192
 0
VERTEX
 8
MESH_227_F0
 10
338.8065
 20
-0.5
 30
-366.7984
 70
192
 0
VERTEX
 8
MESH_227_F0
 10
348.3123
 20
-0.5
 30
-359.3511
 70
192
 0
VERTEX
 8
MESH_227_F0
 10
356.8511
 20
-0.5
 30
-350.8123
 70
192
 0
VERTEX
 8
MESH_227_F0
 10
364.2984
 20
-0.5
 30
-341.3065
 70
192
 0
VERTEX
 8
MESH_227_F0
 10
370.5456
 20
-0.5
 30
-330.9723
 70
192
 0
VERTEX
 8
MESH_227_F0
 10
375.5016
 20
-0.5
 30
-319.9605
 70
192
 0
VERTEX
 8
MESH_227_F0
 10
379.0942
 20
-0.5
 30
-308.4315
 70
192
 0
VERTEX
 8
MESH_227_F0
 10
381.2709
 20
-0.5
 30
-296.5537
 70
192
 0
VERTEX
 8
MESH_227_F0
 10
382
 20
-0.5
 30
-284.5
 70
192
 0
VERTEX
 8
MESH_227_F0
 10
382
 20
-0.5
 30
-144.5
 70
192
 0
VERTEX
 8
MESH_227_F0
 10
482
 20
-0.5
 30
-144.5
 70
192
 0
VERTEX
 8
MESH_227_F0
 10
0
 20
0
 30
0
 70
128
 71
2
 72
18
 73
17
 74
17
 0
VERTEX
 8
MESH_227_F0
 10
0
 20
0
 30
0
 70
128
 71
15
 72
2
 73
16
 74
16
 0
VERTEX
 8
MESH_227_F0
 10
0
 20
0
 30
0
 70
128
 71
2
 72
17
 73
16
 74
16
 0
VERTEX
 8
MESH_227_F0
 10
0
 20
0
 30
0
 70
128
 71
3
 72
5
 73
4
 74
4
 0
VERTEX
 8
MESH_227_F0
 10
0
 20
0
 30
0
 70
128
 71
6
 72
5
 73
3
 74
3
 0
VERTEX
 8
MESH_227_F0
 10
0
 20
0
 30
0
 70
128
 71
7
 72
6
 73
2
 74
2
 0
VERTEX
 8
MESH_227_F0
 10
0
 20
0
 30
0
 70
128
 71
7
 72
2
 73
8
 74
8
 0
VERTEX
 8
MESH_227_F0
 10
0
 20
0
 30
0
 70
128
 71
2
 72
9
 73
8
 74
8
 0
VERTEX
 8
MESH_227_F0
 10
0
 20
0
 30
0
 70
128
 71
10
 72
9
 73
2
 74
2
 0
VERTEX
 8
MESH_227_F0
 10
0
 20
0
 30
0
 70
128
 71
10
 72
2
 73
11
 74
11
 0
VERTEX
 8
MESH_227_F0
 10
0
 20
0
 30
0
 70
128
 71
2
 72
12
 73
11
 74
11
 0
VERTEX
 8
MESH_227_F0
 10
0
 20
0
 30
0
 70
128
 71
13
 72
12
 73
2
 74
2
 0
VERTEX
 8
MESH_227_F0
 10
0
 20
0
 30
0
 70
128
 71
13
 72
2
 73
14
 74
14
 0
VERTEX
 8
MESH_227_F0
 10
0
 20
0
 30
0
 70
128
 71
2
 72
15
 73
14
 74
14
 0
VERTEX
 8
MESH_227_F0
 10
0
 20
0
 30
0
 70
128
 71
2
 72
19
 73
18
 74
18
 0
VERTEX
 8
MESH_227_F0
 10
0
 20
0
 30
0
 70
128
 71
1
 72
19
 73
2
 74
2
 0
VERTEX
 8
MESH_227_F0
 10
0
 20
0
 30
0
 70
128
 71
20
 72
19
 73
1
 74
1
 0
VERTEX
 8
MESH_227_F0
 10
0
 20
0
 30
0
 70
128
 71
20
 72
1
 73
21
 74
21
 0
VERTEX
 8
MESH_227_F0
 10
0
 20
0
 30
0
 70
128
 71
1
 72
22
 73
21
 74
21
 0
VERTEX
 8
MESH_227_F0
 10
0
 20
0
 30
0
 70
128
 71
23
 72
22
 73
1
 74
1
 0
VERTEX
 8
MESH_227_F0
 10
0
 20
0
 30
0
 70
128
 71
23
 72
1
 73
24
 74
24
 0
VERTEX
 8
MESH_227_F0
 10
0
 20
0
 30
0
 70
128
 71
1
 72
25
 73
24
 74
24
 0
VERTEX
 8
MESH_227_F0
 10
0
 20
0
 30
0
 70
128
 71
26
 72
25
 73
1
 74
1
 0
VERTEX
 8
MESH_227_F0
 10
0
 20
0
 30
0
 70
128
 71
26
 72
1
 73
27
 74
27
 0
VERTEX
 8
MESH_227_F0
 10
0
 20
0
 30
0
 70
128
 71
1
 72
28
 73
27
 74
27
 0
VERTEX
 8
MESH_227_F0
 10
0
 20
0
 30
0
 70
128
 71
29
 72
28
 73
1
 74
1
 0
VERTEX
 8
MESH_227_F0
 10
0
 20
0
 30
0
 70
128
 71
29
 72
1
 73
30
 74
30
 0
VERTEX
 8
MESH_227_F0
 10
0
 20
0
 30
0
 70
128
 71
1
 72
31
 73
30
 74
30
 0
VERTEX
 8
MESH_227_F0
 10
0
 20
0
 30
0
 70
128
 71
34
 72
31
 73
1
 74
1
 0
VERTEX
 8
MESH_227_F0
 10
0
 20
0
 30
0
 70
128
 71
32
 72
31
 73
34
 74
34
 0
VERTEX
 8
MESH_227_F0
 10
0
 20
0
 30
0
 70
128
 71
32
 72
34
 73
33
 74
33
 0
VERTEX
 8
MESH_227_F0
 10
0
 20
0
 30
0
 70
128
 71
3
 72
2
 73
6
 74
6
 0
SEQEND
 0
POLYLINE
 8
MESH_226_F0
 66
1
 10
0.0
 20
0.0
 30
0.0
 70
64
 71
4
 72
2
 0
VERTEX
 8
MESH_226_F0
 10
482
 20
-0.5
 30
-144.5
 70
192
 0
VERTEX
 8
MESH_226_F0
 10
382
 20
-0.5
 30
-144.5
 70
192
 0
VERTEX
 8
MESH_226_F0
 10
382
 20
-18.5
 30
-144.5
 70
192
 0
VERTEX
 8
MESH_226_F0
 10
482
 20
-18.5
 30
-144.5
 70
192
 0
VERTEX
 8
MESH_226_F0
 10
0
 20
0
 30
0
 70
128
 71
1
 72
3
 73
2
 74
2
 0
VERTEX
 8
MESH_226_F0
 10
0
 20
0
 30
0
 70
128
 71
4
 72
3
 73
1
 74
1
 0
SEQEND
 0
POLYLINE
 8
MESH_225_F0
 66
1
 10
0.0
 20
0.0
 30
0.0
 70
64
 71
34
 72
32
 0
VERTEX
 8
MESH_225_F0
 10
482
 20
-18.5
 30
-144.5
 70
192
 0
VERTEX
 8
MESH_225_F0
 10
382
 20
-18.5
 30
-144.5
 70
192
 0
VERTEX
 8
MESH_225_F0
 10
382
 20
-18.5
 30
-284.5
 70
192
 0
VERTEX
 8
MESH_225_F0
 10
381.2709
 20
-18.5
 30
-296.5537
 70
192
 0
VERTEX
 8
MESH_225_F0
 10
379.0942
 20
-18.5
 30
-308.4315
 70
192
 0
VERTEX
 8
MESH_225_F0
 10
375.5016
 20
-18.5
 30
-319.9605
 70
192
 0
VERTEX
 8
MESH_225_F0
 10
370.5456
 20
-18.5
 30
-330.9723
 70
192
 0
VERTEX
 8
MESH_225_F0
 10
364.2984
 20
-18.5
 30
-341.3065
 70
192
 0
VERTEX
 8
MESH_225_F0
 10
356.8511
 20
-18.5
 30
-350.8123
 70
192
 0
VERTEX
 8
MESH_225_F0
 10
348.3123
 20
-18.5
 30
-359.3511
 70
192
 0
VERTEX
 8
MESH_225_F0
 10
338.8065
 20
-18.5
 30
-366.7984
 70
192
 0
VERTEX
 8
MESH_225_F0
 10
328.4723
 20
-18.5
 30
-373.0456
 70
192
 0
VERTEX
 8
MESH_225_F0
 10
317.4605
 20
-18.5
 30
-378.0016
 70
192
 0
VERTEX
 8
MESH_225_F0
 10
305.9315
 20
-18.5
 30
-381.5942
 70
192
 0
VERTEX
 8
MESH_225_F0
 10
294.0536
 20
-18.5
 30
-383.7709
 70
192
 0
VERTEX
 8
MESH_225_F0
 10
282
 20
-18.5
 30
-384.5
 70
192
 0
VERTEX
 8
MESH_225_F0
 10
-282
 20
-18.5
 30
-384.5
 70
192
 0
VERTEX
 8
MESH_225_F0
 10
-294.0536
 20
-18.5
 30
-383.7709
 70
192
 0
VERTEX
 8
MESH_225_F0
 10
-305.9315
 20
-18.5
 30
-381.5942
 70
192
 0
VERTEX
 8
MESH_225_F0
 10
-317.4605
 20
-18.5
 30
-378.0016
 70
192
 0
VERTEX
 8
MESH_225_F0
 10
-328.4723
 20
-18.5
 30
-373.0456
 70
192
 0
VERTEX
 8
MESH_225_F0
 10
-338.8065
 20
-18.5
 30
-366.7984
 70
192
 0
VERTEX
 8
MESH_225_F0
 10
-348.3123
 20
-18.5
 30
-359.3511
 70
192
 0
VERTEX
 8
MESH_225_F0
 10
-356.8511
 20
-18.5
 30
-350.8123
 70
192
 0
VERTEX
 8
MESH_225_F0
 10
-364.2984
 20
-18.5
 30
-341.3065
 70
192
 0
VERTEX
 8
MESH_225_F0
 10
-370.5456
 20
-18.5
 30
-330.9723
 70
192
 0
VERTEX
 8
MESH_225_F0
 10
-375.5016
 20
-18.5
 30
-319.9605
 70
192
 0
VERTEX
 8
MESH_225_F0
 10
-379.0942
 20
-18.5
 30
-308.4315
 70
192
 0
VERTEX
 8
MESH_225_F0
 10
-381.2709
 20
-18.5
 30
-296.5537
 70
192
 0
VERTEX
 8
MESH_225_F0
 10
-382
 20
-18.5
 30
-284.5
 70
192
 0
VERTEX
 8
MESH_225_F0
 10
-382
 20
-18.5
 30
-144.5
 70
192
 0
VERTEX
 8
MESH_225_F0
 10
-482
 20
-18.5
 30
-144.5
 70
192
 0
VERTEX
 8
MESH_225_F0
 10
-482
 20
-18.5
 30
0
 70
192
 0
VERTEX
 8
MESH_225_F0
 10
482
 20
-18.5
 30
0
 70
192
 0
VERTEX
 8
MESH_225_F0
 10
0
 20
0
 30
0
 70
128
 71
34
 72
2
 73
1
 74
1
 0
VERTEX
 8
MESH_225_F0
 10
0
 20
0
 30
0
 70
128
 71
33
 72
2
 73
34
 74
34
 0
VERTEX
 8
MESH_225_F0
 10
0
 20
0
 30
0
 70
128
 71
3
 72
2
 73
33
 74
33
 0
VERTEX
 8
MESH_225_F0
 10
0
 20
0
 30
0
 70
128
 71
4
 72
3
 73
16
 74
16
 0
VERTEX
 8
MESH_225_F0
 10
0
 20
0
 30
0
 70
128
 71
4
 72
16
 73
5
 74
5
 0
VERTEX
 8
MESH_225_F0
 10
0
 20
0
 30
0
 70
128
 71
16
 72
6
 73
5
 74
5
 0
VERTEX
 8
MESH_225_F0
 10
0
 20
0
 30
0
 70
128
 71
7
 72
6
 73
16
 74
16
 0
VERTEX
 8
MESH_225_F0
 10
0
 20
0
 30
0
 70
128
 71
8
 72
7
 73
15
 74
15
 0
VERTEX
 8
MESH_225_F0
 10
0
 20
0
 30
0
 70
128
 71
8
 72
15
 73
9
 74
9
 0
VERTEX
 8
MESH_225_F0
 10
0
 20
0
 30
0
 70
128
 71
15
 72
10
 73
9
 74
9
 0
VERTEX
 8
MESH_225_F0
 10
0
 20
0
 30
0
 70
128
 71
11
 72
10
 73
15
 74
15
 0
VERTEX
 8
MESH_225_F0
 10
0
 20
0
 30
0
 70
128
 71
11
 72
15
 73
12
 74
12
 0
VERTEX
 8
MESH_225_F0
 10
0
 20
0
 30
0
 70
128
 71
15
 72
13
 73
12
 74
12
 0
VERTEX
 8
MESH_225_F0
 10
0
 20
0
 30
0
 70
128
 71
14
 72
13
 73
15
 74
15
 0
VERTEX
 8
MESH_225_F0
 10
0
 20
0
 30
0
 70
128
 71
7
 72
16
 73
15
 74
15
 0
VERTEX
 8
MESH_225_F0
 10
0
 20
0
 30
0
 70
128
 71
16
 72
31
 73
17
 74
17
 0
VERTEX
 8
MESH_225_F0
 10
0
 20
0
 30
0
 70
128
 71
31
 72
18
 73
17
 74
17
 0
VERTEX
 8
MESH_225_F0
 10
0
 20
0
 30
0
 70
128
 71
19
 72
18
 73
31
 74
31
 0
VERTEX
 8
MESH_225_F0
 10
0
 20
0
 30
0
 70
128
 71
19
 72
31
 73
20
 74
20
 0
VERTEX
 8
MESH_225_F0
 10
0
 20
0
 30
0
 70
128
 71
31
 72
21
 73
20
 74
20
 0
VERTEX
 8
MESH_225_F0
 10
0
 20
0
 30
0
 70
128
 71
22
 72
21
 73
31
 74
31
 0
VERTEX
 8
MESH_225_F0
 10
0
 20
0
 30
0
 70
128
 71
22
 72
31
 73
23
 74
23
 0
VERTEX
 8
MESH_225_F0
 10
0
 20
0
 30
0
 70
128
 71
31
 72
24
 73
23
 74
23
 0
VERTEX
 8
MESH_225_F0
 10
0
 20
0
 30
0
 70
128
 71
25
 72
24
 73
31
 74
31
 0
VERTEX
 8
MESH_225_F0
 10
0
 20
0
 30
0
 70
128
 71
25
 72
31
 73
26
 74
26
 0
VERTEX
 8
MESH_225_F0
 10
0
 20
0
 30
0
 70
128
 71
31
 72
27
 73
26
 74
26
 0
VERTEX
 8
MESH_225_F0
 10
0
 20
0
 30
0
 70
128
 71
28
 72
27
 73
31
 74
31
 0
VERTEX
 8
MESH_225_F0
 10
0
 20
0
 30
0
 70
128
 71
28
 72
31
 73
29
 74
29
 0
VERTEX
 8
MESH_225_F0
 10
0
 20
0
 30
0
 70
128
 71
31
 72
30
 73
29
 74
29
 0
VERTEX
 8
MESH_225_F0
 10
0
 20
0
 30
0
 70
128
 71
31
 72
33
 73
32
 74
32
 0
VERTEX
 8
MESH_225_F0
 10
0
 20
0
 30
0
 70
128
 71
16
 72
33
 73
31
 74
31
 0
VERTEX
 8
MESH_225_F0
 10
0
 20
0
 30
0
 70
128
 71
3
 72
33
 73
16
 74
16
 0
SEQEND
 0
POLYLINE
 8
MESH_224_F0
 66
1
 10
0.0
 20
0.0
 30
0.0
 70
64
 71
8
 72
6
 0
VERTEX
 8
MESH_224_F0
 10
482
 20
-18.5
 30
0
 70
192
 0
VERTEX
 8
MESH_224_F0
 10
-482
 20
-18.5
 30
0
 70
192
 0
VERTEX
 8
MESH_224_F0
 10
-482
 20
0
 30
0
 70
192
 0
VERTEX
 8
MESH_224_F0
 10
-500
 20
0
 30
0
 70
192
 0
VERTEX
 8
MESH_224_F0
 10
-500
 20
-412
 30
0
 70
192
 0
VERTEX
 8
MESH_224_F0
 10
500
 20
-412
 30
0
 70
192
 0
VERTEX
 8
MESH_224_F0
 10
500
 20
0
 30
0
 70
192
 0
VERTEX
 8
MESH_224_F0
 10
482
 20
0
 30
0
 70
192
 0
VERTEX
 8
MESH_224_F0
 10
0
 20
0
 30
0
 70
128
 71
2
 72
4
 73
3
 74
3
 0
VERTEX
 8
MESH_224_F0
 10
0
 20
0
 30
0
 70
128
 71
5
 72
4
 73
2
 74
2
 0
VERTEX
 8
MESH_224_F0
 10
0
 20
0
 30
0
 70
128
 71
6
 72
5
 73
1
 74
1
 0
VERTEX
 8
MESH_224_F0
 10
0
 20
0
 30
0
 70
128
 71
6
 72
1
 73
7
 74
7
 0
VERTEX
 8
MESH_224_F0
 10
0
 20
0
 30
0
 70
128
 71
1
 72
8
 73
7
 74
7
 0
VERTEX
 8
MESH_224_F0
 10
0
 20
0
 30
0
 70
128
 71
1
 72
5
 73
2
 74
2
 0
SEQEND
 0
POLYLINE
 8
MESH_223_F0
 66
1
 10
0.0
 20
0.0
 30
0.0
 70
64
 71
4
 72
2
 0
VERTEX
 8
MESH_223_F0
 10
500
 20
0
 30
0
 70
192
 0
VERTEX
 8
MESH_223_F0
 10
500
 20
-412
 30
0
 70
192
 0
VERTEX
 8
MESH_223_F0
 10
500
 20
-412
 30
-475
 70
192
 0
VERTEX
 8
MESH_223_F0
 10
500
 20
0
 30
-475
 70
192
 0
VERTEX
 8
MESH_223_F0
 10
0
 20
0
 30
0
 70
128
 71
4
 72
2
 73
1
 74
1
 0
VERTEX
 8
MESH_223_F0
 10
0
 20
0
 30
0
 70
128
 71
3
 72
2
 73
4
 74
4
 0
SEQEND
 0
POLYLINE
 8
MESH_222_F0
 66
1
 10
0.0
 20
0.0
 30
0.0
 70
64
 71
4
 72
2
 0
VERTEX
 8
MESH_222_F0
 10
482
 20
0
 30
-475
 70
192
 0
VERTEX
 8
MESH_222_F0
 10
500
 20
0
 30
-475
 70
192
 0
VERTEX
 8
MESH_222_F0
 10
500
 20
-412
 30
-475
 70
192
 0
VERTEX
 8
MESH_222_F0
 10
482
 20
-412
 30
-475
 70
192
 0
VERTEX
 8
MESH_222_F0
 10
0
 20
0
 30
0
 70
128
 71
1
 72
3
 73
2
 74
2
 0
VERTEX
 8
MESH_222_F0
 10
0
 20
0
 30
0
 70
128
 71
4
 72
3
 73
1
 74
1
 0
SEQEND
 0
POLYLINE
 8
MESH_221_F0
 66
1
 10
0.0
 20
0.0
 30
0.0
 70
64
 71
6
 72
4
 0
VERTEX
 8
MESH_221_F0
 10
482
 20
-411.5
 30
-474
 70
192
 0
VERTEX
 8
MESH_221_F0
 10
482
 20
-411.5
 30
-474.5
 70
192
 0
VERTEX
 8
MESH_221_F0
 10
482
 20
0
 30
-474.5
 70
192
 0
VERTEX
 8
MESH_221_F0
 10
482
 20
0
 30
-475
 70
192
 0
VERTEX
 8
MESH_221_F0
 10
482
 20
-412
 30
-475
 70
192
 0
VERTEX
 8
MESH_221_F0
 10
482
 20
-412
 30
-474
 70
192
 0
VERTEX
 8
MESH_221_F0
 10
0
 20
0
 30
0
 70
128
 71
6
 72
2
 73
1
 74
1
 0
VERTEX
 8
MESH_221_F0
 10
0
 20
0
 30
0
 70
128
 71
5
 72
2
 73
6
 74
6
 0
VERTEX
 8
MESH_221_F0
 10
0
 20
0
 30
0
 70
128
 71
3
 72
2
 73
5
 74
5
 0
VERTEX
 8
MESH_221_F0
 10
0
 20
0
 30
0
 70
128
 71
3
 72
5
 73
4
 74
4
 0
SEQEND
 0
POLYLINE
 8
MESH_220_F0
 66
1
 10
0.0
 20
0.0
 30
0.0
 70
64
 71
4
 72
2
 0
VERTEX
 8
MESH_220_F0
 10
-482
 20
-411.5
 30
-474
 70
192
 0
VERTEX
 8
MESH_220_F0
 10
-482
 20
-411.5
 30
-474.5
 70
192
 0
VERTEX
 8
MESH_220_F0
 10
482
 20
-411.5
 30
-474.5
 70
192
 0
VERTEX
 8
MESH_220_F0
 10
482
 20
-411.5
 30
-474
 70
192
 0
VERTEX
 8
MESH_220_F0
 10
0
 20
0
 30
0
 70
128
 71
1
 72
3
 73
2
 74
2
 0
VERTEX
 8
MESH_220_F0
 10
0
 20
0
 30
0
 70
128
 71
4
 72
3
 73
1
 74
1
 0
SEQEND
 0
POLYLINE
 8
MESH_219_F0
 66
1
 10
0.0
 20
0.0
 30
0.0
 70
64
 71
4
 72
2
 0
VERTEX
 8
MESH_219_F0
 10
482
 20
-411.5
 30
-474.5
 70
192
 0
VERTEX
 8
MESH_219_F0
 10
-482
 20
-411.5
 30
-474.5
 70
192
 0
VERTEX
 8
MESH_219_F0
 10
-482
 20
0
 30
-474.5
 70
192
 0
VERTEX
 8
MESH_219_F0
 10
482
 20
0
 30
-474.5
 70
192
 0
VERTEX
 8
MESH_219_F0
 10
0
 20
0
 30
0
 70
128
 71
1
 72
3
 73
2
 74
2
 0
VERTEX
 8
MESH_219_F0
 10
0
 20
0
 30
0
 70
128
 71
4
 72
3
 73
1
 74
1
 0
SEQEND
 0
POLYLINE
 8
MESH_218_F0
 66
1
 10
0.0
 20
0.0
 30
0.0
 70
64
 71
12
 72
10
 0
VERTEX
 8
MESH_218_F0
 10
482
 20
0
 30
-474.5
 70
192
 0
VERTEX
 8
MESH_218_F0
 10
-482
 20
0
 30
-474.5
 70
192
 0
VERTEX
 8
MESH_218_F0
 10
-482
 20
0
 30
-475
 70
192
 0
VERTEX
 8
MESH_218_F0
 10
-500
 20
0
 30
-475
 70
192
 0
VERTEX
 8
MESH_218_F0
 10
-500
 20
0
 30
0
 70
192
 0
VERTEX
 8
MESH_218_F0
 10
-482
 20
0
 30
0
 70
192
 0
VERTEX
 8
MESH_218_F0
 10
-482
 20
0
 30
-456.5
 70
192
 0
VERTEX
 8
MESH_218_F0
 10
482
 20
0
 30
-456.5
 70
192
 0
VERTEX
 8
MESH_218_F0
 10
482
 20
0
 30
0
 70
192
 0
VERTEX
 8
MESH_218_F0
 10
500
 20
0
 30
0
 70
192
 0
VERTEX
 8
MESH_218_F0
 10
500
 20
0
 30
-475
 70
192
 0
VERTEX
 8
MESH_218_F0
 10
482
 20
0
 30
-475
 70
192
 0
VERTEX
 8
MESH_218_F0
 10
0
 20
0
 30
0
 70
128
 71
4
 72
6
 73
5
 74
5
 0
VERTEX
 8
MESH_218_F0
 10
0
 20
0
 30
0
 70
128
 71
7
 72
6
 73
4
 74
4
 0
VERTEX
 8
MESH_218_F0
 10
0
 20
0
 30
0
 70
128
 71
8
 72
7
 73
2
 74
2
 0
VERTEX
 8
MESH_218_F0
 10
0
 20
0
 30
0
 70
128
 71
11
 72
8
 73
1
 74
1
 0
VERTEX
 8
MESH_218_F0
 10
0
 20
0
 30
0
 70
128
 71
11
 72
1
 73
12
 74
12
 0
VERTEX
 8
MESH_218_F0
 10
0
 20
0
 30
0
 70
128
 71
2
 72
4
 73
3
 74
3
 0
VERTEX
 8
MESH_218_F0
 10
0
 20
0
 30
0
 70
128
 71
7
 72
4
 73
2
 74
2
 0
VERTEX
 8
MESH_218_F0
 10
0
 20
0
 30
0
 70
128
 71
8
 72
10
 73
9
 74
9
 0
VERTEX
 8
MESH_218_F0
 10
0
 20
0
 30
0
 70
128
 71
11
 72
10
 73
8
 74
8
 0
VERTEX
 8
MESH_218_F0
 10
0
 20
0
 30
0
 70
128
 71
1
 72
8
 73
2
 74
2
 0
SEQEND
 0
POLYLINE
 8
MESH_217_F0
 66
1
 10
0.0
 20
0.0
 30
0.0
 70
64
 71
4
 72
2
 0
VERTEX
 8
MESH_217_F0
 10
-500
 20
0
 30
-475
 70
192
 0
VERTEX
 8
MESH_217_F0
 10
-482
 20
0
 30
-475
 70
192
 0
VERTEX
 8
MESH_217_F0
 10
-482
 20
-412
 30
-475
 70
192
 0
VERTEX
 8
MESH_217_F0
 10
-500
 20
-412
 30
-475
 70
192
 0
VERTEX
 8
MESH_217_F0
 10
0
 20
0
 30
0
 70
128
 71
1
 72
3
 73
2
 74
2
 0
VERTEX
 8
MESH_217_F0
 10
0
 20
0
 30
0
 70
128
 71
4
 72
3
 73
1
 74
1
 0
SEQEND
 0
POLYLINE
 8
MESH_216_F0
 66
1
 10
0.0
 20
0.0
 30
0.0
 70
64
 71
6
 72
4
 0
VERTEX
 8
MESH_216_F0
 10
-482
 20
-412
 30
-474
 70
192
 0
VERTEX
 8
MESH_216_F0
 10
-482
 20
-412
 30
-475
 70
192
 0
VERTEX
 8
MESH_216_F0
 10
-482
 20
0
 30
-475
 70
192
 0
VERTEX
 8
MESH_216_F0
 10
-482
 20
0
 30
-474.5
 70
192
 0
VERTEX
 8
MESH_216_F0
 10
-482
 20
-411.5
 30
-474.5
 70
192
 0
VERTEX
 8
MESH_216_F0
 10
-482
 20
-411.5
 30
-474
 70
192
 0
VERTEX
 8
MESH_216_F0
 10
0
 20
0
 30
0
 70
128
 71
5
 72
1
 73
6
 74
6
 0
VERTEX
 8
MESH_216_F0
 10
0
 20
0
 30
0
 70
128
 71
2
 72
1
 73
5
 74
5
 0
VERTEX
 8
MESH_216_F0
 10
0
 20
0
 30
0
 70
128
 71
2
 72
5
 73
3
 74
3
 0
VERTEX
 8
MESH_216_F0
 10
0
 20
0
 30
0
 70
128
 71
5
 72
4
 73
3
 74
3
 0
SEQEND
 0
POLYLINE
 8
MESH_215_F0
 66
1
 10
0.0
 20
0.0
 30
0.0
 70
64
 71
34
 72
32
 0
VERTEX
 8
MESH_215_F0
 10
-482
 20
-412
 30
-474
 70
192
 0
VERTEX
 8
MESH_215_F0
 10
-482
 20
-411.5
 30
-474
 70
192
 0
VERTEX
 8
MESH_215_F0
 10
482
 20
-411.5
 30
-474
 70
192
 0
VERTEX
 8
MESH_215_F0
 10
482
 20
-412
 30
-474
 70
192
 0
VERTEX
 8
MESH_215_F0
 10
498.5
 20
-412
 30
-474
 70
192
 0
VERTEX
 8
MESH_215_F0
 10
498.5
 20
-417
 30
-474
 70
192
 0
VERTEX
 8
MESH_215_F0
 10
498.3323
 20
-419.7723
 30
-474
 70
192
 0
VERTEX
 8
MESH_215_F0
 10
497.8317
 20
-422.5042
 30
-474
 70
192
 0
VERTEX
 8
MESH_215_F0
 10
497.0054
 20
-425.1559
 30
-474
 70
192
 0
VERTEX
 8
MESH_215_F0
 10
495.8654
 20
-427.6886
 30
-474
 70
192
 0
VERTEX
 8
MESH_215_F0
 10
494.4286
 20
-430.0655
 30
-474
 70
192
 0
VERTEX
 8
MESH_215_F0
 10
492.7158
 20
-432.2518
 30
-474
 70
192
 0
VERTEX
 8
MESH_215_F0
 10
490.7518
 20
-434.2157
 30
-474
 70
192
 0
VERTEX
 8
MESH_215_F0
 10
488.5655
 20
-435.9286
 30
-474
 70
192
 0
VERTEX
 8
MESH_215_F0
 10
486.1886
 20
-437.3655
 30
-474
 70
192
 0
VERTEX
 8
MESH_215_F0
 10
483.6559
 20
-438.5053
 30
-474
 70
192
 0
VERTEX
 8
MESH_215_F0
 10
481.0042
 20
-439.3317
 30
-474
 70
192
 0
VERTEX
 8
MESH_215_F0
 10
478.2723
 20
-439.8323
 30
-474
 70
192
 0
VERTEX
 8
MESH_215_F0
 10
475.5
 20
-440
 30
-474
 70
192
 0
VERTEX
 8
MESH_215_F0
 10
-475.5
 20
-440
 30
-474
 70
192
 0
VERTEX
 8
MESH_215_F0
 10
-478.2723
 20
-439.8323
 30
-474
 70
192
 0
VERTEX
 8
MESH_215_F0
 10
-481.0042
 20
-439.3317
 30
-474
 70
192
 0
VERTEX
 8
MESH_215_F0
 10
-483.6559
 20
-438.5053
 30
-474
 70
192
 0
VERTEX
 8
MESH_215_F0
 10
-486.1886
 20
-437.3655
 30
-474
 70
192
 0
VERTEX
 8
MESH_215_F0
 10
-488.5655
 20
-435.9286
 30
-474
 70
192
 0
VERTEX
 8
MESH_215_F0
 10
-490.7518
 20
-434.2157
 30
-474
 70
192
 0
VERTEX
 8
MESH_215_F0
 10
-492.7158
 20
-432.2518
 30
-474
 70
192
 0
VERTEX
 8
MESH_215_F0
 10
-494.4286
 20
-430.0655
 30
-474
 70
192
 0
VERTEX
 8
MESH_215_F0
 10
-495.8654
 20
-427.6886
 30
-474
 70
192
 0
VERTEX
 8
MESH_215_F0
 10
-497.0054
 20
-425.1559
 30
-474
 70
192
 0
VERTEX
 8
MESH_215_F0
 10
-497.8317
 20
-422.5042
 30
-474
 70
192
 0
VERTEX
 8
MESH_215_F0
 10
-498.3323
 20
-419.7723
 30
-474
 70
192
 0
VERTEX
 8
MESH_215_F0
 10
-498.5
 20
-417
 30
-474
 70
192
 0
VERTEX
 8
MESH_215_F0
 10
-498.5
 20
-412
 30
-474
 70
192
 0
VERTEX
 8
MESH_215_F0
 10
0
 20
0
 30
0
 70
128
 71
1
 72
4
 73
2
 74
2
 0
VERTEX
 8
MESH_215_F0
 10
0
 20
0
 30
0
 70
128
 71
4
 72
3
 73
2
 74
2
 0
VERTEX
 8
MESH_215_F0
 10
0
 20
0
 30
0
 70
128
 71
4
 72
6
 73
5
 74
5
 0
VERTEX
 8
MESH_215_F0
 10
0
 20
0
 30
0
 70
128
 71
7
 72
6
 73
4
 74
4
 0
VERTEX
 8
MESH_215_F0
 10
0
 20
0
 30
0
 70
128
 71
7
 72
4
 73
8
 74
8
 0
VERTEX
 8
MESH_215_F0
 10
0
 20
0
 30
0
 70
128
 71
4
 72
9
 73
8
 74
8
 0
VERTEX
 8
MESH_215_F0
 10
0
 20
0
 30
0
 70
128
 71
10
 72
9
 73
4
 74
4
 0
VERTEX
 8
MESH_215_F0
 10
0
 20
0
 30
0
 70
128
 71
10
 72
4
 73
11
 74
11
 0
VERTEX
 8
MESH_215_F0
 10
0
 20
0
 30
0
 70
128
 71
4
 72
29
 73
11
 74
11
 0
VERTEX
 8
MESH_215_F0
 10
0
 20
0
 30
0
 70
128
 71
29
 72
12
 73
11
 74
11
 0
VERTEX
 8
MESH_215_F0
 10
0
 20
0
 30
0
 70
128
 71
13
 72
12
 73
29
 74
29
 0
VERTEX
 8
MESH_215_F0
 10
0
 20
0
 30
0
 70
128
 71
13
 72
29
 73
14
 74
14
 0
VERTEX
 8
MESH_215_F0
 10
0
 20
0
 30
0
 70
128
 71
29
 72
15
 73
14
 74
14
 0
VERTEX
 8
MESH_215_F0
 10
0
 20
0
 30
0
 70
128
 71
16
 72
15
 73
29
 74
29
 0
VERTEX
 8
MESH_215_F0
 10
0
 20
0
 30
0
 70
128
 71
16
 72
29
 73
17
 74
17
 0
VERTEX
 8
MESH_215_F0
 10
0
 20
0
 30
0
 70
128
 71
29
 72
28
 73
17
 74
17
 0
VERTEX
 8
MESH_215_F0
 10
0
 20
0
 30
0
 70
128
 71
28
 72
27
 73
17
 74
17
 0
VERTEX
 8
MESH_215_F0
 10
0
 20
0
 30
0
 70
128
 71
27
 72
26
 73
17
 74
17
 0
VERTEX
 8
MESH_215_F0
 10
0
 20
0
 30
0
 70
128
 71
26
 72
25
 73
17
 74
17
 0
VERTEX
 8
MESH_215_F0
 10
0
 20
0
 30
0
 70
128
 71
25
 72
24
 73
17
 74
17
 0
VERTEX
 8
MESH_215_F0
 10
0
 20
0
 30
0
 70
128
 71
24
 72
23
 73
17
 74
17
 0
VERTEX
 8
MESH_215_F0
 10
0
 20
0
 30
0
 70
128
 71
23
 72
20
 73
17
 74
17
 0
VERTEX
 8
MESH_215_F0
 10
0
 20
0
 30
0
 70
128
 71
20
 72
19
 73
17
 74
17
 0
VERTEX
 8
MESH_215_F0
 10
0
 20
0
 30
0
 70
128
 71
19
 72
18
 73
17
 74
17
 0
VERTEX
 8
MESH_215_F0
 10
0
 20
0
 30
0
 70
128
 71
20
 72
22
 73
21
 74
21
 0
VERTEX
 8
MESH_215_F0
 10
0
 20
0
 30
0
 70
128
 71
23
 72
22
 73
20
 74
20
 0
VERTEX
 8
MESH_215_F0
 10
0
 20
0
 30
0
 70
128
 71
4
 72
30
 73
29
 74
29
 0
VERTEX
 8
MESH_215_F0
 10
0
 20
0
 30
0
 70
128
 71
31
 72
30
 73
4
 74
4
 0
VERTEX
 8
MESH_215_F0
 10
0
 20
0
 30
0
 70
128
 71
31
 72
4
 73
32
 74
32
 0
VERTEX
 8
MESH_215_F0
 10
0
 20
0
 30
0
 70
128
 71
4
 72
33
 73
32
 74
32
 0
VERTEX
 8
MESH_215_F0
 10
0
 20
0
 30
0
 70
128
 71
1
 72
33
 73
4
 74
4
 0
VERTEX
 8
MESH_215_F0
 10
0
 20
0
 30
0
 70
128
 71
34
 72
33
 73
1
 74
1
 0
SEQEND
 0
POLYLINE
 8
MESH_214_F0
 66
1
 10
0.0
 20
0.0
 30
0.0
 70
64
 71
30
 72
28
 0
VERTEX
 8
MESH_214_F0
 10
-499
 20
-412
 30
-3
 70
192
 0
VERTEX
 8
MESH_214_F0
 10
-499
 20
-417
 30
-3
 70
192
 0
VERTEX
 8
MESH_214_F0
 10
-498.8286
 20
-419.8326
 30
-3
 70
192
 0
VERTEX
 8
MESH_214_F0
 10
-498.3171
 20
-422.6239
 30
-3
 70
192
 0
VERTEX
 8
MESH_214_F0
 10
-497.4729
 20
-425.3332
 30
-3
 70
192
 0
VERTEX
 8
MESH_214_F0
 10
-496.3082
 20
-427.921
 30
-3
 70
192
 0
VERTEX
 8
MESH_214_F0
 10
-494.8401
 20
-430.3495
 30
-3
 70
192
 0
VERTEX
 8
MESH_214_F0
 10
-493.09
 20
-432.5834
 30
-3
 70
192
 0
VERTEX
 8
MESH_214_F0
 10
-491.0834
 20
-434.59
 30
-3
 70
192
 0
VERTEX
 8
MESH_214_F0
 10
-488.8495
 20
-436.3401
 30
-3
 70
192
 0
VERTEX
 8
MESH_214_F0
 10
-486.421
 20
-437.8082
 30
-3
 70
192
 0
VERTEX
 8
MESH_214_F0
 10
-483.8332
 20
-438.9729
 30
-3
 70
192
 0
VERTEX
 8
MESH_214_F0
 10
-481.1239
 20
-439.8171
 30
-3
 70
192
 0
VERTEX
 8
MESH_214_F0
 10
-478.3326
 20
-440.3286
 30
-3
 70
192
 0
VERTEX
 8
MESH_214_F0
 10
-475.5
 20
-440.5
 30
-3
 70
192
 0
VERTEX
 8
MESH_214_F0
 10
475.5
 20
-440.5
 30
-3
 70
192
 0
VERTEX
 8
MESH_214_F0
 10
478.3326
 20
-440.3286
 30
-3
 70
192
 0
VERTEX
 8
MESH_214_F0
 10
481.1239
 20
-439.8171
 30
-3
 70
192
 0
VERTEX
 8
MESH_214_F0
 10
483.8332
 20
-438.9729
 30
-3
 70
192
 0
VERTEX
 8
MESH_214_F0
 10
486.421
 20
-437.8082
 30
-3
 70
192
 0
VERTEX
 8
MESH_214_F0
 10
488.8495
 20
-436.3401
 30
-3
 70
192
 0
VERTEX
 8
MESH_214_F0
 10
491.0834
 20
-434.59
 30
-3
 70
192
 0
VERTEX
 8
MESH_214_F0
 10
493.09
 20
-432.5834
 30
-3
 70
192
 0
VERTEX
 8
MESH_214_F0
 10
494.8401
 20
-430.3495
 30
-3
 70
192
 0
VERTEX
 8
MESH_214_F0
 10
496.3082
 20
-427.921
 30
-3
 70
192
 0
VERTEX
 8
MESH_214_F0
 10
497.4729
 20
-425.3332
 30
-3
 70
192
 0
VERTEX
 8
MESH_214_F0
 10
498.3171
 20
-422.6239
 30
-3
 70
192
 0
VERTEX
 8
MESH_214_F0
 10
498.8286
 20
-419.8326
 30
-3
 70
192
 0
VERTEX
 8
MESH_214_F0
 10
499
 20
-417
 30
-3
 70
192
 0
VERTEX
 8
MESH_214_F0
 10
499
 20
-412
 30
-3
 70
192
 0
VERTEX
 8
MESH_214_F0
 10
0
 20
0
 30
0
 70
128
 71
1
 72
28
 73
2
 74
2
 0
VERTEX
 8
MESH_214_F0
 10
0
 20
0
 30
0
 70
128
 71
28
 72
3
 73
2
 74
2
 0
VERTEX
 8
MESH_214_F0
 10
0
 20
0
 30
0
 70
128
 71
4
 72
3
 73
28
 74
28
 0
VERTEX
 8
MESH_214_F0
 10
0
 20
0
 30
0
 70
128
 71
4
 72
28
 73
5
 74
5
 0
VERTEX
 8
MESH_214_F0
 10
0
 20
0
 30
0
 70
128
 71
28
 72
27
 73
5
 74
5
 0
VERTEX
 8
MESH_214_F0
 10
0
 20
0
 30
0
 70
128
 71
27
 72
6
 73
5
 74
5
 0
VERTEX
 8
MESH_214_F0
 10
0
 20
0
 30
0
 70
128
 71
7
 72
6
 73
27
 74
27
 0
VERTEX
 8
MESH_214_F0
 10
0
 20
0
 30
0
 70
128
 71
7
 72
27
 73
8
 74
8
 0
VERTEX
 8
MESH_214_F0
 10
0
 20
0
 30
0
 70
128
 71
27
 72
26
 73
8
 74
8
 0
VERTEX
 8
MESH_214_F0
 10
0
 20
0
 30
0
 70
128
 71
26
 72
9
 73
8
 74
8
 0
VERTEX
 8
MESH_214_F0
 10
0
 20
0
 30
0
 70
128
 71
25
 72
9
 73
26
 74
26
 0
VERTEX
 8
MESH_214_F0
 10
0
 20
0
 30
0
 70
128
 71
10
 72
9
 73
25
 74
25
 0
VERTEX
 8
MESH_214_F0
 10
0
 20
0
 30
0
 70
128
 71
10
 72
25
 73
11
 74
11
 0
VERTEX
 8
MESH_214_F0
 10
0
 20
0
 30
0
 70
128
 71
25
 72
12
 73
11
 74
11
 0
VERTEX
 8
MESH_214_F0
 10
0
 20
0
 30
0
 70
128
 71
15
 72
12
 73
25
 74
25
 0
VERTEX
 8
MESH_214_F0
 10
0
 20
0
 30
0
 70
128
 71
23
 72
15
 73
24
 74
24
 0
VERTEX
 8
MESH_214_F0
 10
0
 20
0
 30
0
 70
128
 71
15
 72
25
 73
24
 74
24
 0
VERTEX
 8
MESH_214_F0
 10
0
 20
0
 30
0
 70
128
 71
15
 72
13
 73
12
 74
12
 0
VERTEX
 8
MESH_214_F0
 10
0
 20
0
 30
0
 70
128
 71
14
 72
13
 73
15
 74
15
 0
VERTEX
 8
MESH_214_F0
 10
0
 20
0
 30
0
 70
128
 71
16
 72
18
 73
17
 74
17
 0
VERTEX
 8
MESH_214_F0
 10
0
 20
0
 30
0
 70
128
 71
19
 72
18
 73
16
 74
16
 0
VERTEX
 8
MESH_214_F0
 10
0
 20
0
 30
0
 70
128
 71
20
 72
19
 73
15
 74
15
 0
VERTEX
 8
MESH_214_F0
 10
0
 20
0
 30
0
 70
128
 71
20
 72
15
 73
21
 74
21
 0
VERTEX
 8
MESH_214_F0
 10
0
 20
0
 30
0
 70
128
 71
15
 72
22
 73
21
 74
21
 0
VERTEX
 8
MESH_214_F0
 10
0
 20
0
 30
0
 70
128
 71
23
 72
22
 73
15
 74
15
 0
VERTEX
 8
MESH_214_F0
 10
0
 20
0
 30
0
 70
128
 71
1
 72
29
 73
28
 74
28
 0
VERTEX
 8
MESH_214_F0
 10
0
 20
0
 30
0
 70
128
 71
30
 72
29
 73
1
 74
1
 0
VERTEX
 8
MESH_214_F0
 10
0
 20
0
 30
0
 70
128
 71
15
 72
19
 73
16
 74
16
 0
SEQEND
 0
POLYLINE
 8
MESH_213_F0
 66
1
 10
0.0
 20
0.0
 30
0.0
 70
64
 71
4
 72
2
 0
VERTEX
 8
MESH_213_F0
 10
499
 20
-412
 30
-3
 70
192
 0
VERTEX
 8
MESH_213_F0
 10
499
 20
-417
 30
-3
 70
192
 0
VERTEX
 8
MESH_213_F0
 10
499
 20
-417
 30
-7
 70
192
 0
VERTEX
 8
MESH_213_F0
 10
499
 20
-412
 30
-7
 70
192
 0
VERTEX
 8
MESH_213_F0
 10
0
 20
0
 30
0
 70
128
 71
4
 72
2
 73
1
 74
1
 0
VERTEX
 8
MESH_213_F0
 10
0
 20
0
 30
0
 70
128
 71
3
 72
2
 73
4
 74
4
 0
SEQEND
 0
POLYLINE
 8
MESH_212_F0
 66
1
 10
0.0
 20
0.0
 30
0.0
 70
64
 71
28
 72
26
 0
VERTEX
 8
MESH_212_F0
 10
475.5
 20
-440.5
 30
-3
 70
192
 0
VERTEX
 8
MESH_212_F0
 10
475.5
 20
-440.5
 30
-7
 70
192
 0
VERTEX
 8
MESH_212_F0
 10
478.3326
 20
-440.3286
 30
-7
 70
192
 0
VERTEX
 8
MESH_212_F0
 10
481.1239
 20
-439.8171
 30
-7
 70
192
 0
VERTEX
 8
MESH_212_F0
 10
483.8332
 20
-438.9729
 30
-7
 70
192
 0
VERTEX
 8
MESH_212_F0
 10
486.421
 20
-437.8082
 30
-7
 70
192
 0
VERTEX
 8
MESH_212_F0
 10
488.8495
 20
-436.3401
 30
-7
 70
192
 0
VERTEX
 8
MESH_212_F0
 10
491.0834
 20
-434.59
 30
-7
 70
192
 0
VERTEX
 8
MESH_212_F0
 10
493.09
 20
-432.5834
 30
-7
 70
192
 0
VERTEX
 8
MESH_212_F0
 10
494.8401
 20
-430.3495
 30
-7
 70
192
 0
VERTEX
 8
MESH_212_F0
 10
496.3082
 20
-427.921
 30
-7
 70
192
 0
VERTEX
 8
MESH_212_F0
 10
497.4729
 20
-425.3332
 30
-7
 70
192
 0
VERTEX
 8
MESH_212_F0
 10
498.3171
 20
-422.6239
 30
-7
 70
192
 0
VERTEX
 8
MESH_212_F0
 10
498.8286
 20
-419.8326
 30
-7
 70
192
 0
VERTEX
 8
MESH_212_F0
 10
499
 20
-417
 30
-7
 70
192
 0
VERTEX
 8
MESH_212_F0
 10
499
 20
-417
 30
-3
 70
192
 0
VERTEX
 8
MESH_212_F0
 10
498.8286
 20
-419.8326
 30
-3
 70
192
 0
VERTEX
 8
MESH_212_F0
 10
498.3171
 20
-422.6239
 30
-3
 70
192
 0
VERTEX
 8
MESH_212_F0
 10
497.4729
 20
-425.3332
 30
-3
 70
192
 0
VERTEX
 8
MESH_212_F0
 10
496.3082
 20
-427.921
 30
-3
 70
192
 0
VERTEX
 8
MESH_212_F0
 10
494.8401
 20
-430.3495
 30
-3
 70
192
 0
VERTEX
 8
MESH_212_F0
 10
493.09
 20
-432.5834
 30
-3
 70
192
 0
VERTEX
 8
MESH_212_F0
 10
491.0834
 20
-434.59
 30
-3
 70
192
 0
VERTEX
 8
MESH_212_F0
 10
488.8495
 20
-436.3401
 30
-3
 70
192
 0
VERTEX
 8
MESH_212_F0
 10
486.421
 20
-437.8082
 30
-3
 70
192
 0
VERTEX
 8
MESH_212_F0
 10
483.8332
 20
-438.9729
 30
-3
 70
192
 0
VERTEX
 8
MESH_212_F0
 10
481.1239
 20
-439.8171
 30
-3
 70
192
 0
VERTEX
 8
MESH_212_F0
 10
478.3326
 20
-440.3286
 30
-3
 70
192
 0
VERTEX
 8
MESH_212_F0
 10
0
 20
0
 30
0
 70
128
 71
28
 72
2
 73
1
 74
1
 0
VERTEX
 8
MESH_212_F0
 10
0
 20
0
 30
0
 70
128
 71
3
 72
2
 73
28
 74
28
 0
VERTEX
 8
MESH_212_F0
 10
0
 20
0
 30
0
 70
128
 71
4
 72
3
 73
27
 74
27
 0
VERTEX
 8
MESH_212_F0
 10
0
 20
0
 30
0
 70
128
 71
5
 72
4
 73
26
 74
26
 0
VERTEX
 8
MESH_212_F0
 10
0
 20
0
 30
0
 70
128
 71
6
 72
5
 73
25
 74
25
 0
VERTEX
 8
MESH_212_F0
 10
0
 20
0
 30
0
 70
128
 71
7
 72
6
 73
24
 74
24
 0
VERTEX
 8
MESH_212_F0
 10
0
 20
0
 30
0
 70
128
 71
8
 72
7
 73
23
 74
23
 0
VERTEX
 8
MESH_212_F0
 10
0
 20
0
 30
0
 70
128
 71
9
 72
8
 73
22
 74
22
 0
VERTEX
 8
MESH_212_F0
 10
0
 20
0
 30
0
 70
128
 71
10
 72
9
 73
21
 74
21
 0
VERTEX
 8
MESH_212_F0
 10
0
 20
0
 30
0
 70
128
 71
11
 72
10
 73
20
 74
20
 0
VERTEX
 8
MESH_212_F0
 10
0
 20
0
 30
0
 70
128
 71
12
 72
11
 73
19
 74
19
 0
VERTEX
 8
MESH_212_F0
 10
0
 20
0
 30
0
 70
128
 71
13
 72
12
 73
18
 74
18
 0
VERTEX
 8
MESH_212_F0
 10
0
 20
0
 30
0
 70
128
 71
14
 72
13
 73
17
 74
17
 0
VERTEX
 8
MESH_212_F0
 10
0
 20
0
 30
0
 70
128
 71
15
 72
14
 73
16
 74
16
 0
VERTEX
 8
MESH_212_F0
 10
0
 20
0
 30
0
 70
128
 71
14
 72
17
 73
16
 74
16
 0
VERTEX
 8
MESH_212_F0
 10
0
 20
0
 30
0
 70
128
 71
13
 72
18
 73
17
 74
17
 0
VERTEX
 8
MESH_212_F0
 10
0
 20
0
 30
0
 70
128
 71
12
 72
19
 73
18
 74
18
 0
VERTEX
 8
MESH_212_F0
 10
0
 20
0
 30
0
 70
128
 71
11
 72
20
 73
19
 74
19
 0
VERTEX
 8
MESH_212_F0
 10
0
 20
0
 30
0
 70
128
 71
10
 72
21
 73
20
 74
20
 0
VERTEX
 8
MESH_212_F0
 10
0
 20
0
 30
0
 70
128
 71
9
 72
22
 73
21
 74
21
 0
VERTEX
 8
MESH_212_F0
 10
0
 20
0
 30
0
 70
128
 71
8
 72
23
 73
22
 74
22
 0
VERTEX
 8
MESH_212_F0
 10
0
 20
0
 30
0
 70
128
 71
7
 72
24
 73
23
 74
23
 0
VERTEX
 8
MESH_212_F0
 10
0
 20
0
 30
0
 70
128
 71
6
 72
25
 73
24
 74
24
 0
VERTEX
 8
MESH_212_F0
 10
0
 20
0
 30
0
 70
128
 71
5
 72
26
 73
25
 74
25
 0
VERTEX
 8
MESH_212_F0
 10
0
 20
0
 30
0
 70
128
 71
4
 72
27
 73
26
 74
26
 0
VERTEX
 8
MESH_212_F0
 10
0
 20
0
 30
0
 70
128
 71
3
 72
28
 73
27
 74
27
 0
SEQEND
 0
POLYLINE
 8
MESH_211_F0
 66
1
 10
0.0
 20
0.0
 30
0.0
 70
64
 71
4
 72
2
 0
VERTEX
 8
MESH_211_F0
 10
475.5
 20
-440.5
 30
-7
 70
192
 0
VERTEX
 8
MESH_211_F0
 10
475.5
 20
-440.5
 30
-3
 70
192
 0
VERTEX
 8
MESH_211_F0
 10
-475.5
 20
-440.5
 30
-3
 70
192
 0
VERTEX
 8
MESH_211_F0
 10
-475.5
 20
-440.5
 30
-7
 70
192
 0
VERTEX
 8
MESH_211_F0
 10
0
 20
0
 30
0
 70
128
 71
1
 72
3
 73
2
 74
2
 0
VERTEX
 8
MESH_211_F0
 10
0
 20
0
 30
0
 70
128
 71
4
 72
3
 73
1
 74
1
 0
SEQEND
 0
POLYLINE
 8
MESH_210_F0
 66
1
 10
0.0
 20
0.0
 30
0.0
 70
64
 71
28
 72
26
 0
VERTEX
 8
MESH_210_F0
 10
-499
 20
-417
 30
-3
 70
192
 0
VERTEX
 8
MESH_210_F0
 10
-499
 20
-417
 30
-7
 70
192
 0
VERTEX
 8
MESH_210_F0
 10
-498.8286
 20
-419.8326
 30
-7
 70
192
 0
VERTEX
 8
MESH_210_F0
 10
-498.3171
 20
-422.6239
 30
-7
 70
192
 0
VERTEX
 8
MESH_210_F0
 10
-497.4729
 20
-425.3332
 30
-7
 70
192
 0
VERTEX
 8
MESH_210_F0
 10
-496.3082
 20
-427.921
 30
-7
 70
192
 0
VERTEX
 8
MESH_210_F0
 10
-494.8401
 20
-430.3495
 30
-7
 70
192
 0
VERTEX
 8
MESH_210_F0
 10
-493.09
 20
-432.5834
 30
-7
 70
192
 0
VERTEX
 8
MESH_210_F0
 10
-491.0834
 20
-434.59
 30
-7
 70
192
 0
VERTEX
 8
MESH_210_F0
 10
-488.8495
 20
-436.3401
 30
-7
 70
192
 0
VERTEX
 8
MESH_210_F0
 10
-486.421
 20
-437.8082
 30
-7
 70
192
 0
VERTEX
 8
MESH_210_F0
 10
-483.8332
 20
-438.9729
 30
-7
 70
192
 0
VERTEX
 8
MESH_210_F0
 10
-481.1239
 20
-439.8171
 30
-7
 70
192
 0
VERTEX
 8
MESH_210_F0
 10
-478.3326
 20
-440.3286
 30
-7
 70
192
 0
VERTEX
 8
MESH_210_F0
 10
-475.5
 20
-440.5
 30
-7
 70
192
 0
VERTEX
 8
MESH_210_F0
 10
-475.5
 20
-440.5
 30
-3
 70
192
 0
VERTEX
 8
MESH_210_F0
 10
-478.3326
 20
-440.3286
 30
-3
 70
192
 0
VERTEX
 8
MESH_210_F0
 10
-481.1239
 20
-439.8171
 30
-3
 70
192
 0
VERTEX
 8
MESH_210_F0
 10
-483.8332
 20
-438.9729
 30
-3
 70
192
 0
VERTEX
 8
MESH_210_F0
 10
-486.421
 20
-437.8082
 30
-3
 70
192
 0
VERTEX
 8
MESH_210_F0
 10
-488.8495
 20
-436.3401
 30
-3
 70
192
 0
VERTEX
 8
MESH_210_F0
 10
-491.0834
 20
-434.59
 30
-3
 70
192
 0
VERTEX
 8
MESH_210_F0
 10
-493.09
 20
-432.5834
 30
-3
 70
192
 0
VERTEX
 8
MESH_210_F0
 10
-494.8401
 20
-430.3495
 30
-3
 70
192
 0
VERTEX
 8
MESH_210_F0
 10
-496.3082
 20
-427.921
 30
-3
 70
192
 0
VERTEX
 8
MESH_210_F0
 10
-497.4729
 20
-425.3332
 30
-3
 70
192
 0
VERTEX
 8
MESH_210_F0
 10
-498.3171
 20
-422.6239
 30
-3
 70
192
 0
VERTEX
 8
MESH_210_F0
 10
-498.8286
 20
-419.8326
 30
-3
 70
192
 0
VERTEX
 8
MESH_210_F0
 10
0
 20
0
 30
0
 70
128
 71
28
 72
2
 73
1
 74
1
 0
VERTEX
 8
MESH_210_F0
 10
0
 20
0
 30
0
 70
128
 71
3
 72
2
 73
28
 74
28
 0
VERTEX
 8
MESH_210_F0
 10
0
 20
0
 30
0
 70
128
 71
4
 72
3
 73
27
 74
27
 0
VERTEX
 8
MESH_210_F0
 10
0
 20
0
 30
0
 70
128
 71
5
 72
4
 73
26
 74
26
 0
VERTEX
 8
MESH_210_F0
 10
0
 20
0
 30
0
 70
128
 71
6
 72
5
 73
25
 74
25
 0
VERTEX
 8
MESH_210_F0
 10
0
 20
0
 30
0
 70
128
 71
7
 72
6
 73
24
 74
24
 0
VERTEX
 8
MESH_210_F0
 10
0
 20
0
 30
0
 70
128
 71
8
 72
7
 73
23
 74
23
 0
VERTEX
 8
MESH_210_F0
 10
0
 20
0
 30
0
 70
128
 71
9
 72
8
 73
22
 74
22
 0
VERTEX
 8
MESH_210_F0
 10
0
 20
0
 30
0
 70
128
 71
10
 72
9
 73
21
 74
21
 0
VERTEX
 8
MESH_210_F0
 10
0
 20
0
 30
0
 70
128
 71
11
 72
10
 73
20
 74
20
 0
VERTEX
 8
MESH_210_F0
 10
0
 20
0
 30
0
 70
128
 71
12
 72
11
 73
19
 74
19
 0
VERTEX
 8
MESH_210_F0
 10
0
 20
0
 30
0
 70
128
 71
13
 72
12
 73
18
 74
18
 0
VERTEX
 8
MESH_210_F0
 10
0
 20
0
 30
0
 70
128
 71
14
 72
13
 73
17
 74
17
 0
VERTEX
 8
MESH_210_F0
 10
0
 20
0
 30
0
 70
128
 71
15
 72
14
 73
16
 74
16
 0
VERTEX
 8
MESH_210_F0
 10
0
 20
0
 30
0
 70
128
 71
14
 72
17
 73
16
 74
16
 0
VERTEX
 8
MESH_210_F0
 10
0
 20
0
 30
0
 70
128
 71
13
 72
18
 73
17
 74
17
 0
VERTEX
 8
MESH_210_F0
 10
0
 20
0
 30
0
 70
128
 71
12
 72
19
 73
18
 74
18
 0
VERTEX
 8
MESH_210_F0
 10
0
 20
0
 30
0
 70
128
 71
11
 72
20
 73
19
 74
19
 0
VERTEX
 8
MESH_210_F0
 10
0
 20
0
 30
0
 70
128
 71
10
 72
21
 73
20
 74
20
 0
VERTEX
 8
MESH_210_F0
 10
0
 20
0
 30
0
 70
128
 71
9
 72
22
 73
21
 74
21
 0
VERTEX
 8
MESH_210_F0
 10
0
 20
0
 30
0
 70
128
 71
8
 72
23
 73
22
 74
22
 0
VERTEX
 8
MESH_210_F0
 10
0
 20
0
 30
0
 70
128
 71
7
 72
24
 73
23
 74
23
 0
VERTEX
 8
MESH_210_F0
 10
0
 20
0
 30
0
 70
128
 71
6
 72
25
 73
24
 74
24
 0
VERTEX
 8
MESH_210_F0
 10
0
 20
0
 30
0
 70
128
 71
5
 72
26
 73
25
 74
25
 0
VERTEX
 8
MESH_210_F0
 10
0
 20
0
 30
0
 70
128
 71
4
 72
27
 73
26
 74
26
 0
VERTEX
 8
MESH_210_F0
 10
0
 20
0
 30
0
 70
128
 71
3
 72
28
 73
27
 74
27
 0
SEQEND
 0
POLYLINE
 8
MESH_209_F0
 66
1
 10
0.0
 20
0.0
 30
0.0
 70
64
 71
4
 72
2
 0
VERTEX
 8
MESH_209_F0
 10
-499
 20
-412
 30
-7
 70
192
 0
VERTEX
 8
MESH_209_F0
 10
-499
 20
-417
 30
-7
 70
192
 0
VERTEX
 8
MESH_209_F0
 10
-499
 20
-417
 30
-3
 70
192
 0
VERTEX
 8
MESH_209_F0
 10
-499
 20
-412
 30
-3
 70
192
 0
VERTEX
 8
MESH_209_F0
 10
0
 20
0
 30
0
 70
128
 71
4
 72
2
 73
1
 74
1
 0
VERTEX
 8
MESH_209_F0
 10
0
 20
0
 30
0
 70
128
 71
3
 72
2
 73
4
 74
4
 0
SEQEND
 0
POLYLINE
 8
MESH_208_F0
 66
1
 10
0.0
 20
0.0
 30
0.0
 70
64
 71
24
 72
24
 0
VERTEX
 8
MESH_208_F0
 10
498.5
 20
-412
 30
-237
 70
192
 0
VERTEX
 8
MESH_208_F0
 10
-498.5
 20
-412
 30
-237
 70
192
 0
VERTEX
 8
MESH_208_F0
 10
-498.5
 20
-412
 30
-7
 70
192
 0
VERTEX
 8
MESH_208_F0
 10
-499
 20
-412
 30
-7
 70
192
 0
VERTEX
 8
MESH_208_F0
 10
-499
 20
-412
 30
-3
 70
192
 0
VERTEX
 8
MESH_208_F0
 10
499
 20
-412
 30
-3
 70
192
 0
VERTEX
 8
MESH_208_F0
 10
499
 20
-412
 30
-7
 70
192
 0
VERTEX
 8
MESH_208_F0
 10
498.5
 20
-412
 30
-7
 70
192
 0
VERTEX
 8
MESH_208_F0
 10
498.5
 20
-412
 30
-474
 70
192
 0
VERTEX
 8
MESH_208_F0
 10
482
 20
-412
 30
-474
 70
192
 0
VERTEX
 8
MESH_208_F0
 10
482
 20
-412
 30
-475
 70
192
 0
VERTEX
 8
MESH_208_F0
 10
500
 20
-412
 30
-475
 70
192
 0
VERTEX
 8
MESH_208_F0
 10
500
 20
-412
 30
0
 70
192
 0
VERTEX
 8
MESH_208_F0
 10
-500
 20
-412
 30
0
 70
192
 0
VERTEX
 8
MESH_208_F0
 10
-500
 20
-412
 30
-475
 70
192
 0
VERTEX
 8
MESH_208_F0
 10
-482
 20
-412
 30
-475
 70
192
 0
VERTEX
 8
MESH_208_F0
 10
-482
 20
-412
 30
-474
 70
192
 0
VERTEX
 8
MESH_208_F0
 10
-498.5
 20
-412
 30
-474
 70
192
 0
VERTEX
 8
MESH_208_F0
 10
-498.5
 20
-412
 30
-244
 70
192
 0
VERTEX
 8
MESH_208_F0
 10
-499
 20
-412
 30
-244
 70
192
 0
VERTEX
 8
MESH_208_F0
 10
-499
 20
-412
 30
-240
 70
192
 0
VERTEX
 8
MESH_208_F0
 10
499
 20
-412
 30
-240
 70
192
 0
VERTEX
 8
MESH_208_F0
 10
499
 20
-412
 30
-244
 70
192
 0
VERTEX
 8
MESH_208_F0
 10
498.5
 20
-412
 30
-244
 70
192
 0
VERTEX
 8
MESH_208_F0
 10
0
 20
0
 30
0
 70
128
 71
22
 72
1
 73
8
 74
8
 0
VERTEX
 8
MESH_208_F0
 10
0
 20
0
 30
0
 70
128
 71
13
 72
22
 73
7
 74
7
 0
VERTEX
 8
MESH_208_F0
 10
0
 20
0
 30
0
 70
128
 71
14
 72
13
 73
6
 74
6
 0
VERTEX
 8
MESH_208_F0
 10
0
 20
0
 30
0
 70
128
 71
4
 72
14
 73
5
 74
5
 0
VERTEX
 8
MESH_208_F0
 10
0
 20
0
 30
0
 70
128
 71
14
 72
6
 73
5
 74
5
 0
VERTEX
 8
MESH_208_F0
 10
0
 20
0
 30
0
 70
128
 71
2
 72
4
 73
3
 74
3
 0
VERTEX
 8
MESH_208_F0
 10
0
 20
0
 30
0
 70
128
 71
21
 72
4
 73
2
 74
2
 0
VERTEX
 8
MESH_208_F0
 10
0
 20
0
 30
0
 70
128
 71
21
 72
2
 73
22
 74
22
 0
VERTEX
 8
MESH_208_F0
 10
0
 20
0
 30
0
 70
128
 71
2
 72
1
 73
22
 74
22
 0
VERTEX
 8
MESH_208_F0
 10
0
 20
0
 30
0
 70
128
 71
13
 72
7
 73
6
 74
6
 0
VERTEX
 8
MESH_208_F0
 10
0
 20
0
 30
0
 70
128
 71
22
 72
8
 73
7
 74
7
 0
VERTEX
 8
MESH_208_F0
 10
0
 20
0
 30
0
 70
128
 71
9
 72
11
 73
10
 74
10
 0
VERTEX
 8
MESH_208_F0
 10
0
 20
0
 30
0
 70
128
 71
12
 72
11
 73
9
 74
9
 0
VERTEX
 8
MESH_208_F0
 10
0
 20
0
 30
0
 70
128
 71
23
 72
12
 73
24
 74
24
 0
VERTEX
 8
MESH_208_F0
 10
0
 20
0
 30
0
 70
128
 71
12
 72
9
 73
24
 74
24
 0
VERTEX
 8
MESH_208_F0
 10
0
 20
0
 30
0
 70
128
 71
22
 72
12
 73
23
 74
23
 0
VERTEX
 8
MESH_208_F0
 10
0
 20
0
 30
0
 70
128
 71
13
 72
12
 73
22
 74
22
 0
VERTEX
 8
MESH_208_F0
 10
0
 20
0
 30
0
 70
128
 71
21
 72
14
 73
4
 74
4
 0
VERTEX
 8
MESH_208_F0
 10
0
 20
0
 30
0
 70
128
 71
15
 72
14
 73
21
 74
21
 0
VERTEX
 8
MESH_208_F0
 10
0
 20
0
 30
0
 70
128
 71
18
 72
15
 73
20
 74
20
 0
VERTEX
 8
MESH_208_F0
 10
0
 20
0
 30
0
 70
128
 71
18
 72
20
 73
19
 74
19
 0
VERTEX
 8
MESH_208_F0
 10
0
 20
0
 30
0
 70
128
 71
18
 72
16
 73
15
 74
15
 0
VERTEX
 8
MESH_208_F0
 10
0
 20
0
 30
0
 70
128
 71
17
 72
16
 73
18
 74
18
 0
VERTEX
 8
MESH_208_F0
 10
0
 20
0
 30
0
 70
128
 71
15
 72
21
 73
20
 74
20
 0
SEQEND
 0
POLYLINE
 8
MESH_207_F0
 66
1
 10
0.0
 20
0.0
 30
0.0
 70
64
 71
28
 72
26
 0
VERTEX
 8
MESH_207_F0
 10
-498.5
 20
-417
 30
-7
 70
192
 0
VERTEX
 8
MESH_207_F0
 10
-498.5
 20
-417
 30
-237
 70
192
 0
VERTEX
 8
MESH_207_F0
 10
-498.3323
 20
-419.7723
 30
-237
 70
192
 0
VERTEX
 8
MESH_207_F0
 10
-497.8317
 20
-422.5042
 30
-237
 70
192
 0
VERTEX
 8
MESH_207_F0
 10
-497.0054
 20
-425.1559
 30
-237
 70
192
 0
VERTEX
 8
MESH_207_F0
 10
-495.8654
 20
-427.6886
 30
-237
 70
192
 0
VERTEX
 8
MESH_207_F0
 10
-494.4286
 20
-430.0655
 30
-237
 70
192
 0
VERTEX
 8
MESH_207_F0
 10
-492.7158
 20
-432.2518
 30
-237
 70
192
 0
VERTEX
 8
MESH_207_F0
 10
-490.7518
 20
-434.2157
 30
-237
 70
192
 0
VERTEX
 8
MESH_207_F0
 10
-488.5655
 20
-435.9286
 30
-237
 70
192
 0
VERTEX
 8
MESH_207_F0
 10
-486.1886
 20
-437.3655
 30
-237
 70
192
 0
VERTEX
 8
MESH_207_F0
 10
-483.6559
 20
-438.5053
 30
-237
 70
192
 0
VERTEX
 8
MESH_207_F0
 10
-481.0042
 20
-439.3317
 30
-237
 70
192
 0
VERTEX
 8
MESH_207_F0
 10
-478.2723
 20
-439.8323
 30
-237
 70
192
 0
VERTEX
 8
MESH_207_F0
 10
-475.5
 20
-440
 30
-237
 70
192
 0
VERTEX
 8
MESH_207_F0
 10
-475.5
 20
-440
 30
-7
 70
192
 0
VERTEX
 8
MESH_207_F0
 10
-478.2723
 20
-439.8323
 30
-7
 70
192
 0
VERTEX
 8
MESH_207_F0
 10
-481.0042
 20
-439.3317
 30
-7
 70
192
 0
VERTEX
 8
MESH_207_F0
 10
-483.6559
 20
-438.5053
 30
-7
 70
192
 0
VERTEX
 8
MESH_207_F0
 10
-486.1886
 20
-437.3655
 30
-7
 70
192
 0
VERTEX
 8
MESH_207_F0
 10
-488.5655
 20
-435.9286
 30
-7
 70
192
 0
VERTEX
 8
MESH_207_F0
 10
-490.7518
 20
-434.2157
 30
-7
 70
192
 0
VERTEX
 8
MESH_207_F0
 10
-492.7158
 20
-432.2518
 30
-7
 70
192
 0
VERTEX
 8
MESH_207_F0
 10
-494.4286
 20
-430.0655
 30
-7
 70
192
 0
VERTEX
 8
MESH_207_F0
 10
-495.8654
 20
-427.6886
 30
-7
 70
192
 0
VERTEX
 8
MESH_207_F0
 10
-497.0054
 20
-425.1559
 30
-7
 70
192
 0
VERTEX
 8
MESH_207_F0
 10
-497.8317
 20
-422.5042
 30
-7
 70
192
 0
VERTEX
 8
MESH_207_F0
 10
-498.3323
 20
-419.7723
 30
-7
 70
192
 0
VERTEX
 8
MESH_207_F0
 10
0
 20
0
 30
0
 70
128
 71
28
 72
2
 73
1
 74
1
 0
VERTEX
 8
MESH_207_F0
 10
0
 20
0
 30
0
 70
128
 71
3
 72
2
 73
28
 74
28
 0
VERTEX
 8
MESH_207_F0
 10
0
 20
0
 30
0
 70
128
 71
4
 72
3
 73
27
 74
27
 0
VERTEX
 8
MESH_207_F0
 10
0
 20
0
 30
0
 70
128
 71
5
 72
4
 73
26
 74
26
 0
VERTEX
 8
MESH_207_F0
 10
0
 20
0
 30
0
 70
128
 71
6
 72
5
 73
25
 74
25
 0
VERTEX
 8
MESH_207_F0
 10
0
 20
0
 30
0
 70
128
 71
7
 72
6
 73
24
 74
24
 0
VERTEX
 8
MESH_207_F0
 10
0
 20
0
 30
0
 70
128
 71
8
 72
7
 73
23
 74
23
 0
VERTEX
 8
MESH_207_F0
 10
0
 20
0
 30
0
 70
128
 71
9
 72
8
 73
22
 74
22
 0
VERTEX
 8
MESH_207_F0
 10
0
 20
0
 30
0
 70
128
 71
10
 72
9
 73
21
 74
21
 0
VERTEX
 8
MESH_207_F0
 10
0
 20
0
 30
0
 70
128
 71
11
 72
10
 73
20
 74
20
 0
VERTEX
 8
MESH_207_F0
 10
0
 20
0
 30
0
 70
128
 71
12
 72
11
 73
19
 74
19
 0
VERTEX
 8
MESH_207_F0
 10
0
 20
0
 30
0
 70
128
 71
13
 72
12
 73
18
 74
18
 0
VERTEX
 8
MESH_207_F0
 10
0
 20
0
 30
0
 70
128
 71
14
 72
13
 73
17
 74
17
 0
VERTEX
 8
MESH_207_F0
 10
0
 20
0
 30
0
 70
128
 71
15
 72
14
 73
16
 74
16
 0
VERTEX
 8
MESH_207_F0
 10
0
 20
0
 30
0
 70
128
 71
14
 72
17
 73
16
 74
16
 0
VERTEX
 8
MESH_207_F0
 10
0
 20
0
 30
0
 70
128
 71
13
 72
18
 73
17
 74
17
 0
VERTEX
 8
MESH_207_F0
 10
0
 20
0
 30
0
 70
128
 71
12
 72
19
 73
18
 74
18
 0
VERTEX
 8
MESH_207_F0
 10
0
 20
0
 30
0
 70
128
 71
11
 72
20
 73
19
 74
19
 0
VERTEX
 8
MESH_207_F0
 10
0
 20
0
 30
0
 70
128
 71
10
 72
21
 73
20
 74
20
 0
VERTEX
 8
MESH_207_F0
 10
0
 20
0
 30
0
 70
128
 71
9
 72
22
 73
21
 74
21
 0
VERTEX
 8
MESH_207_F0
 10
0
 20
0
 30
0
 70
128
 71
8
 72
23
 73
22
 74
22
 0
VERTEX
 8
MESH_207_F0
 10
0
 20
0
 30
0
 70
128
 71
7
 72
24
 73
23
 74
23
 0
VERTEX
 8
MESH_207_F0
 10
0
 20
0
 30
0
 70
128
 71
6
 72
25
 73
24
 74
24
 0
VERTEX
 8
MESH_207_F0
 10
0
 20
0
 30
0
 70
128
 71
5
 72
26
 73
25
 74
25
 0
VERTEX
 8
MESH_207_F0
 10
0
 20
0
 30
0
 70
128
 71
4
 72
27
 73
26
 74
26
 0
VERTEX
 8
MESH_207_F0
 10
0
 20
0
 30
0
 70
128
 71
3
 72
28
 73
27
 74
27
 0
SEQEND
 0
POLYLINE
 8
MESH_206_F0
 66
1
 10
0.0
 20
0.0
 30
0.0
 70
64
 71
4
 72
2
 0
VERTEX
 8
MESH_206_F0
 10
-475.5
 20
-440
 30
-7
 70
192
 0
VERTEX
 8
MESH_206_F0
 10
-475.5
 20
-440
 30
-237
 70
192
 0
VERTEX
 8
MESH_206_F0
 10
475.5
 20
-440
 30
-237
 70
192
 0
VERTEX
 8
MESH_206_F0
 10
475.5
 20
-440
 30
-7
 70
192
 0
VERTEX
 8
MESH_206_F0
 10
0
 20
0
 30
0
 70
128
 71
1
 72
3
 73
2
 74
2
 0
VERTEX
 8
MESH_206_F0
 10
0
 20
0
 30
0
 70
128
 71
4
 72
3
 73
1
 74
1
 0
SEQEND
 0
POLYLINE
 8
MESH_205_F0
 66
1
 10
0.0
 20
0.0
 30
0.0
 70
64
 71
28
 72
26
 0
VERTEX
 8
MESH_205_F0
 10
475.5
 20
-440
 30
-7
 70
192
 0
VERTEX
 8
MESH_205_F0
 10
475.5
 20
-440
 30
-237
 70
192
 0
VERTEX
 8
MESH_205_F0
 10
478.2723
 20
-439.8323
 30
-237
 70
192
 0
VERTEX
 8
MESH_205_F0
 10
481.0042
 20
-439.3317
 30
-237
 70
192
 0
VERTEX
 8
MESH_205_F0
 10
483.6559
 20
-438.5053
 30
-237
 70
192
 0
VERTEX
 8
MESH_205_F0
 10
486.1886
 20
-437.3655
 30
-237
 70
192
 0
VERTEX
 8
MESH_205_F0
 10
488.5655
 20
-435.9286
 30
-237
 70
192
 0
VERTEX
 8
MESH_205_F0
 10
490.7518
 20
-434.2157
 30
-237
 70
192
 0
VERTEX
 8
MESH_205_F0
 10
492.7158
 20
-432.2518
 30
-237
 70
192
 0
VERTEX
 8
MESH_205_F0
 10
494.4286
 20
-430.0655
 30
-237
 70
192
 0
VERTEX
 8
MESH_205_F0
 10
495.8654
 20
-427.6886
 30
-237
 70
192
 0
VERTEX
 8
MESH_205_F0
 10
497.0054
 20
-425.1559
 30
-237
 70
192
 0
VERTEX
 8
MESH_205_F0
 10
497.8317
 20
-422.5042
 30
-237
 70
192
 0
VERTEX
 8
MESH_205_F0
 10
498.3323
 20
-419.7723
 30
-237
 70
192
 0
VERTEX
 8
MESH_205_F0
 10
498.5
 20
-417
 30
-237
 70
192
 0
VERTEX
 8
MESH_205_F0
 10
498.5
 20
-417
 30
-7
 70
192
 0
VERTEX
 8
MESH_205_F0
 10
498.3323
 20
-419.7723
 30
-7
 70
192
 0
VERTEX
 8
MESH_205_F0
 10
497.8317
 20
-422.5042
 30
-7
 70
192
 0
VERTEX
 8
MESH_205_F0
 10
497.0054
 20
-425.1559
 30
-7
 70
192
 0
VERTEX
 8
MESH_205_F0
 10
495.8654
 20
-427.6886
 30
-7
 70
192
 0
VERTEX
 8
MESH_205_F0
 10
494.4286
 20
-430.0655
 30
-7
 70
192
 0
VERTEX
 8
MESH_205_F0
 10
492.7158
 20
-432.2518
 30
-7
 70
192
 0
VERTEX
 8
MESH_205_F0
 10
490.7518
 20
-434.2157
 30
-7
 70
192
 0
VERTEX
 8
MESH_205_F0
 10
488.5655
 20
-435.9286
 30
-7
 70
192
 0
VERTEX
 8
MESH_205_F0
 10
486.1886
 20
-437.3655
 30
-7
 70
192
 0
VERTEX
 8
MESH_205_F0
 10
483.6559
 20
-438.5053
 30
-7
 70
192
 0
VERTEX
 8
MESH_205_F0
 10
481.0042
 20
-439.3317
 30
-7
 70
192
 0
VERTEX
 8
MESH_205_F0
 10
478.2723
 20
-439.8323
 30
-7
 70
192
 0
VERTEX
 8
MESH_205_F0
 10
0
 20
0
 30
0
 70
128
 71
28
 72
2
 73
1
 74
1
 0
VERTEX
 8
MESH_205_F0
 10
0
 20
0
 30
0
 70
128
 71
3
 72
2
 73
28
 74
28
 0
VERTEX
 8
MESH_205_F0
 10
0
 20
0
 30
0
 70
128
 71
4
 72
3
 73
27
 74
27
 0
VERTEX
 8
MESH_205_F0
 10
0
 20
0
 30
0
 70
128
 71
5
 72
4
 73
26
 74
26
 0
VERTEX
 8
MESH_205_F0
 10
0
 20
0
 30
0
 70
128
 71
6
 72
5
 73
25
 74
25
 0
VERTEX
 8
MESH_205_F0
 10
0
 20
0
 30
0
 70
128
 71
7
 72
6
 73
24
 74
24
 0
VERTEX
 8
MESH_205_F0
 10
0
 20
0
 30
0
 70
128
 71
8
 72
7
 73
23
 74
23
 0
VERTEX
 8
MESH_205_F0
 10
0
 20
0
 30
0
 70
128
 71
9
 72
8
 73
22
 74
22
 0
VERTEX
 8
MESH_205_F0
 10
0
 20
0
 30
0
 70
128
 71
10
 72
9
 73
21
 74
21
 0
VERTEX
 8
MESH_205_F0
 10
0
 20
0
 30
0
 70
128
 71
11
 72
10
 73
20
 74
20
 0
VERTEX
 8
MESH_205_F0
 10
0
 20
0
 30
0
 70
128
 71
12
 72
11
 73
19
 74
19
 0
VERTEX
 8
MESH_205_F0
 10
0
 20
0
 30
0
 70
128
 71
13
 72
12
 73
18
 74
18
 0
VERTEX
 8
MESH_205_F0
 10
0
 20
0
 30
0
 70
128
 71
14
 72
13
 73
17
 74
17
 0
VERTEX
 8
MESH_205_F0
 10
0
 20
0
 30
0
 70
128
 71
15
 72
14
 73
16
 74
16
 0
VERTEX
 8
MESH_205_F0
 10
0
 20
0
 30
0
 70
128
 71
14
 72
17
 73
16
 74
16
 0
VERTEX
 8
MESH_205_F0
 10
0
 20
0
 30
0
 70
128
 71
13
 72
18
 73
17
 74
17
 0
VERTEX
 8
MESH_205_F0
 10
0
 20
0
 30
0
 70
128
 71
12
 72
19
 73
18
 74
18
 0
VERTEX
 8
MESH_205_F0
 10
0
 20
0
 30
0
 70
128
 71
11
 72
20
 73
19
 74
19
 0
VERTEX
 8
MESH_205_F0
 10
0
 20
0
 30
0
 70
128
 71
10
 72
21
 73
20
 74
20
 0
VERTEX
 8
MESH_205_F0
 10
0
 20
0
 30
0
 70
128
 71
9
 72
22
 73
21
 74
21
 0
VERTEX
 8
MESH_205_F0
 10
0
 20
0
 30
0
 70
128
 71
8
 72
23
 73
22
 74
22
 0
VERTEX
 8
MESH_205_F0
 10
0
 20
0
 30
0
 70
128
 71
7
 72
24
 73
23
 74
23
 0
VERTEX
 8
MESH_205_F0
 10
0
 20
0
 30
0
 70
128
 71
6
 72
25
 73
24
 74
24
 0
VERTEX
 8
MESH_205_F0
 10
0
 20
0
 30
0
 70
128
 71
5
 72
26
 73
25
 74
25
 0
VERTEX
 8
MESH_205_F0
 10
0
 20
0
 30
0
 70
128
 71
4
 72
27
 73
26
 74
26
 0
VERTEX
 8
MESH_205_F0
 10
0
 20
0
 30
0
 70
128
 71
3
 72
28
 73
27
 74
27
 0
SEQEND
 0
POLYLINE
 8
MESH_204_F0
 66
1
 10
0.0
 20
0.0
 30
0.0
 70
64
 71
30
 72
28
 0
VERTEX
 8
MESH_204_F0
 10
498.5
 20
-412
 30
-237
 70
192
 0
VERTEX
 8
MESH_204_F0
 10
498.5
 20
-417
 30
-237
 70
192
 0
VERTEX
 8
MESH_204_F0
 10
498.3323
 20
-419.7723
 30
-237
 70
192
 0
VERTEX
 8
MESH_204_F0
 10
497.8317
 20
-422.5042
 30
-237
 70
192
 0
VERTEX
 8
MESH_204_F0
 10
497.0054
 20
-425.1559
 30
-237
 70
192
 0
VERTEX
 8
MESH_204_F0
 10
495.8654
 20
-427.6886
 30
-237
 70
192
 0
VERTEX
 8
MESH_204_F0
 10
494.4286
 20
-430.0655
 30
-237
 70
192
 0
VERTEX
 8
MESH_204_F0
 10
492.7158
 20
-432.2518
 30
-237
 70
192
 0
VERTEX
 8
MESH_204_F0
 10
490.7518
 20
-434.2157
 30
-237
 70
192
 0
VERTEX
 8
MESH_204_F0
 10
488.5655
 20
-435.9286
 30
-237
 70
192
 0
VERTEX
 8
MESH_204_F0
 10
486.1886
 20
-437.3655
 30
-237
 70
192
 0
VERTEX
 8
MESH_204_F0
 10
483.6559
 20
-438.5053
 30
-237
 70
192
 0
VERTEX
 8
MESH_204_F0
 10
481.0042
 20
-439.3317
 30
-237
 70
192
 0
VERTEX
 8
MESH_204_F0
 10
478.2723
 20
-439.8323
 30
-237
 70
192
 0
VERTEX
 8
MESH_204_F0
 10
475.5
 20
-440
 30
-237
 70
192
 0
VERTEX
 8
MESH_204_F0
 10
-475.5
 20
-440
 30
-237
 70
192
 0
VERTEX
 8
MESH_204_F0
 10
-478.2723
 20
-439.8323
 30
-237
 70
192
 0
VERTEX
 8
MESH_204_F0
 10
-481.0042
 20
-439.3317
 30
-237
 70
192
 0
VERTEX
 8
MESH_204_F0
 10
-483.6559
 20
-438.5053
 30
-237
 70
192
 0
VERTEX
 8
MESH_204_F0
 10
-486.1886
 20
-437.3655
 30
-237
 70
192
 0
VERTEX
 8
MESH_204_F0
 10
-488.5655
 20
-435.9286
 30
-237
 70
192
 0
VERTEX
 8
MESH_204_F0
 10
-490.7518
 20
-434.2157
 30
-237
 70
192
 0
VERTEX
 8
MESH_204_F0
 10
-492.7158
 20
-432.2518
 30
-237
 70
192
 0
VERTEX
 8
MESH_204_F0
 10
-494.4286
 20
-430.0655
 30
-237
 70
192
 0
VERTEX
 8
MESH_204_F0
 10
-495.8654
 20
-427.6886
 30
-237
 70
192
 0
VERTEX
 8
MESH_204_F0
 10
-497.0054
 20
-425.1559
 30
-237
 70
192
 0
VERTEX
 8
MESH_204_F0
 10
-497.8317
 20
-422.5042
 30
-237
 70
192
 0
VERTEX
 8
MESH_204_F0
 10
-498.3323
 20
-419.7723
 30
-237
 70
192
 0
VERTEX
 8
MESH_204_F0
 10
-498.5
 20
-417
 30
-237
 70
192
 0
VERTEX
 8
MESH_204_F0
 10
-498.5
 20
-412
 30
-237
 70
192
 0
VERTEX
 8
MESH_204_F0
 10
0
 20
0
 30
0
 70
128
 71
30
 72
2
 73
1
 74
1
 0
VERTEX
 8
MESH_204_F0
 10
0
 20
0
 30
0
 70
128
 71
3
 72
2
 73
30
 74
30
 0
VERTEX
 8
MESH_204_F0
 10
0
 20
0
 30
0
 70
128
 71
28
 72
3
 73
29
 74
29
 0
VERTEX
 8
MESH_204_F0
 10
0
 20
0
 30
0
 70
128
 71
3
 72
30
 73
29
 74
29
 0
VERTEX
 8
MESH_204_F0
 10
0
 20
0
 30
0
 70
128
 71
4
 72
25
 73
24
 74
24
 0
VERTEX
 8
MESH_204_F0
 10
0
 20
0
 30
0
 70
128
 71
5
 72
4
 73
23
 74
23
 0
VERTEX
 8
MESH_204_F0
 10
0
 20
0
 30
0
 70
128
 71
6
 72
5
 73
22
 74
22
 0
VERTEX
 8
MESH_204_F0
 10
0
 20
0
 30
0
 70
128
 71
20
 72
6
 73
21
 74
21
 0
VERTEX
 8
MESH_204_F0
 10
0
 20
0
 30
0
 70
128
 71
6
 72
22
 73
21
 74
21
 0
VERTEX
 8
MESH_204_F0
 10
0
 20
0
 30
0
 70
128
 71
6
 72
16
 73
7
 74
7
 0
VERTEX
 8
MESH_204_F0
 10
0
 20
0
 30
0
 70
128
 71
16
 72
8
 73
7
 74
7
 0
VERTEX
 8
MESH_204_F0
 10
0
 20
0
 30
0
 70
128
 71
9
 72
8
 73
16
 74
16
 0
VERTEX
 8
MESH_204_F0
 10
0
 20
0
 30
0
 70
128
 71
9
 72
16
 73
10
 74
10
 0
VERTEX
 8
MESH_204_F0
 10
0
 20
0
 30
0
 70
128
 71
16
 72
11
 73
10
 74
10
 0
VERTEX
 8
MESH_204_F0
 10
0
 20
0
 30
0
 70
128
 71
12
 72
11
 73
16
 74
16
 0
VERTEX
 8
MESH_204_F0
 10
0
 20
0
 30
0
 70
128
 71
13
 72
12
 73
15
 74
15
 0
VERTEX
 8
MESH_204_F0
 10
0
 20
0
 30
0
 70
128
 71
13
 72
15
 73
14
 74
14
 0
VERTEX
 8
MESH_204_F0
 10
0
 20
0
 30
0
 70
128
 71
12
 72
16
 73
15
 74
15
 0
VERTEX
 8
MESH_204_F0
 10
0
 20
0
 30
0
 70
128
 71
16
 72
18
 73
17
 74
17
 0
VERTEX
 8
MESH_204_F0
 10
0
 20
0
 30
0
 70
128
 71
19
 72
18
 73
16
 74
16
 0
VERTEX
 8
MESH_204_F0
 10
0
 20
0
 30
0
 70
128
 71
20
 72
19
 73
6
 74
6
 0
VERTEX
 8
MESH_204_F0
 10
0
 20
0
 30
0
 70
128
 71
19
 72
16
 73
6
 74
6
 0
VERTEX
 8
MESH_204_F0
 10
0
 20
0
 30
0
 70
128
 71
5
 72
23
 73
22
 74
22
 0
VERTEX
 8
MESH_204_F0
 10
0
 20
0
 30
0
 70
128
 71
4
 72
24
 73
23
 74
23
 0
VERTEX
 8
MESH_204_F0
 10
0
 20
0
 30
0
 70
128
 71
4
 72
26
 73
25
 74
25
 0
VERTEX
 8
MESH_204_F0
 10
0
 20
0
 30
0
 70
128
 71
3
 72
26
 73
4
 74
4
 0
VERTEX
 8
MESH_204_F0
 10
0
 20
0
 30
0
 70
128
 71
27
 72
26
 73
3
 74
3
 0
VERTEX
 8
MESH_204_F0
 10
0
 20
0
 30
0
 70
128
 71
27
 72
3
 73
28
 74
28
 0
SEQEND
 0
POLYLINE
 8
MESH_203_F0
 66
1
 10
0.0
 20
0.0
 30
0.0
 70
64
 71
4
 72
2
 0
VERTEX
 8
MESH_203_F0
 10
-498.5
 20
-412
 30
-237
 70
192
 0
VERTEX
 8
MESH_203_F0
 10
-498.5
 20
-417
 30
-237
 70
192
 0
VERTEX
 8
MESH_203_F0
 10
-498.5
 20
-417
 30
-7
 70
192
 0
VERTEX
 8
MESH_203_F0
 10
-498.5
 20
-412
 30
-7
 70
192
 0
VERTEX
 8
MESH_203_F0
 10
0
 20
0
 30
0
 70
128
 71
4
 72
2
 73
1
 74
1
 0
VERTEX
 8
MESH_203_F0
 10
0
 20
0
 30
0
 70
128
 71
3
 72
2
 73
4
 74
4
 0
SEQEND
 0
POLYLINE
 8
MESH_202_F0
 66
1
 10
0.0
 20
0.0
 30
0.0
 70
64
 71
60
 72
58
 0
VERTEX
 8
MESH_202_F0
 10
-498.5
 20
-412
 30
-7
 70
192
 0
VERTEX
 8
MESH_202_F0
 10
-498.5
 20
-417
 30
-7
 70
192
 0
VERTEX
 8
MESH_202_F0
 10
-498.3323
 20
-419.7723
 30
-7
 70
192
 0
VERTEX
 8
MESH_202_F0
 10
-497.8317
 20
-422.5042
 30
-7
 70
192
 0
VERTEX
 8
MESH_202_F0
 10
-497.0054
 20
-425.1559
 30
-7
 70
192
 0
VERTEX
 8
MESH_202_F0
 10
-495.8654
 20
-427.6886
 30
-7
 70
192
 0
VERTEX
 8
MESH_202_F0
 10
-494.4286
 20
-430.0655
 30
-7
 70
192
 0
VERTEX
 8
MESH_202_F0
 10
-492.7158
 20
-432.2518
 30
-7
 70
192
 0
VERTEX
 8
MESH_202_F0
 10
-490.7518
 20
-434.2157
 30
-7
 70
192
 0
VERTEX
 8
MESH_202_F0
 10
-488.5655
 20
-435.9286
 30
-7
 70
192
 0
VERTEX
 8
MESH_202_F0
 10
-486.1886
 20
-437.3655
 30
-7
 70
192
 0
VERTEX
 8
MESH_202_F0
 10
-483.6559
 20
-438.5053
 30
-7
 70
192
 0
VERTEX
 8
MESH_202_F0
 10
-481.0042
 20
-439.3317
 30
-7
 70
192
 0
VERTEX
 8
MESH_202_F0
 10
-478.2723
 20
-439.8323
 30
-7
 70
192
 0
VERTEX
 8
MESH_202_F0
 10
-475.5
 20
-440
 30
-7
 70
192
 0
VERTEX
 8
MESH_202_F0
 10
475.5
 20
-440
 30
-7
 70
192
 0
VERTEX
 8
MESH_202_F0
 10
478.2723
 20
-439.8323
 30
-7
 70
192
 0
VERTEX
 8
MESH_202_F0
 10
481.0042
 20
-439.3317
 30
-7
 70
192
 0
VERTEX
 8
MESH_202_F0
 10
483.6559
 20
-438.5053
 30
-7
 70
192
 0
VERTEX
 8
MESH_202_F0
 10
486.1886
 20
-437.3655
 30
-7
 70
192
 0
VERTEX
 8
MESH_202_F0
 10
488.5655
 20
-435.9286
 30
-7
 70
192
 0
VERTEX
 8
MESH_202_F0
 10
490.7518
 20
-434.2157
 30
-7
 70
192
 0
VERTEX
 8
MESH_202_F0
 10
492.7158
 20
-432.2518
 30
-7
 70
192
 0
VERTEX
 8
MESH_202_F0
 10
494.4286
 20
-430.0655
 30
-7
 70
192
 0
VERTEX
 8
MESH_202_F0
 10
495.8654
 20
-427.6886
 30
-7
 70
192
 0
VERTEX
 8
MESH_202_F0
 10
497.0054
 20
-425.1559
 30
-7
 70
192
 0
VERTEX
 8
MESH_202_F0
 10
497.8317
 20
-422.5042
 30
-7
 70
192
 0
VERTEX
 8
MESH_202_F0
 10
498.3323
 20
-419.7723
 30
-7
 70
192
 0
VERTEX
 8
MESH_202_F0
 10
498.5
 20
-417
 30
-7
 70
192
 0
VERTEX
 8
MESH_202_F0
 10
498.5
 20
-412
 30
-7
 70
192
 0
VERTEX
 8
MESH_202_F0
 10
499
 20
-412
 30
-7
 70
192
 0
VERTEX
 8
MESH_202_F0
 10
499
 20
-417
 30
-7
 70
192
 0
VERTEX
 8
MESH_202_F0
 10
498.8286
 20
-419.8326
 30
-7
 70
192
 0
VERTEX
 8
MESH_202_F0
 10
498.3171
 20
-422.6239
 30
-7
 70
192
 0
VERTEX
 8
MESH_202_F0
 10
497.4729
 20
-425.3332
 30
-7
 70
192
 0
VERTEX
 8
MESH_202_F0
 10
496.3082
 20
-427.921
 30
-7
 70
192
 0
VERTEX
 8
MESH_202_F0
 10
494.8401
 20
-430.3495
 30
-7
 70
192
 0
VERTEX
 8
MESH_202_F0
 10
493.09
 20
-432.5834
 30
-7
 70
192
 0
VERTEX
 8
MESH_202_F0
 10
491.0834
 20
-434.59
 30
-7
 70
192
 0
VERTEX
 8
MESH_202_F0
 10
488.8495
 20
-436.3401
 30
-7
 70
192
 0
VERTEX
 8
MESH_202_F0
 10
486.421
 20
-437.8082
 30
-7
 70
192
 0
VERTEX
 8
MESH_202_F0
 10
483.8332
 20
-438.9729
 30
-7
 70
192
 0
VERTEX
 8
MESH_202_F0
 10
481.1239
 20
-439.8171
 30
-7
 70
192
 0
VERTEX
 8
MESH_202_F0
 10
478.3326
 20
-440.3286
 30
-7
 70
192
 0
VERTEX
 8
MESH_202_F0
 10
475.5
 20
-440.5
 30
-7
 70
192
 0
VERTEX
 8
MESH_202_F0
 10
-475.5
 20
-440.5
 30
-7
 70
192
 0
VERTEX
 8
MESH_202_F0
 10
-478.3326
 20
-440.3286
 30
-7
 70
192
 0
VERTEX
 8
MESH_202_F0
 10
-481.1239
 20
-439.8171
 30
-7
 70
192
 0
VERTEX
 8
MESH_202_F0
 10
-483.8332
 20
-438.9729
 30
-7
 70
192
 0
VERTEX
 8
MESH_202_F0
 10
-486.421
 20
-437.8082
 30
-7
 70
192
 0
VERTEX
 8
MESH_202_F0
 10
-488.8495
 20
-436.3401
 30
-7
 70
192
 0
VERTEX
 8
MESH_202_F0
 10
-491.0834
 20
-434.59
 30
-7
 70
192
 0
VERTEX
 8
MESH_202_F0
 10
-493.09
 20
-432.5834
 30
-7
 70
192
 0
VERTEX
 8
MESH_202_F0
 10
-494.8401
 20
-430.3495
 30
-7
 70
192
 0
VERTEX
 8
MESH_202_F0
 10
-496.3082
 20
-427.921
 30
-7
 70
192
 0
VERTEX
 8
MESH_202_F0
 10
-497.4729
 20
-425.3332
 30
-7
 70
192
 0
VERTEX
 8
MESH_202_F0
 10
-498.3171
 20
-422.6239
 30
-7
 70
192
 0
VERTEX
 8
MESH_202_F0
 10
-498.8286
 20
-419.8326
 30
-7
 70
192
 0
VERTEX
 8
MESH_202_F0
 10
-499
 20
-417
 30
-7
 70
192
 0
VERTEX
 8
MESH_202_F0
 10
-499
 20
-412
 30
-7
 70
192
 0
VERTEX
 8
MESH_202_F0
 10
0
 20
0
 30
0
 70
128
 71
60
 72
2
 73
1
 74
1
 0
VERTEX
 8
MESH_202_F0
 10
0
 20
0
 30
0
 70
128
 71
59
 72
2
 73
60
 74
60
 0
VERTEX
 8
MESH_202_F0
 10
0
 20
0
 30
0
 70
128
 71
58
 72
2
 73
59
 74
59
 0
VERTEX
 8
MESH_202_F0
 10
0
 20
0
 30
0
 70
128
 71
3
 72
2
 73
58
 74
58
 0
VERTEX
 8
MESH_202_F0
 10
0
 20
0
 30
0
 70
128
 71
3
 72
58
 73
4
 74
4
 0
VERTEX
 8
MESH_202_F0
 10
0
 20
0
 30
0
 70
128
 71
58
 72
57
 73
4
 74
4
 0
VERTEX
 8
MESH_202_F0
 10
0
 20
0
 30
0
 70
128
 71
57
 72
5
 73
4
 74
4
 0
VERTEX
 8
MESH_202_F0
 10
0
 20
0
 30
0
 70
128
 71
56
 72
5
 73
57
 74
57
 0
VERTEX
 8
MESH_202_F0
 10
0
 20
0
 30
0
 70
128
 71
6
 72
5
 73
56
 74
56
 0
VERTEX
 8
MESH_202_F0
 10
0
 20
0
 30
0
 70
128
 71
7
 72
6
 73
55
 74
55
 0
VERTEX
 8
MESH_202_F0
 10
0
 20
0
 30
0
 70
128
 71
8
 72
7
 73
54
 74
54
 0
VERTEX
 8
MESH_202_F0
 10
0
 20
0
 30
0
 70
128
 71
9
 72
8
 73
53
 74
53
 0
VERTEX
 8
MESH_202_F0
 10
0
 20
0
 30
0
 70
128
 71
10
 72
9
 73
52
 74
52
 0
VERTEX
 8
MESH_202_F0
 10
0
 20
0
 30
0
 70
128
 71
11
 72
10
 73
51
 74
51
 0
VERTEX
 8
MESH_202_F0
 10
0
 20
0
 30
0
 70
128
 71
12
 72
11
 73
50
 74
50
 0
VERTEX
 8
MESH_202_F0
 10
0
 20
0
 30
0
 70
128
 71
13
 72
12
 73
49
 74
49
 0
VERTEX
 8
MESH_202_F0
 10
0
 20
0
 30
0
 70
128
 71
14
 72
13
 73
48
 74
48
 0
VERTEX
 8
MESH_202_F0
 10
0
 20
0
 30
0
 70
128
 71
14
 72
48
 73
15
 74
15
 0
VERTEX
 8
MESH_202_F0
 10
0
 20
0
 30
0
 70
128
 71
48
 72
47
 73
15
 74
15
 0
VERTEX
 8
MESH_202_F0
 10
0
 20
0
 30
0
 70
128
 71
47
 72
46
 73
15
 74
15
 0
VERTEX
 8
MESH_202_F0
 10
0
 20
0
 30
0
 70
128
 71
46
 72
45
 73
15
 74
15
 0
VERTEX
 8
MESH_202_F0
 10
0
 20
0
 30
0
 70
128
 71
45
 72
16
 73
15
 74
15
 0
VERTEX
 8
MESH_202_F0
 10
0
 20
0
 30
0
 70
128
 71
44
 72
16
 73
45
 74
45
 0
VERTEX
 8
MESH_202_F0
 10
0
 20
0
 30
0
 70
128
 71
43
 72
16
 73
44
 74
44
 0
VERTEX
 8
MESH_202_F0
 10
0
 20
0
 30
0
 70
128
 71
17
 72
16
 73
43
 74
43
 0
VERTEX
 8
MESH_202_F0
 10
0
 20
0
 30
0
 70
128
 71
17
 72
43
 73
18
 74
18
 0
VERTEX
 8
MESH_202_F0
 10
0
 20
0
 30
0
 70
128
 71
43
 72
42
 73
18
 74
18
 0
VERTEX
 8
MESH_202_F0
 10
0
 20
0
 30
0
 70
128
 71
42
 72
19
 73
18
 74
18
 0
VERTEX
 8
MESH_202_F0
 10
0
 20
0
 30
0
 70
128
 71
41
 72
19
 73
42
 74
42
 0
VERTEX
 8
MESH_202_F0
 10
0
 20
0
 30
0
 70
128
 71
20
 72
19
 73
41
 74
41
 0
VERTEX
 8
MESH_202_F0
 10
0
 20
0
 30
0
 70
128
 71
21
 72
20
 73
40
 74
40
 0
VERTEX
 8
MESH_202_F0
 10
0
 20
0
 30
0
 70
128
 71
22
 72
21
 73
39
 74
39
 0
VERTEX
 8
MESH_202_F0
 10
0
 20
0
 30
0
 70
128
 71
23
 72
22
 73
38
 74
38
 0
VERTEX
 8
MESH_202_F0
 10
0
 20
0
 30
0
 70
128
 71
24
 72
23
 73
37
 74
37
 0
VERTEX
 8
MESH_202_F0
 10
0
 20
0
 30
0
 70
128
 71
25
 72
24
 73
36
 74
36
 0
VERTEX
 8
MESH_202_F0
 10
0
 20
0
 30
0
 70
128
 71
26
 72
25
 73
35
 74
35
 0
VERTEX
 8
MESH_202_F0
 10
0
 20
0
 30
0
 70
128
 71
27
 72
26
 73
34
 74
34
 0
VERTEX
 8
MESH_202_F0
 10
0
 20
0
 30
0
 70
128
 71
28
 72
27
 73
33
 74
33
 0
VERTEX
 8
MESH_202_F0
 10
0
 20
0
 30
0
 70
128
 71
28
 72
33
 73
29
 74
29
 0
VERTEX
 8
MESH_202_F0
 10
0
 20
0
 30
0
 70
128
 71
33
 72
32
 73
29
 74
29
 0
VERTEX
 8
MESH_202_F0
 10
0
 20
0
 30
0
 70
128
 71
32
 72
30
 73
29
 74
29
 0
VERTEX
 8
MESH_202_F0
 10
0
 20
0
 30
0
 70
128
 71
31
 72
30
 73
32
 74
32
 0
VERTEX
 8
MESH_202_F0
 10
0
 20
0
 30
0
 70
128
 71
27
 72
34
 73
33
 74
33
 0
VERTEX
 8
MESH_202_F0
 10
0
 20
0
 30
0
 70
128
 71
26
 72
35
 73
34
 74
34
 0
VERTEX
 8
MESH_202_F0
 10
0
 20
0
 30
0
 70
128
 71
25
 72
36
 73
35
 74
35
 0
VERTEX
 8
MESH_202_F0
 10
0
 20
0
 30
0
 70
128
 71
24
 72
37
 73
36
 74
36
 0
VERTEX
 8
MESH_202_F0
 10
0
 20
0
 30
0
 70
128
 71
23
 72
38
 73
37
 74
37
 0
VERTEX
 8
MESH_202_F0
 10
0
 20
0
 30
0
 70
128
 71
22
 72
39
 73
38
 74
38
 0
VERTEX
 8
MESH_202_F0
 10
0
 20
0
 30
0
 70
128
 71
21
 72
40
 73
39
 74
39
 0
VERTEX
 8
MESH_202_F0
 10
0
 20
0
 30
0
 70
128
 71
20
 72
41
 73
40
 74
40
 0
VERTEX
 8
MESH_202_F0
 10
0
 20
0
 30
0
 70
128
 71
13
 72
49
 73
48
 74
48
 0
VERTEX
 8
MESH_202_F0
 10
0
 20
0
 30
0
 70
128
 71
12
 72
50
 73
49
 74
49
 0
VERTEX
 8
MESH_202_F0
 10
0
 20
0
 30
0
 70
128
 71
11
 72
51
 73
50
 74
50
 0
VERTEX
 8
MESH_202_F0
 10
0
 20
0
 30
0
 70
128
 71
10
 72
52
 73
51
 74
51
 0
VERTEX
 8
MESH_202_F0
 10
0
 20
0
 30
0
 70
128
 71
9
 72
53
 73
52
 74
52
 0
VERTEX
 8
MESH_202_F0
 10
0
 20
0
 30
0
 70
128
 71
8
 72
54
 73
53
 74
53
 0
VERTEX
 8
MESH_202_F0
 10
0
 20
0
 30
0
 70
128
 71
7
 72
55
 73
54
 74
54
 0
VERTEX
 8
MESH_202_F0
 10
0
 20
0
 30
0
 70
128
 71
6
 72
56
 73
55
 74
55
 0
SEQEND
 0
POLYLINE
 8
MESH_201_F0
 66
1
 10
0.0
 20
0.0
 30
0.0
 70
64
 71
4
 72
2
 0
VERTEX
 8
MESH_201_F0
 10
498.5
 20
-412
 30
-7
 70
192
 0
VERTEX
 8
MESH_201_F0
 10
498.5
 20
-417
 30
-7
 70
192
 0
VERTEX
 8
MESH_201_F0
 10
498.5
 20
-417
 30
-237
 70
192
 0
VERTEX
 8
MESH_201_F0
 10
498.5
 20
-412
 30
-237
 70
192
 0
VERTEX
 8
MESH_201_F0
 10
0
 20
0
 30
0
 70
128
 71
4
 72
2
 73
1
 74
1
 0
VERTEX
 8
MESH_201_F0
 10
0
 20
0
 30
0
 70
128
 71
3
 72
2
 73
4
 74
4
 0
SEQEND
 0
ENDSEC
 0
EOF
