 0
SECTION
 2
HEADER
 9
$ACADVER
 1
AC1009
 0
ENDSEC
 0
SECTION
 2
TABLES
 0
TABLE
 2
LTYPE
 70
1
 0
LTYPE
 2
CONTINUOUS
 70
64
 3
solid line
 72
65
 73
0
 40
0.0
 0
ENDTAB
 0
TABLE
 2
LAYER
 70
6
 0
LAYER
 2
0
 70
0
 62
7
 6
CONTINUOUS
 0
LAYER
 2
MESH_373_F0
 70
64
 62
7
 6
CONTINUOUS
 0
LAYER
 2
MESH_372_F0
 70
64
 62
7
 6
CONTINUOUS
 0
LAYER
 2
MESH_371_F0
 70
64
 62
7
 6
CONTINUOUS
 0
LAYER
 2
MESH_370_F0
 70
64
 62
7
 6
CONTINUOUS
 0
LAYER
 2
MESH_369_F0
 70
64
 62
7
 6
CONTINUOUS
 0
LAYER
 2
MESH_368_F0
 70
64
 62
7
 6
CONTINUOUS
 0
LAYER
 2
MESH_367_F0
 70
64
 62
7
 6
CONTINUOUS
 0
LAYER
 2
MESH_366_F0
 70
64
 62
7
 6
CONTINUOUS
 0
LAYER
 2
MESH_365_F0
 70
64
 62
7
 6
CONTINUOUS
 0
LAYER
 2
MESH_364_F0
 70
64
 62
7
 6
CONTINUOUS
 0
LAYER
 2
MESH_363_F0
 70
64
 62
7
 6
CONTINUOUS
 0
LAYER
 2
MESH_362_F0
 70
64
 62
7
 6
CONTINUOUS
 0
LAYER
 2
MESH_361_F0
 70
64
 62
7
 6
CONTINUOUS
 0
LAYER
 2
MESH_360_F0
 70
64
 62
7
 6
CONTINUOUS
 0
LAYER
 2
MESH_359_F0
 70
64
 62
7
 6
CONTINUOUS
 0
LAYER
 2
MESH_358_F0
 70
64
 62
7
 6
CONTINUOUS
 0
LAYER
 2
MESH_357_F0
 70
64
 62
7
 6
CONTINUOUS
 0
LAYER
 2
MESH_356_F0
 70
64
 62
7
 6
CONTINUOUS
 0
LAYER
 2
MESH_355_F0
 70
64
 62
7
 6
CONTINUOUS
 0
LAYER
 2
MESH_354_F0
 70
64
 62
7
 6
CONTINUOUS
 0
LAYER
 2
MESH_353_F0
 70
64
 62
7
 6
CONTINUOUS
 0
LAYER
 2
MESH_352_F0
 70
64
 62
7
 6
CONTINUOUS
 0
LAYER
 2
MESH_351_F0
 70
64
 62
7
 6
CONTINUOUS
 0
LAYER
 2
MESH_350_F0
 70
64
 62
7
 6
CONTINUOUS
 0
LAYER
 2
MESH_349_F0
 70
64
 62
7
 6
CONTINUOUS
 0
LAYER
 2
MESH_348_F0
 70
64
 62
7
 6
CONTINUOUS
 0
LAYER
 2
MESH_347_F0
 70
64
 62
7
 6
CONTINUOUS
 0
LAYER
 2
MESH_346_F0
 70
64
 62
7
 6
CONTINUOUS
 0
LAYER
 2
MESH_345_F0
 70
64
 62
7
 6
CONTINUOUS
 0
LAYER
 2
MESH_344_F0
 70
64
 62
7
 6
CONTINUOUS
 0
LAYER
 2
MESH_343_F0
 70
64
 62
7
 6
CONTINUOUS
 0
LAYER
 2
MESH_342_F0
 70
64
 62
7
 6
CONTINUOUS
 0
LAYER
 2
MESH_341_F0
 70
64
 62
7
 6
CONTINUOUS
 0
LAYER
 2
MESH_340_F0
 70
64
 62
7
 6
CONTINUOUS
 0
LAYER
 2
MESH_339_F0
 70
64
 62
7
 6
CONTINUOUS
 0
LAYER
 2
MESH_338_F0
 70
64
 62
7
 6
CONTINUOUS
 0
LAYER
 2
MESH_337_F0
 70
64
 62
7
 6
CONTINUOUS
 0
LAYER
 2
MESH_336_F0
 70
64
 62
7
 6
CONTINUOUS
 0
LAYER
 2
MESH_335_F0
 70
64
 62
7
 6
CONTINUOUS
 0
LAYER
 2
MESH_334_F0
 70
64
 62
7
 6
CONTINUOUS
 0
LAYER
 2
MESH_333_F0
 70
64
 62
7
 6
CONTINUOUS
 0
LAYER
 2
MESH_332_F0
 70
64
 62
7
 6
CONTINUOUS
 0
LAYER
 2
MESH_331_F0
 70
64
 62
7
 6
CONTINUOUS
 0
LAYER
 2
MESH_330_F0
 70
64
 62
7
 6
CONTINUOUS
 0
LAYER
 2
MESH_329_F0
 70
64
 62
7
 6
CONTINUOUS
 0
LAYER
 2
MESH_328_F0
 70
64
 62
7
 6
CONTINUOUS
 0
LAYER
 2
MESH_327_F0
 70
64
 62
7
 6
CONTINUOUS
 0
LAYER
 2
MESH_326_F0
 70
64
 62
7
 6
CONTINUOUS
 0
LAYER
 2
MESH_325_F0
 70
64
 62
7
 6
CONTINUOUS
 0
LAYER
 2
MESH_324_F0
 70
64
 62
7
 6
CONTINUOUS
 0
LAYER
 2
MESH_323_F0
 70
64
 62
7
 6
CONTINUOUS
 0
LAYER
 2
MESH_322_F0
 70
64
 62
7
 6
CONTINUOUS
 0
LAYER
 2
MESH_321_F0
 70
64
 62
7
 6
CONTINUOUS
 0
LAYER
 2
MESH_320_F0
 70
64
 62
7
 6
CONTINUOUS
 0
LAYER
 2
MESH_319_F0
 70
64
 62
7
 6
CONTINUOUS
 0
LAYER
 2
MESH_318_F0
 70
64
 62
7
 6
CONTINUOUS
 0
LAYER
 2
MESH_317_F0
 70
64
 62
7
 6
CONTINUOUS
 0
LAYER
 2
MESH_316_F0
 70
64
 62
7
 6
CONTINUOUS
 0
LAYER
 2
MESH_315_F0
 70
64
 62
7
 6
CONTINUOUS
 0
LAYER
 2
MESH_314_F0
 70
64
 62
7
 6
CONTINUOUS
 0
LAYER
 2
MESH_313_F0
 70
64
 62
7
 6
CONTINUOUS
 0
LAYER
 2
MESH_312_F0
 70
64
 62
7
 6
CONTINUOUS
 0
LAYER
 2
MESH_311_F0
 70
64
 62
7
 6
CONTINUOUS
 0
LAYER
 2
MESH_310_F0
 70
64
 62
7
 6
CONTINUOUS
 0
LAYER
 2
MESH_309_F0
 70
64
 62
7
 6
CONTINUOUS
 0
LAYER
 2
MESH_308_F0
 70
64
 62
7
 6
CONTINUOUS
 0
LAYER
 2
MESH_307_F0
 70
64
 62
7
 6
CONTINUOUS
 0
LAYER
 2
MESH_306_F0
 70
64
 62
7
 6
CONTINUOUS
 0
LAYER
 2
MESH_305_F0
 70
64
 62
7
 6
CONTINUOUS
 0
LAYER
 2
MESH_304_F0
 70
64
 62
7
 6
CONTINUOUS
 0
LAYER
 2
MESH_303_F0
 70
64
 62
7
 6
CONTINUOUS
 0
LAYER
 2
MESH_302_F0
 70
64
 62
7
 6
CONTINUOUS
 0
LAYER
 2
MESH_301_F0
 70
64
 62
7
 6
CONTINUOUS
 0
LAYER
 2
MESH_300_F0
 70
64
 62
7
 6
CONTINUOUS
 0
LAYER
 2
MESH_299_F0
 70
64
 62
7
 6
CONTINUOUS
 0
LAYER
 2
MESH_298_F0
 70
64
 62
7
 6
CONTINUOUS
 0
LAYER
 2
MESH_297_F0
 70
64
 62
7
 6
CONTINUOUS
 0
LAYER
 2
MESH_296_F0
 70
64
 62
7
 6
CONTINUOUS
 0
LAYER
 2
MESH_295_F0
 70
64
 62
7
 6
CONTINUOUS
 0
LAYER
 2
MESH_294_F0
 70
64
 62
7
 6
CONTINUOUS
 0
ENDTAB
 0
ENDSEC
 0
SECTION
 2
BLOCKS
 0
ENDSEC
 0
SECTION
 2
ENTITIES
 0
POLYLINE
 8
MESH_373_F0
 66
1
 10
0.0
 20
0.0
 30
0.0
 70
64
 71
4
 72
2
 0
VERTEX
 8
MESH_373_F0
 10
673.5
 20
-440.5
 30
-7
 70
192
 0
VERTEX
 8
MESH_373_F0
 10
673.5
 20
-440.5
 30
-3
 70
192
 0
VERTEX
 8
MESH_373_F0
 10
26.5
 20
-440.5
 30
-3
 70
192
 0
VERTEX
 8
MESH_373_F0
 10
26.5
 20
-440.5
 30
-7
 70
192
 0
VERTEX
 8
MESH_373_F0
 10
0
 20
0
 30
0
 70
128
 71
1
 72
3
 73
2
 74
2
 0
VERTEX
 8
MESH_373_F0
 10
0
 20
0
 30
0
 70
128
 71
4
 72
3
 73
1
 74
1
 0
SEQEND
 0
POLYLINE
 8
MESH_372_F0
 66
1
 10
0.0
 20
0.0
 30
0.0
 70
64
 71
30
 72
28
 0
VERTEX
 8
MESH_372_F0
 10
697.6625
 20
-423.1499
 30
-7
 70
192
 0
VERTEX
 8
MESH_372_F0
 10
698.4026
 20
-420.4871
 30
-7
 70
192
 0
VERTEX
 8
MESH_372_F0
 10
698.8502
 20
-417.7598
 30
-7
 70
192
 0
VERTEX
 8
MESH_372_F0
 10
699
 20
-415
 30
-7
 70
192
 0
VERTEX
 8
MESH_372_F0
 10
699
 20
-415
 30
-3
 70
192
 0
VERTEX
 8
MESH_372_F0
 10
698.8353
 20
-417.8842
 30
-3
 70
192
 0
VERTEX
 8
MESH_372_F0
 10
698.3544
 20
-420.7017
 30
-3
 70
192
 0
VERTEX
 8
MESH_372_F0
 10
697.5602
 20
-423.4446
 30
-3
 70
192
 0
VERTEX
 8
MESH_372_F0
 10
696.4624
 20
-426.0894
 30
-3
 70
192
 0
VERTEX
 8
MESH_372_F0
 10
695.0807
 20
-428.5844
 30
-3
 70
192
 0
VERTEX
 8
MESH_372_F0
 10
693.4296
 20
-430.9077
 30
-3
 70
192
 0
VERTEX
 8
MESH_372_F0
 10
691.5308
 20
-433.0308
 30
-3
 70
192
 0
VERTEX
 8
MESH_372_F0
 10
689.4078
 20
-434.9296
 30
-3
 70
192
 0
VERTEX
 8
MESH_372_F0
 10
687.0845
 20
-436.5807
 30
-3
 70
192
 0
VERTEX
 8
MESH_372_F0
 10
684.5894
 20
-437.9624
 30
-3
 70
192
 0
VERTEX
 8
MESH_372_F0
 10
681.9446
 20
-439.0602
 30
-3
 70
192
 0
VERTEX
 8
MESH_372_F0
 10
679.2017
 20
-439.8543
 30
-3
 70
192
 0
VERTEX
 8
MESH_372_F0
 10
676.3842
 20
-440.3353
 30
-3
 70
192
 0
VERTEX
 8
MESH_372_F0
 10
673.5
 20
-440.5
 30
-3
 70
192
 0
VERTEX
 8
MESH_372_F0
 10
673.5
 20
-440.5
 30
-7
 70
192
 0
VERTEX
 8
MESH_372_F0
 10
676.2597
 20
-440.3502
 30
-7
 70
192
 0
VERTEX
 8
MESH_372_F0
 10
678.9871
 20
-439.9026
 30
-7
 70
192
 0
VERTEX
 8
MESH_372_F0
 10
681.65
 20
-439.1625
 30
-7
 70
192
 0
VERTEX
 8
MESH_372_F0
 10
684.3691
 20
-438.0675
 30
-7
 70
192
 0
VERTEX
 8
MESH_372_F0
 10
686.9448
 20
-436.6677
 30
-7
 70
192
 0
VERTEX
 8
MESH_372_F0
 10
689.3427
 20
-434.9815
 30
-7
 70
192
 0
VERTEX
 8
MESH_372_F0
 10
691.5313
 20
-433.0312
 30
-7
 70
192
 0
VERTEX
 8
MESH_372_F0
 10
693.4814
 20
-430.8427
 30
-7
 70
192
 0
VERTEX
 8
MESH_372_F0
 10
695.1677
 20
-428.4448
 30
-7
 70
192
 0
VERTEX
 8
MESH_372_F0
 10
696.5675
 20
-425.8692
 30
-7
 70
192
 0
VERTEX
 8
MESH_372_F0
 10
0
 20
0
 30
0
 70
128
 71
3
 72
5
 73
4
 74
4
 0
VERTEX
 8
MESH_372_F0
 10
0
 20
0
 30
0
 70
128
 71
6
 72
5
 73
3
 74
3
 0
VERTEX
 8
MESH_372_F0
 10
0
 20
0
 30
0
 70
128
 71
7
 72
6
 73
2
 74
2
 0
VERTEX
 8
MESH_372_F0
 10
0
 20
0
 30
0
 70
128
 71
8
 72
7
 73
1
 74
1
 0
VERTEX
 8
MESH_372_F0
 10
0
 20
0
 30
0
 70
128
 71
9
 72
8
 73
30
 74
30
 0
VERTEX
 8
MESH_372_F0
 10
0
 20
0
 30
0
 70
128
 71
10
 72
9
 73
29
 74
29
 0
VERTEX
 8
MESH_372_F0
 10
0
 20
0
 30
0
 70
128
 71
10
 72
29
 73
11
 74
11
 0
VERTEX
 8
MESH_372_F0
 10
0
 20
0
 30
0
 70
128
 71
29
 72
28
 73
11
 74
11
 0
VERTEX
 8
MESH_372_F0
 10
0
 20
0
 30
0
 70
128
 71
28
 72
12
 73
11
 74
11
 0
VERTEX
 8
MESH_372_F0
 10
0
 20
0
 30
0
 70
128
 71
27
 72
12
 73
28
 74
28
 0
VERTEX
 8
MESH_372_F0
 10
0
 20
0
 30
0
 70
128
 71
13
 72
12
 73
27
 74
27
 0
VERTEX
 8
MESH_372_F0
 10
0
 20
0
 30
0
 70
128
 71
14
 72
13
 73
26
 74
26
 0
VERTEX
 8
MESH_372_F0
 10
0
 20
0
 30
0
 70
128
 71
15
 72
14
 73
25
 74
25
 0
VERTEX
 8
MESH_372_F0
 10
0
 20
0
 30
0
 70
128
 71
16
 72
15
 73
24
 74
24
 0
VERTEX
 8
MESH_372_F0
 10
0
 20
0
 30
0
 70
128
 71
17
 72
16
 73
23
 74
23
 0
VERTEX
 8
MESH_372_F0
 10
0
 20
0
 30
0
 70
128
 71
18
 72
17
 73
22
 74
22
 0
VERTEX
 8
MESH_372_F0
 10
0
 20
0
 30
0
 70
128
 71
20
 72
18
 73
21
 74
21
 0
VERTEX
 8
MESH_372_F0
 10
0
 20
0
 30
0
 70
128
 71
18
 72
22
 73
21
 74
21
 0
VERTEX
 8
MESH_372_F0
 10
0
 20
0
 30
0
 70
128
 71
6
 72
3
 73
2
 74
2
 0
VERTEX
 8
MESH_372_F0
 10
0
 20
0
 30
0
 70
128
 71
20
 72
19
 73
18
 74
18
 0
VERTEX
 8
MESH_372_F0
 10
0
 20
0
 30
0
 70
128
 71
17
 72
23
 73
22
 74
22
 0
VERTEX
 8
MESH_372_F0
 10
0
 20
0
 30
0
 70
128
 71
16
 72
24
 73
23
 74
23
 0
VERTEX
 8
MESH_372_F0
 10
0
 20
0
 30
0
 70
128
 71
15
 72
25
 73
24
 74
24
 0
VERTEX
 8
MESH_372_F0
 10
0
 20
0
 30
0
 70
128
 71
14
 72
26
 73
25
 74
25
 0
VERTEX
 8
MESH_372_F0
 10
0
 20
0
 30
0
 70
128
 71
13
 72
27
 73
26
 74
26
 0
VERTEX
 8
MESH_372_F0
 10
0
 20
0
 30
0
 70
128
 71
9
 72
30
 73
29
 74
29
 0
VERTEX
 8
MESH_372_F0
 10
0
 20
0
 30
0
 70
128
 71
8
 72
1
 73
30
 74
30
 0
VERTEX
 8
MESH_372_F0
 10
0
 20
0
 30
0
 70
128
 71
1
 72
7
 73
2
 74
2
 0
SEQEND
 0
POLYLINE
 8
MESH_371_F0
 66
1
 10
0.0
 20
0.0
 30
0.0
 70
64
 71
17
 72
15
 0
VERTEX
 8
MESH_371_F0
 10
681.65
 20
-439.1625
 30
-7
 70
192
 0
VERTEX
 8
MESH_371_F0
 10
684.1392
 20
-438.3158
 30
-7
 70
192
 0
VERTEX
 8
MESH_371_F0
 10
686.5156
 20
-437.1905
 30
-7
 70
192
 0
VERTEX
 8
MESH_371_F0
 10
688.748
 20
-435.8014
 30
-7
 70
192
 0
VERTEX
 8
MESH_371_F0
 10
690.8073
 20
-434.1665
 30
-7
 70
192
 0
VERTEX
 8
MESH_371_F0
 10
692.6665
 20
-432.3072
 30
-7
 70
192
 0
VERTEX
 8
MESH_371_F0
 10
694.3013
 20
-430.248
 30
-7
 70
192
 0
VERTEX
 8
MESH_371_F0
 10
695.6905
 20
-428.0156
 30
-7
 70
192
 0
VERTEX
 8
MESH_371_F0
 10
696.8158
 20
-425.6392
 30
-7
 70
192
 0
VERTEX
 8
MESH_371_F0
 10
697.6625
 20
-423.1499
 30
-7
 70
192
 0
VERTEX
 8
MESH_371_F0
 10
696.5675
 20
-425.8692
 30
-7
 70
192
 0
VERTEX
 8
MESH_371_F0
 10
695.1677
 20
-428.4448
 30
-7
 70
192
 0
VERTEX
 8
MESH_371_F0
 10
693.4814
 20
-430.8427
 30
-7
 70
192
 0
VERTEX
 8
MESH_371_F0
 10
691.5313
 20
-433.0312
 30
-7
 70
192
 0
VERTEX
 8
MESH_371_F0
 10
689.3427
 20
-434.9815
 30
-7
 70
192
 0
VERTEX
 8
MESH_371_F0
 10
686.9448
 20
-436.6677
 30
-7
 70
192
 0
VERTEX
 8
MESH_371_F0
 10
684.3691
 20
-438.0675
 30
-7
 70
192
 0
VERTEX
 8
MESH_371_F0
 10
0
 20
0
 30
0
 70
128
 71
17
 72
2
 73
1
 74
1
 0
VERTEX
 8
MESH_371_F0
 10
0
 20
0
 30
0
 70
128
 71
3
 72
2
 73
17
 74
17
 0
VERTEX
 8
MESH_371_F0
 10
0
 20
0
 30
0
 70
128
 71
4
 72
3
 73
16
 74
16
 0
VERTEX
 8
MESH_371_F0
 10
0
 20
0
 30
0
 70
128
 71
5
 72
4
 73
15
 74
15
 0
VERTEX
 8
MESH_371_F0
 10
0
 20
0
 30
0
 70
128
 71
6
 72
5
 73
14
 74
14
 0
VERTEX
 8
MESH_371_F0
 10
0
 20
0
 30
0
 70
128
 71
7
 72
6
 73
13
 74
13
 0
VERTEX
 8
MESH_371_F0
 10
0
 20
0
 30
0
 70
128
 71
8
 72
7
 73
12
 74
12
 0
VERTEX
 8
MESH_371_F0
 10
0
 20
0
 30
0
 70
128
 71
9
 72
8
 73
11
 74
11
 0
VERTEX
 8
MESH_371_F0
 10
0
 20
0
 30
0
 70
128
 71
9
 72
11
 73
10
 74
10
 0
VERTEX
 8
MESH_371_F0
 10
0
 20
0
 30
0
 70
128
 71
8
 72
12
 73
11
 74
11
 0
VERTEX
 8
MESH_371_F0
 10
0
 20
0
 30
0
 70
128
 71
7
 72
13
 73
12
 74
12
 0
VERTEX
 8
MESH_371_F0
 10
0
 20
0
 30
0
 70
128
 71
6
 72
14
 73
13
 74
13
 0
VERTEX
 8
MESH_371_F0
 10
0
 20
0
 30
0
 70
128
 71
5
 72
15
 73
14
 74
14
 0
VERTEX
 8
MESH_371_F0
 10
0
 20
0
 30
0
 70
128
 71
4
 72
16
 73
15
 74
15
 0
VERTEX
 8
MESH_371_F0
 10
0
 20
0
 30
0
 70
128
 71
3
 72
17
 73
16
 74
16
 0
SEQEND
 0
POLYLINE
 8
MESH_370_F0
 66
1
 10
0.0
 20
0.0
 30
0.0
 70
64
 71
4
 72
2
 0
VERTEX
 8
MESH_370_F0
 10
24.5
 20
-440
 30
-7
 70
192
 0
VERTEX
 8
MESH_370_F0
 10
24.5
 20
-440
 30
-237
 70
192
 0
VERTEX
 8
MESH_370_F0
 10
675.5
 20
-440
 30
-237
 70
192
 0
VERTEX
 8
MESH_370_F0
 10
675.5
 20
-440
 30
-7
 70
192
 0
VERTEX
 8
MESH_370_F0
 10
0
 20
0
 30
0
 70
128
 71
1
 72
3
 73
2
 74
2
 0
VERTEX
 8
MESH_370_F0
 10
0
 20
0
 30
0
 70
128
 71
4
 72
3
 73
1
 74
1
 0
SEQEND
 0
POLYLINE
 8
MESH_369_F0
 66
1
 10
0.0
 20
0.0
 30
0.0
 70
64
 71
31
 72
29
 0
VERTEX
 8
MESH_369_F0
 10
675.5
 20
-440
 30
-7
 70
192
 0
VERTEX
 8
MESH_369_F0
 10
675.5
 20
-440
 30
-237
 70
192
 0
VERTEX
 8
MESH_369_F0
 10
678.1014
 20
-439.8514
 30
-237
 70
192
 0
VERTEX
 8
MESH_369_F0
 10
680.6427
 20
-439.4177
 30
-237
 70
192
 0
VERTEX
 8
MESH_369_F0
 10
683.1167
 20
-438.7013
 30
-237
 70
192
 0
VERTEX
 8
MESH_369_F0
 10
685.5022
 20
-437.7112
 30
-237
 70
192
 0
VERTEX
 8
MESH_369_F0
 10
687.7526
 20
-436.4649
 30
-237
 70
192
 0
VERTEX
 8
MESH_369_F0
 10
689.8481
 20
-434.9757
 30
-237
 70
192
 0
VERTEX
 8
MESH_369_F0
 10
691.7631
 20
-433.2631
 30
-237
 70
192
 0
VERTEX
 8
MESH_369_F0
 10
693.4757
 20
-431.3482
 30
-237
 70
192
 0
VERTEX
 8
MESH_369_F0
 10
694.9649
 20
-429.2526
 30
-237
 70
192
 0
VERTEX
 8
MESH_369_F0
 10
696.2112
 20
-427.0022
 30
-237
 70
192
 0
VERTEX
 8
MESH_369_F0
 10
697.2014
 20
-424.6167
 30
-237
 70
192
 0
VERTEX
 8
MESH_369_F0
 10
697.9177
 20
-422.1427
 30
-237
 70
192
 0
VERTEX
 8
MESH_369_F0
 10
698.3514
 20
-419.6014
 30
-237
 70
192
 0
VERTEX
 8
MESH_369_F0
 10
698.5
 20
-417
 30
-237
 70
192
 0
VERTEX
 8
MESH_369_F0
 10
698.5
 20
-417
 30
-7
 70
192
 0
VERTEX
 8
MESH_369_F0
 10
698.4064
 20
-419.0724
 30
-7
 70
192
 0
VERTEX
 8
MESH_369_F0
 10
698.1265
 20
-421.128
 30
-7
 70
192
 0
VERTEX
 8
MESH_369_F0
 10
697.6625
 20
-423.1499
 30
-7
 70
192
 0
VERTEX
 8
MESH_369_F0
 10
696.8158
 20
-425.6392
 30
-7
 70
192
 0
VERTEX
 8
MESH_369_F0
 10
695.6905
 20
-428.0156
 30
-7
 70
192
 0
VERTEX
 8
MESH_369_F0
 10
694.3013
 20
-430.248
 30
-7
 70
192
 0
VERTEX
 8
MESH_369_F0
 10
692.6665
 20
-432.3072
 30
-7
 70
192
 0
VERTEX
 8
MESH_369_F0
 10
690.8073
 20
-434.1665
 30
-7
 70
192
 0
VERTEX
 8
MESH_369_F0
 10
688.748
 20
-435.8014
 30
-7
 70
192
 0
VERTEX
 8
MESH_369_F0
 10
686.5156
 20
-437.1905
 30
-7
 70
192
 0
VERTEX
 8
MESH_369_F0
 10
684.1392
 20
-438.3158
 30
-7
 70
192
 0
VERTEX
 8
MESH_369_F0
 10
681.65
 20
-439.1625
 30
-7
 70
192
 0
VERTEX
 8
MESH_369_F0
 10
679.628
 20
-439.6265
 30
-7
 70
192
 0
VERTEX
 8
MESH_369_F0
 10
677.5724
 20
-439.9064
 30
-7
 70
192
 0
VERTEX
 8
MESH_369_F0
 10
0
 20
0
 30
0
 70
128
 71
31
 72
2
 73
1
 74
1
 0
VERTEX
 8
MESH_369_F0
 10
0
 20
0
 30
0
 70
128
 71
3
 72
2
 73
31
 74
31
 0
VERTEX
 8
MESH_369_F0
 10
0
 20
0
 30
0
 70
128
 71
4
 72
3
 73
30
 74
30
 0
VERTEX
 8
MESH_369_F0
 10
0
 20
0
 30
0
 70
128
 71
5
 72
4
 73
29
 74
29
 0
VERTEX
 8
MESH_369_F0
 10
0
 20
0
 30
0
 70
128
 71
6
 72
5
 73
28
 74
28
 0
VERTEX
 8
MESH_369_F0
 10
0
 20
0
 30
0
 70
128
 71
7
 72
6
 73
27
 74
27
 0
VERTEX
 8
MESH_369_F0
 10
0
 20
0
 30
0
 70
128
 71
8
 72
7
 73
26
 74
26
 0
VERTEX
 8
MESH_369_F0
 10
0
 20
0
 30
0
 70
128
 71
9
 72
8
 73
25
 74
25
 0
VERTEX
 8
MESH_369_F0
 10
0
 20
0
 30
0
 70
128
 71
10
 72
9
 73
24
 74
24
 0
VERTEX
 8
MESH_369_F0
 10
0
 20
0
 30
0
 70
128
 71
11
 72
10
 73
23
 74
23
 0
VERTEX
 8
MESH_369_F0
 10
0
 20
0
 30
0
 70
128
 71
12
 72
11
 73
22
 74
22
 0
VERTEX
 8
MESH_369_F0
 10
0
 20
0
 30
0
 70
128
 71
13
 72
12
 73
21
 74
21
 0
VERTEX
 8
MESH_369_F0
 10
0
 20
0
 30
0
 70
128
 71
14
 72
13
 73
20
 74
20
 0
VERTEX
 8
MESH_369_F0
 10
0
 20
0
 30
0
 70
128
 71
15
 72
14
 73
19
 74
19
 0
VERTEX
 8
MESH_369_F0
 10
0
 20
0
 30
0
 70
128
 71
16
 72
15
 73
18
 74
18
 0
VERTEX
 8
MESH_369_F0
 10
0
 20
0
 30
0
 70
128
 71
16
 72
18
 73
17
 74
17
 0
VERTEX
 8
MESH_369_F0
 10
0
 20
0
 30
0
 70
128
 71
15
 72
19
 73
18
 74
18
 0
VERTEX
 8
MESH_369_F0
 10
0
 20
0
 30
0
 70
128
 71
14
 72
20
 73
19
 74
19
 0
VERTEX
 8
MESH_369_F0
 10
0
 20
0
 30
0
 70
128
 71
13
 72
21
 73
20
 74
20
 0
VERTEX
 8
MESH_369_F0
 10
0
 20
0
 30
0
 70
128
 71
12
 72
22
 73
21
 74
21
 0
VERTEX
 8
MESH_369_F0
 10
0
 20
0
 30
0
 70
128
 71
11
 72
23
 73
22
 74
22
 0
VERTEX
 8
MESH_369_F0
 10
0
 20
0
 30
0
 70
128
 71
10
 72
24
 73
23
 74
23
 0
VERTEX
 8
MESH_369_F0
 10
0
 20
0
 30
0
 70
128
 71
9
 72
25
 73
24
 74
24
 0
VERTEX
 8
MESH_369_F0
 10
0
 20
0
 30
0
 70
128
 71
8
 72
26
 73
25
 74
25
 0
VERTEX
 8
MESH_369_F0
 10
0
 20
0
 30
0
 70
128
 71
7
 72
27
 73
26
 74
26
 0
VERTEX
 8
MESH_369_F0
 10
0
 20
0
 30
0
 70
128
 71
6
 72
28
 73
27
 74
27
 0
VERTEX
 8
MESH_369_F0
 10
0
 20
0
 30
0
 70
128
 71
5
 72
29
 73
28
 74
28
 0
VERTEX
 8
MESH_369_F0
 10
0
 20
0
 30
0
 70
128
 71
4
 72
30
 73
29
 74
29
 0
VERTEX
 8
MESH_369_F0
 10
0
 20
0
 30
0
 70
128
 71
3
 72
31
 73
30
 74
30
 0
SEQEND
 0
POLYLINE
 8
MESH_368_F0
 66
1
 10
0.0
 20
0.0
 30
0.0
 70
64
 71
14
 72
12
 0
VERTEX
 8
MESH_368_F0
 10
675.5
 20
-440
 30
-7
 70
192
 0
VERTEX
 8
MESH_368_F0
 10
677.5724
 20
-439.9064
 30
-7
 70
192
 0
VERTEX
 8
MESH_368_F0
 10
679.628
 20
-439.6265
 30
-7
 70
192
 0
VERTEX
 8
MESH_368_F0
 10
681.65
 20
-439.1625
 30
-7
 70
192
 0
VERTEX
 8
MESH_368_F0
 10
678.9871
 20
-439.9026
 30
-7
 70
192
 0
VERTEX
 8
MESH_368_F0
 10
676.2597
 20
-440.3502
 30
-7
 70
192
 0
VERTEX
 8
MESH_368_F0
 10
673.5
 20
-440.5
 30
-7
 70
192
 0
VERTEX
 8
MESH_368_F0
 10
26.5
 20
-440.5
 30
-7
 70
192
 0
VERTEX
 8
MESH_368_F0
 10
23.7402
 20
-440.3502
 30
-7
 70
192
 0
VERTEX
 8
MESH_368_F0
 10
21.0129
 20
-439.9026
 30
-7
 70
192
 0
VERTEX
 8
MESH_368_F0
 10
18.35
 20
-439.1625
 30
-7
 70
192
 0
VERTEX
 8
MESH_368_F0
 10
20.372
 20
-439.6265
 30
-7
 70
192
 0
VERTEX
 8
MESH_368_F0
 10
22.4276
 20
-439.9064
 30
-7
 70
192
 0
VERTEX
 8
MESH_368_F0
 10
24.5
 20
-440
 30
-7
 70
192
 0
VERTEX
 8
MESH_368_F0
 10
0
 20
0
 30
0
 70
128
 71
1
 72
5
 73
2
 74
2
 0
VERTEX
 8
MESH_368_F0
 10
0
 20
0
 30
0
 70
128
 71
5
 72
3
 73
2
 74
2
 0
VERTEX
 8
MESH_368_F0
 10
0
 20
0
 30
0
 70
128
 71
4
 72
3
 73
5
 74
5
 0
VERTEX
 8
MESH_368_F0
 10
0
 20
0
 30
0
 70
128
 71
1
 72
6
 73
5
 74
5
 0
VERTEX
 8
MESH_368_F0
 10
0
 20
0
 30
0
 70
128
 71
14
 72
6
 73
1
 74
1
 0
VERTEX
 8
MESH_368_F0
 10
0
 20
0
 30
0
 70
128
 71
9
 72
6
 73
14
 74
14
 0
VERTEX
 8
MESH_368_F0
 10
0
 20
0
 30
0
 70
128
 71
9
 72
14
 73
10
 74
10
 0
VERTEX
 8
MESH_368_F0
 10
0
 20
0
 30
0
 70
128
 71
14
 72
13
 73
10
 74
10
 0
VERTEX
 8
MESH_368_F0
 10
0
 20
0
 30
0
 70
128
 71
13
 72
12
 73
10
 74
10
 0
VERTEX
 8
MESH_368_F0
 10
0
 20
0
 30
0
 70
128
 71
12
 72
11
 73
10
 74
10
 0
VERTEX
 8
MESH_368_F0
 10
0
 20
0
 30
0
 70
128
 71
6
 72
8
 73
7
 74
7
 0
VERTEX
 8
MESH_368_F0
 10
0
 20
0
 30
0
 70
128
 71
9
 72
8
 73
6
 74
6
 0
SEQEND
 0
POLYLINE
 8
MESH_367_F0
 66
1
 10
0.0
 20
0.0
 30
0.0
 70
64
 71
30
 72
28
 0
VERTEX
 8
MESH_367_F0
 10
18.35
 20
-439.1625
 30
-7
 70
192
 0
VERTEX
 8
MESH_367_F0
 10
21.0129
 20
-439.9026
 30
-7
 70
192
 0
VERTEX
 8
MESH_367_F0
 10
23.7402
 20
-440.3502
 30
-7
 70
192
 0
VERTEX
 8
MESH_367_F0
 10
26.5
 20
-440.5
 30
-7
 70
192
 0
VERTEX
 8
MESH_367_F0
 10
26.5
 20
-440.5
 30
-3
 70
192
 0
VERTEX
 8
MESH_367_F0
 10
23.6158
 20
-440.3353
 30
-3
 70
192
 0
VERTEX
 8
MESH_367_F0
 10
20.7983
 20
-439.8543
 30
-3
 70
192
 0
VERTEX
 8
MESH_367_F0
 10
18.0554
 20
-439.0602
 30
-3
 70
192
 0
VERTEX
 8
MESH_367_F0
 10
15.4106
 20
-437.9624
 30
-3
 70
192
 0
VERTEX
 8
MESH_367_F0
 10
12.9155
 20
-436.5807
 30
-3
 70
192
 0
VERTEX
 8
MESH_367_F0
 10
10.5922
 20
-434.9296
 30
-3
 70
192
 0
VERTEX
 8
MESH_367_F0
 10
8.4692
 20
-433.0308
 30
-3
 70
192
 0
VERTEX
 8
MESH_367_F0
 10
6.5704
 20
-430.9077
 30
-3
 70
192
 0
VERTEX
 8
MESH_367_F0
 10
4.9193
 20
-428.5844
 30
-3
 70
192
 0
VERTEX
 8
MESH_367_F0
 10
3.5376
 20
-426.0894
 30
-3
 70
192
 0
VERTEX
 8
MESH_367_F0
 10
2.4398
 20
-423.4446
 30
-3
 70
192
 0
VERTEX
 8
MESH_367_F0
 10
1.6456
 20
-420.7017
 30
-3
 70
192
 0
VERTEX
 8
MESH_367_F0
 10
1.1647
 20
-417.8842
 30
-3
 70
192
 0
VERTEX
 8
MESH_367_F0
 10
1
 20
-415
 30
-3
 70
192
 0
VERTEX
 8
MESH_367_F0
 10
1
 20
-415
 30
-7
 70
192
 0
VERTEX
 8
MESH_367_F0
 10
1.1498
 20
-417.7598
 30
-7
 70
192
 0
VERTEX
 8
MESH_367_F0
 10
1.5974
 20
-420.4871
 30
-7
 70
192
 0
VERTEX
 8
MESH_367_F0
 10
2.3375
 20
-423.1499
 30
-7
 70
192
 0
VERTEX
 8
MESH_367_F0
 10
3.4325
 20
-425.8692
 30
-7
 70
192
 0
VERTEX
 8
MESH_367_F0
 10
4.8323
 20
-428.4448
 30
-7
 70
192
 0
VERTEX
 8
MESH_367_F0
 10
6.5185
 20
-430.8427
 30
-7
 70
192
 0
VERTEX
 8
MESH_367_F0
 10
8.4688
 20
-433.0312
 30
-7
 70
192
 0
VERTEX
 8
MESH_367_F0
 10
10.6573
 20
-434.9815
 30
-7
 70
192
 0
VERTEX
 8
MESH_367_F0
 10
13.0552
 20
-436.6677
 30
-7
 70
192
 0
VERTEX
 8
MESH_367_F0
 10
15.6308
 20
-438.0675
 30
-7
 70
192
 0
VERTEX
 8
MESH_367_F0
 10
0
 20
0
 30
0
 70
128
 71
3
 72
5
 73
4
 74
4
 0
VERTEX
 8
MESH_367_F0
 10
0
 20
0
 30
0
 70
128
 71
6
 72
5
 73
3
 74
3
 0
VERTEX
 8
MESH_367_F0
 10
0
 20
0
 30
0
 70
128
 71
7
 72
6
 73
2
 74
2
 0
VERTEX
 8
MESH_367_F0
 10
0
 20
0
 30
0
 70
128
 71
8
 72
7
 73
1
 74
1
 0
VERTEX
 8
MESH_367_F0
 10
0
 20
0
 30
0
 70
128
 71
9
 72
8
 73
30
 74
30
 0
VERTEX
 8
MESH_367_F0
 10
0
 20
0
 30
0
 70
128
 71
10
 72
9
 73
29
 74
29
 0
VERTEX
 8
MESH_367_F0
 10
0
 20
0
 30
0
 70
128
 71
10
 72
29
 73
11
 74
11
 0
VERTEX
 8
MESH_367_F0
 10
0
 20
0
 30
0
 70
128
 71
29
 72
28
 73
11
 74
11
 0
VERTEX
 8
MESH_367_F0
 10
0
 20
0
 30
0
 70
128
 71
28
 72
12
 73
11
 74
11
 0
VERTEX
 8
MESH_367_F0
 10
0
 20
0
 30
0
 70
128
 71
27
 72
12
 73
28
 74
28
 0
VERTEX
 8
MESH_367_F0
 10
0
 20
0
 30
0
 70
128
 71
13
 72
12
 73
27
 74
27
 0
VERTEX
 8
MESH_367_F0
 10
0
 20
0
 30
0
 70
128
 71
14
 72
13
 73
26
 74
26
 0
VERTEX
 8
MESH_367_F0
 10
0
 20
0
 30
0
 70
128
 71
15
 72
14
 73
25
 74
25
 0
VERTEX
 8
MESH_367_F0
 10
0
 20
0
 30
0
 70
128
 71
16
 72
15
 73
24
 74
24
 0
VERTEX
 8
MESH_367_F0
 10
0
 20
0
 30
0
 70
128
 71
17
 72
16
 73
23
 74
23
 0
VERTEX
 8
MESH_367_F0
 10
0
 20
0
 30
0
 70
128
 71
18
 72
17
 73
22
 74
22
 0
VERTEX
 8
MESH_367_F0
 10
0
 20
0
 30
0
 70
128
 71
20
 72
18
 73
21
 74
21
 0
VERTEX
 8
MESH_367_F0
 10
0
 20
0
 30
0
 70
128
 71
18
 72
22
 73
21
 74
21
 0
VERTEX
 8
MESH_367_F0
 10
0
 20
0
 30
0
 70
128
 71
6
 72
3
 73
2
 74
2
 0
VERTEX
 8
MESH_367_F0
 10
0
 20
0
 30
0
 70
128
 71
20
 72
19
 73
18
 74
18
 0
VERTEX
 8
MESH_367_F0
 10
0
 20
0
 30
0
 70
128
 71
17
 72
23
 73
22
 74
22
 0
VERTEX
 8
MESH_367_F0
 10
0
 20
0
 30
0
 70
128
 71
16
 72
24
 73
23
 74
23
 0
VERTEX
 8
MESH_367_F0
 10
0
 20
0
 30
0
 70
128
 71
15
 72
25
 73
24
 74
24
 0
VERTEX
 8
MESH_367_F0
 10
0
 20
0
 30
0
 70
128
 71
14
 72
26
 73
25
 74
25
 0
VERTEX
 8
MESH_367_F0
 10
0
 20
0
 30
0
 70
128
 71
13
 72
27
 73
26
 74
26
 0
VERTEX
 8
MESH_367_F0
 10
0
 20
0
 30
0
 70
128
 71
9
 72
30
 73
29
 74
29
 0
VERTEX
 8
MESH_367_F0
 10
0
 20
0
 30
0
 70
128
 71
8
 72
1
 73
30
 74
30
 0
VERTEX
 8
MESH_367_F0
 10
0
 20
0
 30
0
 70
128
 71
1
 72
7
 73
2
 74
2
 0
SEQEND
 0
POLYLINE
 8
MESH_366_F0
 66
1
 10
0.0
 20
0.0
 30
0.0
 70
64
 71
17
 72
15
 0
VERTEX
 8
MESH_366_F0
 10
2.3375
 20
-423.1499
 30
-7
 70
192
 0
VERTEX
 8
MESH_366_F0
 10
3.1842
 20
-425.6392
 30
-7
 70
192
 0
VERTEX
 8
MESH_366_F0
 10
4.3095
 20
-428.0156
 30
-7
 70
192
 0
VERTEX
 8
MESH_366_F0
 10
5.6987
 20
-430.248
 30
-7
 70
192
 0
VERTEX
 8
MESH_366_F0
 10
7.3335
 20
-432.3072
 30
-7
 70
192
 0
VERTEX
 8
MESH_366_F0
 10
9.1927
 20
-434.1665
 30
-7
 70
192
 0
VERTEX
 8
MESH_366_F0
 10
11.252
 20
-435.8014
 30
-7
 70
192
 0
VERTEX
 8
MESH_366_F0
 10
13.4844
 20
-437.1905
 30
-7
 70
192
 0
VERTEX
 8
MESH_366_F0
 10
15.8608
 20
-438.3158
 30
-7
 70
192
 0
VERTEX
 8
MESH_366_F0
 10
18.35
 20
-439.1625
 30
-7
 70
192
 0
VERTEX
 8
MESH_366_F0
 10
15.6308
 20
-438.0675
 30
-7
 70
192
 0
VERTEX
 8
MESH_366_F0
 10
13.0552
 20
-436.6677
 30
-7
 70
192
 0
VERTEX
 8
MESH_366_F0
 10
10.6573
 20
-434.9815
 30
-7
 70
192
 0
VERTEX
 8
MESH_366_F0
 10
8.4688
 20
-433.0312
 30
-7
 70
192
 0
VERTEX
 8
MESH_366_F0
 10
6.5185
 20
-430.8427
 30
-7
 70
192
 0
VERTEX
 8
MESH_366_F0
 10
4.8323
 20
-428.4448
 30
-7
 70
192
 0
VERTEX
 8
MESH_366_F0
 10
3.4325
 20
-425.8692
 30
-7
 70
192
 0
VERTEX
 8
MESH_366_F0
 10
0
 20
0
 30
0
 70
128
 71
17
 72
2
 73
1
 74
1
 0
VERTEX
 8
MESH_366_F0
 10
0
 20
0
 30
0
 70
128
 71
3
 72
2
 73
17
 74
17
 0
VERTEX
 8
MESH_366_F0
 10
0
 20
0
 30
0
 70
128
 71
4
 72
3
 73
16
 74
16
 0
VERTEX
 8
MESH_366_F0
 10
0
 20
0
 30
0
 70
128
 71
5
 72
4
 73
15
 74
15
 0
VERTEX
 8
MESH_366_F0
 10
0
 20
0
 30
0
 70
128
 71
6
 72
5
 73
14
 74
14
 0
VERTEX
 8
MESH_366_F0
 10
0
 20
0
 30
0
 70
128
 71
7
 72
6
 73
13
 74
13
 0
VERTEX
 8
MESH_366_F0
 10
0
 20
0
 30
0
 70
128
 71
8
 72
7
 73
12
 74
12
 0
VERTEX
 8
MESH_366_F0
 10
0
 20
0
 30
0
 70
128
 71
9
 72
8
 73
11
 74
11
 0
VERTEX
 8
MESH_366_F0
 10
0
 20
0
 30
0
 70
128
 71
9
 72
11
 73
10
 74
10
 0
VERTEX
 8
MESH_366_F0
 10
0
 20
0
 30
0
 70
128
 71
8
 72
12
 73
11
 74
11
 0
VERTEX
 8
MESH_366_F0
 10
0
 20
0
 30
0
 70
128
 71
7
 72
13
 73
12
 74
12
 0
VERTEX
 8
MESH_366_F0
 10
0
 20
0
 30
0
 70
128
 71
6
 72
14
 73
13
 74
13
 0
VERTEX
 8
MESH_366_F0
 10
0
 20
0
 30
0
 70
128
 71
5
 72
15
 73
14
 74
14
 0
VERTEX
 8
MESH_366_F0
 10
0
 20
0
 30
0
 70
128
 71
4
 72
16
 73
15
 74
15
 0
VERTEX
 8
MESH_366_F0
 10
0
 20
0
 30
0
 70
128
 71
3
 72
17
 73
16
 74
16
 0
SEQEND
 0
POLYLINE
 8
MESH_365_F0
 66
1
 10
0.0
 20
0.0
 30
0.0
 70
64
 71
31
 72
29
 0
VERTEX
 8
MESH_365_F0
 10
18.35
 20
-439.1625
 30
-7
 70
192
 0
VERTEX
 8
MESH_365_F0
 10
15.8608
 20
-438.3158
 30
-7
 70
192
 0
VERTEX
 8
MESH_365_F0
 10
13.4844
 20
-437.1905
 30
-7
 70
192
 0
VERTEX
 8
MESH_365_F0
 10
11.252
 20
-435.8014
 30
-7
 70
192
 0
VERTEX
 8
MESH_365_F0
 10
9.1927
 20
-434.1665
 30
-7
 70
192
 0
VERTEX
 8
MESH_365_F0
 10
7.3335
 20
-432.3072
 30
-7
 70
192
 0
VERTEX
 8
MESH_365_F0
 10
5.6987
 20
-430.248
 30
-7
 70
192
 0
VERTEX
 8
MESH_365_F0
 10
4.3095
 20
-428.0156
 30
-7
 70
192
 0
VERTEX
 8
MESH_365_F0
 10
3.1842
 20
-425.6392
 30
-7
 70
192
 0
VERTEX
 8
MESH_365_F0
 10
2.3375
 20
-423.1499
 30
-7
 70
192
 0
VERTEX
 8
MESH_365_F0
 10
1.8735
 20
-421.128
 30
-7
 70
192
 0
VERTEX
 8
MESH_365_F0
 10
1.5936
 20
-419.0724
 30
-7
 70
192
 0
VERTEX
 8
MESH_365_F0
 10
1.5
 20
-417
 30
-7
 70
192
 0
VERTEX
 8
MESH_365_F0
 10
1.5
 20
-417
 30
-237
 70
192
 0
VERTEX
 8
MESH_365_F0
 10
1.6485
 20
-419.6014
 30
-237
 70
192
 0
VERTEX
 8
MESH_365_F0
 10
2.0823
 20
-422.1427
 30
-237
 70
192
 0
VERTEX
 8
MESH_365_F0
 10
2.7987
 20
-424.6167
 30
-237
 70
192
 0
VERTEX
 8
MESH_365_F0
 10
3.7888
 20
-427.0022
 30
-237
 70
192
 0
VERTEX
 8
MESH_365_F0
 10
5.0351
 20
-429.2526
 30
-237
 70
192
 0
VERTEX
 8
MESH_365_F0
 10
6.5243
 20
-431.3482
 30
-237
 70
192
 0
VERTEX
 8
MESH_365_F0
 10
8.2369
 20
-433.2631
 30
-237
 70
192
 0
VERTEX
 8
MESH_365_F0
 10
10.1518
 20
-434.9757
 30
-237
 70
192
 0
VERTEX
 8
MESH_365_F0
 10
12.2474
 20
-436.4649
 30
-237
 70
192
 0
VERTEX
 8
MESH_365_F0
 10
14.4978
 20
-437.7112
 30
-237
 70
192
 0
VERTEX
 8
MESH_365_F0
 10
16.8833
 20
-438.7013
 30
-237
 70
192
 0
VERTEX
 8
MESH_365_F0
 10
19.3573
 20
-439.4177
 30
-237
 70
192
 0
VERTEX
 8
MESH_365_F0
 10
21.8986
 20
-439.8514
 30
-237
 70
192
 0
VERTEX
 8
MESH_365_F0
 10
24.5
 20
-440
 30
-237
 70
192
 0
VERTEX
 8
MESH_365_F0
 10
24.5
 20
-440
 30
-7
 70
192
 0
VERTEX
 8
MESH_365_F0
 10
22.4276
 20
-439.9064
 30
-7
 70
192
 0
VERTEX
 8
MESH_365_F0
 10
20.372
 20
-439.6265
 30
-7
 70
192
 0
VERTEX
 8
MESH_365_F0
 10
0
 20
0
 30
0
 70
128
 71
12
 72
14
 73
13
 74
13
 0
VERTEX
 8
MESH_365_F0
 10
0
 20
0
 30
0
 70
128
 71
15
 72
14
 73
12
 74
12
 0
VERTEX
 8
MESH_365_F0
 10
0
 20
0
 30
0
 70
128
 71
16
 72
15
 73
11
 74
11
 0
VERTEX
 8
MESH_365_F0
 10
0
 20
0
 30
0
 70
128
 71
17
 72
16
 73
10
 74
10
 0
VERTEX
 8
MESH_365_F0
 10
0
 20
0
 30
0
 70
128
 71
18
 72
17
 73
9
 74
9
 0
VERTEX
 8
MESH_365_F0
 10
0
 20
0
 30
0
 70
128
 71
19
 72
18
 73
8
 74
8
 0
VERTEX
 8
MESH_365_F0
 10
0
 20
0
 30
0
 70
128
 71
20
 72
19
 73
7
 74
7
 0
VERTEX
 8
MESH_365_F0
 10
0
 20
0
 30
0
 70
128
 71
21
 72
20
 73
6
 74
6
 0
VERTEX
 8
MESH_365_F0
 10
0
 20
0
 30
0
 70
128
 71
22
 72
21
 73
5
 74
5
 0
VERTEX
 8
MESH_365_F0
 10
0
 20
0
 30
0
 70
128
 71
23
 72
22
 73
4
 74
4
 0
VERTEX
 8
MESH_365_F0
 10
0
 20
0
 30
0
 70
128
 71
24
 72
23
 73
3
 74
3
 0
VERTEX
 8
MESH_365_F0
 10
0
 20
0
 30
0
 70
128
 71
25
 72
24
 73
2
 74
2
 0
VERTEX
 8
MESH_365_F0
 10
0
 20
0
 30
0
 70
128
 71
26
 72
25
 73
1
 74
1
 0
VERTEX
 8
MESH_365_F0
 10
0
 20
0
 30
0
 70
128
 71
27
 72
26
 73
31
 74
31
 0
VERTEX
 8
MESH_365_F0
 10
0
 20
0
 30
0
 70
128
 71
28
 72
27
 73
30
 74
30
 0
VERTEX
 8
MESH_365_F0
 10
0
 20
0
 30
0
 70
128
 71
28
 72
30
 73
29
 74
29
 0
VERTEX
 8
MESH_365_F0
 10
0
 20
0
 30
0
 70
128
 71
24
 72
3
 73
2
 74
2
 0
VERTEX
 8
MESH_365_F0
 10
0
 20
0
 30
0
 70
128
 71
23
 72
4
 73
3
 74
3
 0
VERTEX
 8
MESH_365_F0
 10
0
 20
0
 30
0
 70
128
 71
22
 72
5
 73
4
 74
4
 0
VERTEX
 8
MESH_365_F0
 10
0
 20
0
 30
0
 70
128
 71
21
 72
6
 73
5
 74
5
 0
VERTEX
 8
MESH_365_F0
 10
0
 20
0
 30
0
 70
128
 71
20
 72
7
 73
6
 74
6
 0
VERTEX
 8
MESH_365_F0
 10
0
 20
0
 30
0
 70
128
 71
19
 72
8
 73
7
 74
7
 0
VERTEX
 8
MESH_365_F0
 10
0
 20
0
 30
0
 70
128
 71
18
 72
9
 73
8
 74
8
 0
VERTEX
 8
MESH_365_F0
 10
0
 20
0
 30
0
 70
128
 71
17
 72
10
 73
9
 74
9
 0
VERTEX
 8
MESH_365_F0
 10
0
 20
0
 30
0
 70
128
 71
16
 72
11
 73
10
 74
10
 0
VERTEX
 8
MESH_365_F0
 10
0
 20
0
 30
0
 70
128
 71
15
 72
12
 73
11
 74
11
 0
VERTEX
 8
MESH_365_F0
 10
0
 20
0
 30
0
 70
128
 71
27
 72
31
 73
30
 74
30
 0
VERTEX
 8
MESH_365_F0
 10
0
 20
0
 30
0
 70
128
 71
26
 72
1
 73
31
 74
31
 0
VERTEX
 8
MESH_365_F0
 10
0
 20
0
 30
0
 70
128
 71
1
 72
25
 73
2
 74
2
 0
SEQEND
 0
POLYLINE
 8
MESH_364_F0
 66
1
 10
0.0
 20
0.0
 30
0.0
 70
64
 71
4
 72
2
 0
VERTEX
 8
MESH_364_F0
 10
1.5
 20
-412
 30
-237
 70
192
 0
VERTEX
 8
MESH_364_F0
 10
1.5
 20
-417
 30
-237
 70
192
 0
VERTEX
 8
MESH_364_F0
 10
1.5
 20
-417
 30
-7
 70
192
 0
VERTEX
 8
MESH_364_F0
 10
1.5
 20
-412
 30
-7
 70
192
 0
VERTEX
 8
MESH_364_F0
 10
0
 20
0
 30
0
 70
128
 71
4
 72
2
 73
1
 74
1
 0
VERTEX
 8
MESH_364_F0
 10
0
 20
0
 30
0
 70
128
 71
3
 72
2
 73
4
 74
4
 0
SEQEND
 0
POLYLINE
 8
MESH_363_F0
 66
1
 10
0.0
 20
0.0
 30
0.0
 70
64
 71
9
 72
7
 0
VERTEX
 8
MESH_363_F0
 10
1.5
 20
-412
 30
-7
 70
192
 0
VERTEX
 8
MESH_363_F0
 10
1.5
 20
-417
 30
-7
 70
192
 0
VERTEX
 8
MESH_363_F0
 10
1.5936
 20
-419.0724
 30
-7
 70
192
 0
VERTEX
 8
MESH_363_F0
 10
1.8735
 20
-421.128
 30
-7
 70
192
 0
VERTEX
 8
MESH_363_F0
 10
2.3375
 20
-423.1499
 30
-7
 70
192
 0
VERTEX
 8
MESH_363_F0
 10
1.5974
 20
-420.4871
 30
-7
 70
192
 0
VERTEX
 8
MESH_363_F0
 10
1.1498
 20
-417.7598
 30
-7
 70
192
 0
VERTEX
 8
MESH_363_F0
 10
1
 20
-415
 30
-7
 70
192
 0
VERTEX
 8
MESH_363_F0
 10
1
 20
-412
 30
-7
 70
192
 0
VERTEX
 8
MESH_363_F0
 10
0
 20
0
 30
0
 70
128
 71
8
 72
1
 73
9
 74
9
 0
VERTEX
 8
MESH_363_F0
 10
0
 20
0
 30
0
 70
128
 71
2
 72
1
 73
8
 74
8
 0
VERTEX
 8
MESH_363_F0
 10
0
 20
0
 30
0
 70
128
 71
3
 72
2
 73
7
 74
7
 0
VERTEX
 8
MESH_363_F0
 10
0
 20
0
 30
0
 70
128
 71
4
 72
3
 73
6
 74
6
 0
VERTEX
 8
MESH_363_F0
 10
0
 20
0
 30
0
 70
128
 71
4
 72
6
 73
5
 74
5
 0
VERTEX
 8
MESH_363_F0
 10
0
 20
0
 30
0
 70
128
 71
3
 72
7
 73
6
 74
6
 0
VERTEX
 8
MESH_363_F0
 10
0
 20
0
 30
0
 70
128
 71
2
 72
8
 73
7
 74
7
 0
SEQEND
 0
POLYLINE
 8
MESH_362_F0
 66
1
 10
0.0
 20
0.0
 30
0.0
 70
64
 71
4
 72
2
 0
VERTEX
 8
MESH_362_F0
 10
1
 20
-412
 30
-7
 70
192
 0
VERTEX
 8
MESH_362_F0
 10
1
 20
-415
 30
-7
 70
192
 0
VERTEX
 8
MESH_362_F0
 10
1
 20
-415
 30
-3
 70
192
 0
VERTEX
 8
MESH_362_F0
 10
1
 20
-412
 30
-3
 70
192
 0
VERTEX
 8
MESH_362_F0
 10
0
 20
0
 30
0
 70
128
 71
4
 72
2
 73
1
 74
1
 0
VERTEX
 8
MESH_362_F0
 10
0
 20
0
 30
0
 70
128
 71
3
 72
2
 73
4
 74
4
 0
SEQEND
 0
POLYLINE
 8
MESH_361_F0
 66
1
 10
0.0
 20
0.0
 30
0.0
 70
64
 71
32
 72
30
 0
VERTEX
 8
MESH_361_F0
 10
1
 20
-412
 30
-3
 70
192
 0
VERTEX
 8
MESH_361_F0
 10
1
 20
-415
 30
-3
 70
192
 0
VERTEX
 8
MESH_361_F0
 10
1.1647
 20
-417.8842
 30
-3
 70
192
 0
VERTEX
 8
MESH_361_F0
 10
1.6456
 20
-420.7017
 30
-3
 70
192
 0
VERTEX
 8
MESH_361_F0
 10
2.4398
 20
-423.4446
 30
-3
 70
192
 0
VERTEX
 8
MESH_361_F0
 10
3.5376
 20
-426.0894
 30
-3
 70
192
 0
VERTEX
 8
MESH_361_F0
 10
4.9193
 20
-428.5844
 30
-3
 70
192
 0
VERTEX
 8
MESH_361_F0
 10
6.5704
 20
-430.9077
 30
-3
 70
192
 0
VERTEX
 8
MESH_361_F0
 10
8.4692
 20
-433.0308
 30
-3
 70
192
 0
VERTEX
 8
MESH_361_F0
 10
10.5922
 20
-434.9296
 30
-3
 70
192
 0
VERTEX
 8
MESH_361_F0
 10
12.9155
 20
-436.5807
 30
-3
 70
192
 0
VERTEX
 8
MESH_361_F0
 10
15.4106
 20
-437.9624
 30
-3
 70
192
 0
VERTEX
 8
MESH_361_F0
 10
18.0554
 20
-439.0602
 30
-3
 70
192
 0
VERTEX
 8
MESH_361_F0
 10
20.7983
 20
-439.8543
 30
-3
 70
192
 0
VERTEX
 8
MESH_361_F0
 10
23.6158
 20
-440.3353
 30
-3
 70
192
 0
VERTEX
 8
MESH_361_F0
 10
26.5
 20
-440.5
 30
-3
 70
192
 0
VERTEX
 8
MESH_361_F0
 10
673.5
 20
-440.5
 30
-3
 70
192
 0
VERTEX
 8
MESH_361_F0
 10
676.3842
 20
-440.3353
 30
-3
 70
192
 0
VERTEX
 8
MESH_361_F0
 10
679.2017
 20
-439.8543
 30
-3
 70
192
 0
VERTEX
 8
MESH_361_F0
 10
681.9446
 20
-439.0602
 30
-3
 70
192
 0
VERTEX
 8
MESH_361_F0
 10
684.5894
 20
-437.9624
 30
-3
 70
192
 0
VERTEX
 8
MESH_361_F0
 10
687.0845
 20
-436.5807
 30
-3
 70
192
 0
VERTEX
 8
MESH_361_F0
 10
689.4078
 20
-434.9296
 30
-3
 70
192
 0
VERTEX
 8
MESH_361_F0
 10
691.5308
 20
-433.0308
 30
-3
 70
192
 0
VERTEX
 8
MESH_361_F0
 10
693.4296
 20
-430.9077
 30
-3
 70
192
 0
VERTEX
 8
MESH_361_F0
 10
695.0807
 20
-428.5844
 30
-3
 70
192
 0
VERTEX
 8
MESH_361_F0
 10
696.4624
 20
-426.0894
 30
-3
 70
192
 0
VERTEX
 8
MESH_361_F0
 10
697.5602
 20
-423.4446
 30
-3
 70
192
 0
VERTEX
 8
MESH_361_F0
 10
698.3544
 20
-420.7017
 30
-3
 70
192
 0
VERTEX
 8
MESH_361_F0
 10
698.8353
 20
-417.8842
 30
-3
 70
192
 0
VERTEX
 8
MESH_361_F0
 10
699
 20
-415
 30
-3
 70
192
 0
VERTEX
 8
MESH_361_F0
 10
699
 20
-412
 30
-3
 70
192
 0
VERTEX
 8
MESH_361_F0
 10
0
 20
0
 30
0
 70
128
 71
1
 72
30
 73
2
 74
2
 0
VERTEX
 8
MESH_361_F0
 10
0
 20
0
 30
0
 70
128
 71
30
 72
3
 73
2
 74
2
 0
VERTEX
 8
MESH_361_F0
 10
0
 20
0
 30
0
 70
128
 71
4
 72
3
 73
30
 74
30
 0
VERTEX
 8
MESH_361_F0
 10
0
 20
0
 30
0
 70
128
 71
5
 72
4
 73
29
 74
29
 0
VERTEX
 8
MESH_361_F0
 10
0
 20
0
 30
0
 70
128
 71
5
 72
29
 73
6
 74
6
 0
VERTEX
 8
MESH_361_F0
 10
0
 20
0
 30
0
 70
128
 71
29
 72
7
 73
6
 74
6
 0
VERTEX
 8
MESH_361_F0
 10
0
 20
0
 30
0
 70
128
 71
28
 72
7
 73
29
 74
29
 0
VERTEX
 8
MESH_361_F0
 10
0
 20
0
 30
0
 70
128
 71
8
 72
7
 73
28
 74
28
 0
VERTEX
 8
MESH_361_F0
 10
0
 20
0
 30
0
 70
128
 71
8
 72
28
 73
9
 74
9
 0
VERTEX
 8
MESH_361_F0
 10
0
 20
0
 30
0
 70
128
 71
28
 72
27
 73
9
 74
9
 0
VERTEX
 8
MESH_361_F0
 10
0
 20
0
 30
0
 70
128
 71
27
 72
10
 73
9
 74
9
 0
VERTEX
 8
MESH_361_F0
 10
0
 20
0
 30
0
 70
128
 71
11
 72
10
 73
27
 74
27
 0
VERTEX
 8
MESH_361_F0
 10
0
 20
0
 30
0
 70
128
 71
12
 72
11
 73
26
 74
26
 0
VERTEX
 8
MESH_361_F0
 10
0
 20
0
 30
0
 70
128
 71
13
 72
12
 73
16
 74
16
 0
VERTEX
 8
MESH_361_F0
 10
0
 20
0
 30
0
 70
128
 71
13
 72
16
 73
14
 74
14
 0
VERTEX
 8
MESH_361_F0
 10
0
 20
0
 30
0
 70
128
 71
16
 72
15
 73
14
 74
14
 0
VERTEX
 8
MESH_361_F0
 10
0
 20
0
 30
0
 70
128
 71
17
 72
20
 73
19
 74
19
 0
VERTEX
 8
MESH_361_F0
 10
0
 20
0
 30
0
 70
128
 71
17
 72
19
 73
18
 74
18
 0
VERTEX
 8
MESH_361_F0
 10
0
 20
0
 30
0
 70
128
 71
17
 72
21
 73
20
 74
20
 0
VERTEX
 8
MESH_361_F0
 10
0
 20
0
 30
0
 70
128
 71
16
 72
21
 73
17
 74
17
 0
VERTEX
 8
MESH_361_F0
 10
0
 20
0
 30
0
 70
128
 71
22
 72
21
 73
16
 74
16
 0
VERTEX
 8
MESH_361_F0
 10
0
 20
0
 30
0
 70
128
 71
22
 72
16
 73
23
 74
23
 0
VERTEX
 8
MESH_361_F0
 10
0
 20
0
 30
0
 70
128
 71
16
 72
24
 73
23
 74
23
 0
VERTEX
 8
MESH_361_F0
 10
0
 20
0
 30
0
 70
128
 71
25
 72
24
 73
16
 74
16
 0
VERTEX
 8
MESH_361_F0
 10
0
 20
0
 30
0
 70
128
 71
25
 72
16
 73
26
 74
26
 0
VERTEX
 8
MESH_361_F0
 10
0
 20
0
 30
0
 70
128
 71
16
 72
12
 73
26
 74
26
 0
VERTEX
 8
MESH_361_F0
 10
0
 20
0
 30
0
 70
128
 71
11
 72
27
 73
26
 74
26
 0
VERTEX
 8
MESH_361_F0
 10
0
 20
0
 30
0
 70
128
 71
4
 72
30
 73
29
 74
29
 0
VERTEX
 8
MESH_361_F0
 10
0
 20
0
 30
0
 70
128
 71
1
 72
31
 73
30
 74
30
 0
VERTEX
 8
MESH_361_F0
 10
0
 20
0
 30
0
 70
128
 71
32
 72
31
 73
1
 74
1
 0
SEQEND
 0
POLYLINE
 8
MESH_360_F0
 66
1
 10
0.0
 20
0.0
 30
0.0
 70
64
 71
4
 72
2
 0
VERTEX
 8
MESH_360_F0
 10
699
 20
-412
 30
-3
 70
192
 0
VERTEX
 8
MESH_360_F0
 10
699
 20
-415
 30
-3
 70
192
 0
VERTEX
 8
MESH_360_F0
 10
699
 20
-415
 30
-7
 70
192
 0
VERTEX
 8
MESH_360_F0
 10
699
 20
-412
 30
-7
 70
192
 0
VERTEX
 8
MESH_360_F0
 10
0
 20
0
 30
0
 70
128
 71
4
 72
2
 73
1
 74
1
 0
VERTEX
 8
MESH_360_F0
 10
0
 20
0
 30
0
 70
128
 71
3
 72
2
 73
4
 74
4
 0
SEQEND
 0
POLYLINE
 8
MESH_359_F0
 66
1
 10
0.0
 20
0.0
 30
0.0
 70
64
 71
9
 72
7
 0
VERTEX
 8
MESH_359_F0
 10
699
 20
-412
 30
-7
 70
192
 0
VERTEX
 8
MESH_359_F0
 10
699
 20
-415
 30
-7
 70
192
 0
VERTEX
 8
MESH_359_F0
 10
698.8502
 20
-417.7598
 30
-7
 70
192
 0
VERTEX
 8
MESH_359_F0
 10
698.4026
 20
-420.4871
 30
-7
 70
192
 0
VERTEX
 8
MESH_359_F0
 10
697.6625
 20
-423.1499
 30
-7
 70
192
 0
VERTEX
 8
MESH_359_F0
 10
698.1265
 20
-421.128
 30
-7
 70
192
 0
VERTEX
 8
MESH_359_F0
 10
698.4064
 20
-419.0724
 30
-7
 70
192
 0
VERTEX
 8
MESH_359_F0
 10
698.5
 20
-417
 30
-7
 70
192
 0
VERTEX
 8
MESH_359_F0
 10
698.5
 20
-412
 30
-7
 70
192
 0
VERTEX
 8
MESH_359_F0
 10
0
 20
0
 30
0
 70
128
 71
9
 72
2
 73
1
 74
1
 0
VERTEX
 8
MESH_359_F0
 10
0
 20
0
 30
0
 70
128
 71
8
 72
2
 73
9
 74
9
 0
VERTEX
 8
MESH_359_F0
 10
0
 20
0
 30
0
 70
128
 71
3
 72
2
 73
8
 74
8
 0
VERTEX
 8
MESH_359_F0
 10
0
 20
0
 30
0
 70
128
 71
4
 72
3
 73
7
 74
7
 0
VERTEX
 8
MESH_359_F0
 10
0
 20
0
 30
0
 70
128
 71
5
 72
4
 73
6
 74
6
 0
VERTEX
 8
MESH_359_F0
 10
0
 20
0
 30
0
 70
128
 71
4
 72
7
 73
6
 74
6
 0
VERTEX
 8
MESH_359_F0
 10
0
 20
0
 30
0
 70
128
 71
3
 72
8
 73
7
 74
7
 0
SEQEND
 0
POLYLINE
 8
MESH_358_F0
 66
1
 10
0.0
 20
0.0
 30
0.0
 70
64
 71
4
 72
2
 0
VERTEX
 8
MESH_358_F0
 10
698.5
 20
-412
 30
-7
 70
192
 0
VERTEX
 8
MESH_358_F0
 10
698.5
 20
-417
 30
-7
 70
192
 0
VERTEX
 8
MESH_358_F0
 10
698.5
 20
-417
 30
-237
 70
192
 0
VERTEX
 8
MESH_358_F0
 10
698.5
 20
-412
 30
-237
 70
192
 0
VERTEX
 8
MESH_358_F0
 10
0
 20
0
 30
0
 70
128
 71
4
 72
2
 73
1
 74
1
 0
VERTEX
 8
MESH_358_F0
 10
0
 20
0
 30
0
 70
128
 71
3
 72
2
 73
4
 74
4
 0
SEQEND
 0
POLYLINE
 8
MESH_357_F0
 66
1
 10
0.0
 20
0.0
 30
0.0
 70
64
 71
32
 72
30
 0
VERTEX
 8
MESH_357_F0
 10
698.5
 20
-412
 30
-237
 70
192
 0
VERTEX
 8
MESH_357_F0
 10
698.5
 20
-417
 30
-237
 70
192
 0
VERTEX
 8
MESH_357_F0
 10
698.3514
 20
-419.6014
 30
-237
 70
192
 0
VERTEX
 8
MESH_357_F0
 10
697.9177
 20
-422.1427
 30
-237
 70
192
 0
VERTEX
 8
MESH_357_F0
 10
697.2014
 20
-424.6167
 30
-237
 70
192
 0
VERTEX
 8
MESH_357_F0
 10
696.2112
 20
-427.0022
 30
-237
 70
192
 0
VERTEX
 8
MESH_357_F0
 10
694.9649
 20
-429.2526
 30
-237
 70
192
 0
VERTEX
 8
MESH_357_F0
 10
693.4757
 20
-431.3482
 30
-237
 70
192
 0
VERTEX
 8
MESH_357_F0
 10
691.7631
 20
-433.2631
 30
-237
 70
192
 0
VERTEX
 8
MESH_357_F0
 10
689.8481
 20
-434.9757
 30
-237
 70
192
 0
VERTEX
 8
MESH_357_F0
 10
687.7526
 20
-436.4649
 30
-237
 70
192
 0
VERTEX
 8
MESH_357_F0
 10
685.5022
 20
-437.7112
 30
-237
 70
192
 0
VERTEX
 8
MESH_357_F0
 10
683.1167
 20
-438.7013
 30
-237
 70
192
 0
VERTEX
 8
MESH_357_F0
 10
680.6427
 20
-439.4177
 30
-237
 70
192
 0
VERTEX
 8
MESH_357_F0
 10
678.1014
 20
-439.8514
 30
-237
 70
192
 0
VERTEX
 8
MESH_357_F0
 10
675.5
 20
-440
 30
-237
 70
192
 0
VERTEX
 8
MESH_357_F0
 10
24.5
 20
-440
 30
-237
 70
192
 0
VERTEX
 8
MESH_357_F0
 10
21.8986
 20
-439.8514
 30
-237
 70
192
 0
VERTEX
 8
MESH_357_F0
 10
19.3573
 20
-439.4177
 30
-237
 70
192
 0
VERTEX
 8
MESH_357_F0
 10
16.8833
 20
-438.7013
 30
-237
 70
192
 0
VERTEX
 8
MESH_357_F0
 10
14.4978
 20
-437.7112
 30
-237
 70
192
 0
VERTEX
 8
MESH_357_F0
 10
12.2474
 20
-436.4649
 30
-237
 70
192
 0
VERTEX
 8
MESH_357_F0
 10
10.1518
 20
-434.9757
 30
-237
 70
192
 0
VERTEX
 8
MESH_357_F0
 10
8.2369
 20
-433.2631
 30
-237
 70
192
 0
VERTEX
 8
MESH_357_F0
 10
6.5243
 20
-431.3482
 30
-237
 70
192
 0
VERTEX
 8
MESH_357_F0
 10
5.0351
 20
-429.2526
 30
-237
 70
192
 0
VERTEX
 8
MESH_357_F0
 10
3.7888
 20
-427.0022
 30
-237
 70
192
 0
VERTEX
 8
MESH_357_F0
 10
2.7987
 20
-424.6167
 30
-237
 70
192
 0
VERTEX
 8
MESH_357_F0
 10
2.0823
 20
-422.1427
 30
-237
 70
192
 0
VERTEX
 8
MESH_357_F0
 10
1.6485
 20
-419.6014
 30
-237
 70
192
 0
VERTEX
 8
MESH_357_F0
 10
1.5
 20
-417
 30
-237
 70
192
 0
VERTEX
 8
MESH_357_F0
 10
1.5
 20
-412
 30
-237
 70
192
 0
VERTEX
 8
MESH_357_F0
 10
0
 20
0
 30
0
 70
128
 71
32
 72
2
 73
1
 74
1
 0
VERTEX
 8
MESH_357_F0
 10
0
 20
0
 30
0
 70
128
 71
3
 72
2
 73
32
 74
32
 0
VERTEX
 8
MESH_357_F0
 10
0
 20
0
 30
0
 70
128
 71
30
 72
3
 73
31
 74
31
 0
VERTEX
 8
MESH_357_F0
 10
0
 20
0
 30
0
 70
128
 71
3
 72
32
 73
31
 74
31
 0
VERTEX
 8
MESH_357_F0
 10
0
 20
0
 30
0
 70
128
 71
4
 72
27
 73
26
 74
26
 0
VERTEX
 8
MESH_357_F0
 10
0
 20
0
 30
0
 70
128
 71
5
 72
4
 73
25
 74
25
 0
VERTEX
 8
MESH_357_F0
 10
0
 20
0
 30
0
 70
128
 71
23
 72
5
 73
24
 74
24
 0
VERTEX
 8
MESH_357_F0
 10
0
 20
0
 30
0
 70
128
 71
5
 72
25
 73
24
 74
24
 0
VERTEX
 8
MESH_357_F0
 10
0
 20
0
 30
0
 70
128
 71
23
 72
6
 73
5
 74
5
 0
VERTEX
 8
MESH_357_F0
 10
0
 20
0
 30
0
 70
128
 71
22
 72
6
 73
23
 74
23
 0
VERTEX
 8
MESH_357_F0
 10
0
 20
0
 30
0
 70
128
 71
21
 72
6
 73
22
 74
22
 0
VERTEX
 8
MESH_357_F0
 10
0
 20
0
 30
0
 70
128
 71
17
 72
6
 73
21
 74
21
 0
VERTEX
 8
MESH_357_F0
 10
0
 20
0
 30
0
 70
128
 71
19
 72
17
 73
20
 74
20
 0
VERTEX
 8
MESH_357_F0
 10
0
 20
0
 30
0
 70
128
 71
17
 72
21
 73
20
 74
20
 0
VERTEX
 8
MESH_357_F0
 10
0
 20
0
 30
0
 70
128
 71
17
 72
7
 73
6
 74
6
 0
VERTEX
 8
MESH_357_F0
 10
0
 20
0
 30
0
 70
128
 71
8
 72
7
 73
17
 74
17
 0
VERTEX
 8
MESH_357_F0
 10
0
 20
0
 30
0
 70
128
 71
8
 72
17
 73
9
 74
9
 0
VERTEX
 8
MESH_357_F0
 10
0
 20
0
 30
0
 70
128
 71
17
 72
10
 73
9
 74
9
 0
VERTEX
 8
MESH_357_F0
 10
0
 20
0
 30
0
 70
128
 71
11
 72
10
 73
17
 74
17
 0
VERTEX
 8
MESH_357_F0
 10
0
 20
0
 30
0
 70
128
 71
11
 72
17
 73
12
 74
12
 0
VERTEX
 8
MESH_357_F0
 10
0
 20
0
 30
0
 70
128
 71
17
 72
16
 73
12
 74
12
 0
VERTEX
 8
MESH_357_F0
 10
0
 20
0
 30
0
 70
128
 71
16
 72
13
 73
12
 74
12
 0
VERTEX
 8
MESH_357_F0
 10
0
 20
0
 30
0
 70
128
 71
14
 72
13
 73
16
 74
16
 0
VERTEX
 8
MESH_357_F0
 10
0
 20
0
 30
0
 70
128
 71
14
 72
16
 73
15
 74
15
 0
VERTEX
 8
MESH_357_F0
 10
0
 20
0
 30
0
 70
128
 71
19
 72
18
 73
17
 74
17
 0
VERTEX
 8
MESH_357_F0
 10
0
 20
0
 30
0
 70
128
 71
4
 72
26
 73
25
 74
25
 0
VERTEX
 8
MESH_357_F0
 10
0
 20
0
 30
0
 70
128
 71
4
 72
28
 73
27
 74
27
 0
VERTEX
 8
MESH_357_F0
 10
0
 20
0
 30
0
 70
128
 71
3
 72
28
 73
4
 74
4
 0
VERTEX
 8
MESH_357_F0
 10
0
 20
0
 30
0
 70
128
 71
29
 72
28
 73
3
 74
3
 0
VERTEX
 8
MESH_357_F0
 10
0
 20
0
 30
0
 70
128
 71
29
 72
3
 73
30
 74
30
 0
SEQEND
 0
POLYLINE
 8
MESH_356_F0
 66
1
 10
0.0
 20
0.0
 30
0.0
 70
64
 71
30
 72
28
 0
VERTEX
 8
MESH_356_F0
 10
-26.5
 20
-440.5
 30
-3
 70
192
 0
VERTEX
 8
MESH_356_F0
 10
-26.5
 20
-440.5
 30
-7
 70
192
 0
VERTEX
 8
MESH_356_F0
 10
-23.6158
 20
-440.3353
 30
-7
 70
192
 0
VERTEX
 8
MESH_356_F0
 10
-20.7983
 20
-439.8543
 30
-7
 70
192
 0
VERTEX
 8
MESH_356_F0
 10
-18.0554
 20
-439.0602
 30
-7
 70
192
 0
VERTEX
 8
MESH_356_F0
 10
-15.4106
 20
-437.9624
 30
-7
 70
192
 0
VERTEX
 8
MESH_356_F0
 10
-12.9155
 20
-436.5807
 30
-7
 70
192
 0
VERTEX
 8
MESH_356_F0
 10
-10.5922
 20
-434.9296
 30
-7
 70
192
 0
VERTEX
 8
MESH_356_F0
 10
-8.4692
 20
-433.0308
 30
-7
 70
192
 0
VERTEX
 8
MESH_356_F0
 10
-6.5704
 20
-430.9077
 30
-7
 70
192
 0
VERTEX
 8
MESH_356_F0
 10
-4.9193
 20
-428.5844
 30
-7
 70
192
 0
VERTEX
 8
MESH_356_F0
 10
-3.5376
 20
-426.0894
 30
-7
 70
192
 0
VERTEX
 8
MESH_356_F0
 10
-2.4398
 20
-423.4446
 30
-7
 70
192
 0
VERTEX
 8
MESH_356_F0
 10
-1.6456
 20
-420.7017
 30
-7
 70
192
 0
VERTEX
 8
MESH_356_F0
 10
-1.1647
 20
-417.8842
 30
-7
 70
192
 0
VERTEX
 8
MESH_356_F0
 10
-1
 20
-415
 30
-7
 70
192
 0
VERTEX
 8
MESH_356_F0
 10
-1
 20
-415
 30
-3
 70
192
 0
VERTEX
 8
MESH_356_F0
 10
-1.1647
 20
-417.8842
 30
-3
 70
192
 0
VERTEX
 8
MESH_356_F0
 10
-1.6456
 20
-420.7017
 30
-3
 70
192
 0
VERTEX
 8
MESH_356_F0
 10
-2.4398
 20
-423.4446
 30
-3
 70
192
 0
VERTEX
 8
MESH_356_F0
 10
-3.5376
 20
-426.0894
 30
-3
 70
192
 0
VERTEX
 8
MESH_356_F0
 10
-4.9193
 20
-428.5844
 30
-3
 70
192
 0
VERTEX
 8
MESH_356_F0
 10
-6.5704
 20
-430.9077
 30
-3
 70
192
 0
VERTEX
 8
MESH_356_F0
 10
-8.4692
 20
-433.0308
 30
-3
 70
192
 0
VERTEX
 8
MESH_356_F0
 10
-10.5922
 20
-434.9296
 30
-3
 70
192
 0
VERTEX
 8
MESH_356_F0
 10
-12.9155
 20
-436.5807
 30
-3
 70
192
 0
VERTEX
 8
MESH_356_F0
 10
-15.4106
 20
-437.9624
 30
-3
 70
192
 0
VERTEX
 8
MESH_356_F0
 10
-18.0554
 20
-439.0602
 30
-3
 70
192
 0
VERTEX
 8
MESH_356_F0
 10
-20.7983
 20
-439.8543
 30
-3
 70
192
 0
VERTEX
 8
MESH_356_F0
 10
-23.6158
 20
-440.3353
 30
-3
 70
192
 0
VERTEX
 8
MESH_356_F0
 10
0
 20
0
 30
0
 70
128
 71
30
 72
2
 73
1
 74
1
 0
VERTEX
 8
MESH_356_F0
 10
0
 20
0
 30
0
 70
128
 71
3
 72
2
 73
30
 74
30
 0
VERTEX
 8
MESH_356_F0
 10
0
 20
0
 30
0
 70
128
 71
3
 72
30
 73
4
 74
4
 0
VERTEX
 8
MESH_356_F0
 10
0
 20
0
 30
0
 70
128
 71
30
 72
29
 73
4
 74
4
 0
VERTEX
 8
MESH_356_F0
 10
0
 20
0
 30
0
 70
128
 71
29
 72
5
 73
4
 74
4
 0
VERTEX
 8
MESH_356_F0
 10
0
 20
0
 30
0
 70
128
 71
28
 72
5
 73
29
 74
29
 0
VERTEX
 8
MESH_356_F0
 10
0
 20
0
 30
0
 70
128
 71
6
 72
5
 73
28
 74
28
 0
VERTEX
 8
MESH_356_F0
 10
0
 20
0
 30
0
 70
128
 71
7
 72
6
 73
27
 74
27
 0
VERTEX
 8
MESH_356_F0
 10
0
 20
0
 30
0
 70
128
 71
8
 72
7
 73
26
 74
26
 0
VERTEX
 8
MESH_356_F0
 10
0
 20
0
 30
0
 70
128
 71
9
 72
8
 73
25
 74
25
 0
VERTEX
 8
MESH_356_F0
 10
0
 20
0
 30
0
 70
128
 71
10
 72
9
 73
24
 74
24
 0
VERTEX
 8
MESH_356_F0
 10
0
 20
0
 30
0
 70
128
 71
11
 72
10
 73
23
 74
23
 0
VERTEX
 8
MESH_356_F0
 10
0
 20
0
 30
0
 70
128
 71
12
 72
11
 73
22
 74
22
 0
VERTEX
 8
MESH_356_F0
 10
0
 20
0
 30
0
 70
128
 71
13
 72
12
 73
21
 74
21
 0
VERTEX
 8
MESH_356_F0
 10
0
 20
0
 30
0
 70
128
 71
14
 72
13
 73
20
 74
20
 0
VERTEX
 8
MESH_356_F0
 10
0
 20
0
 30
0
 70
128
 71
15
 72
14
 73
19
 74
19
 0
VERTEX
 8
MESH_356_F0
 10
0
 20
0
 30
0
 70
128
 71
17
 72
15
 73
18
 74
18
 0
VERTEX
 8
MESH_356_F0
 10
0
 20
0
 30
0
 70
128
 71
15
 72
19
 73
18
 74
18
 0
VERTEX
 8
MESH_356_F0
 10
0
 20
0
 30
0
 70
128
 71
17
 72
16
 73
15
 74
15
 0
VERTEX
 8
MESH_356_F0
 10
0
 20
0
 30
0
 70
128
 71
14
 72
20
 73
19
 74
19
 0
VERTEX
 8
MESH_356_F0
 10
0
 20
0
 30
0
 70
128
 71
13
 72
21
 73
20
 74
20
 0
VERTEX
 8
MESH_356_F0
 10
0
 20
0
 30
0
 70
128
 71
12
 72
22
 73
21
 74
21
 0
VERTEX
 8
MESH_356_F0
 10
0
 20
0
 30
0
 70
128
 71
11
 72
23
 73
22
 74
22
 0
VERTEX
 8
MESH_356_F0
 10
0
 20
0
 30
0
 70
128
 71
10
 72
24
 73
23
 74
23
 0
VERTEX
 8
MESH_356_F0
 10
0
 20
0
 30
0
 70
128
 71
9
 72
25
 73
24
 74
24
 0
VERTEX
 8
MESH_356_F0
 10
0
 20
0
 30
0
 70
128
 71
8
 72
26
 73
25
 74
25
 0
VERTEX
 8
MESH_356_F0
 10
0
 20
0
 30
0
 70
128
 71
7
 72
27
 73
26
 74
26
 0
VERTEX
 8
MESH_356_F0
 10
0
 20
0
 30
0
 70
128
 71
6
 72
28
 73
27
 74
27
 0
SEQEND
 0
POLYLINE
 8
MESH_355_F0
 66
1
 10
0.0
 20
0.0
 30
0.0
 70
64
 71
4
 72
2
 0
VERTEX
 8
MESH_355_F0
 10
-26.5
 20
-440.5
 30
-7
 70
192
 0
VERTEX
 8
MESH_355_F0
 10
-26.5
 20
-440.5
 30
-3
 70
192
 0
VERTEX
 8
MESH_355_F0
 10
-673.5
 20
-440.5
 30
-3
 70
192
 0
VERTEX
 8
MESH_355_F0
 10
-673.5
 20
-440.5
 30
-7
 70
192
 0
VERTEX
 8
MESH_355_F0
 10
0
 20
0
 30
0
 70
128
 71
1
 72
3
 73
2
 74
2
 0
VERTEX
 8
MESH_355_F0
 10
0
 20
0
 30
0
 70
128
 71
4
 72
3
 73
1
 74
1
 0
SEQEND
 0
POLYLINE
 8
MESH_354_F0
 66
1
 10
0.0
 20
0.0
 30
0.0
 70
64
 71
30
 72
28
 0
VERTEX
 8
MESH_354_F0
 10
-699
 20
-415
 30
-3
 70
192
 0
VERTEX
 8
MESH_354_F0
 10
-699
 20
-415
 30
-7
 70
192
 0
VERTEX
 8
MESH_354_F0
 10
-698.8353
 20
-417.8842
 30
-7
 70
192
 0
VERTEX
 8
MESH_354_F0
 10
-698.3544
 20
-420.7017
 30
-7
 70
192
 0
VERTEX
 8
MESH_354_F0
 10
-697.5602
 20
-423.4446
 30
-7
 70
192
 0
VERTEX
 8
MESH_354_F0
 10
-696.4624
 20
-426.0894
 30
-7
 70
192
 0
VERTEX
 8
MESH_354_F0
 10
-695.0807
 20
-428.5844
 30
-7
 70
192
 0
VERTEX
 8
MESH_354_F0
 10
-693.4296
 20
-430.9077
 30
-7
 70
192
 0
VERTEX
 8
MESH_354_F0
 10
-691.5308
 20
-433.0308
 30
-7
 70
192
 0
VERTEX
 8
MESH_354_F0
 10
-689.4078
 20
-434.9296
 30
-7
 70
192
 0
VERTEX
 8
MESH_354_F0
 10
-687.0845
 20
-436.5807
 30
-7
 70
192
 0
VERTEX
 8
MESH_354_F0
 10
-684.5894
 20
-437.9624
 30
-7
 70
192
 0
VERTEX
 8
MESH_354_F0
 10
-681.9446
 20
-439.0602
 30
-7
 70
192
 0
VERTEX
 8
MESH_354_F0
 10
-679.2017
 20
-439.8543
 30
-7
 70
192
 0
VERTEX
 8
MESH_354_F0
 10
-676.3842
 20
-440.3353
 30
-7
 70
192
 0
VERTEX
 8
MESH_354_F0
 10
-673.5
 20
-440.5
 30
-7
 70
192
 0
VERTEX
 8
MESH_354_F0
 10
-673.5
 20
-440.5
 30
-3
 70
192
 0
VERTEX
 8
MESH_354_F0
 10
-676.3842
 20
-440.3353
 30
-3
 70
192
 0
VERTEX
 8
MESH_354_F0
 10
-679.2017
 20
-439.8543
 30
-3
 70
192
 0
VERTEX
 8
MESH_354_F0
 10
-681.9446
 20
-439.0602
 30
-3
 70
192
 0
VERTEX
 8
MESH_354_F0
 10
-684.5894
 20
-437.9624
 30
-3
 70
192
 0
VERTEX
 8
MESH_354_F0
 10
-687.0845
 20
-436.5807
 30
-3
 70
192
 0
VERTEX
 8
MESH_354_F0
 10
-689.4078
 20
-434.9296
 30
-3
 70
192
 0
VERTEX
 8
MESH_354_F0
 10
-691.5308
 20
-433.0308
 30
-3
 70
192
 0
VERTEX
 8
MESH_354_F0
 10
-693.4296
 20
-430.9077
 30
-3
 70
192
 0
VERTEX
 8
MESH_354_F0
 10
-695.0807
 20
-428.5844
 30
-3
 70
192
 0
VERTEX
 8
MESH_354_F0
 10
-696.4624
 20
-426.0894
 30
-3
 70
192
 0
VERTEX
 8
MESH_354_F0
 10
-697.5602
 20
-423.4446
 30
-3
 70
192
 0
VERTEX
 8
MESH_354_F0
 10
-698.3544
 20
-420.7017
 30
-3
 70
192
 0
VERTEX
 8
MESH_354_F0
 10
-698.8353
 20
-417.8842
 30
-3
 70
192
 0
VERTEX
 8
MESH_354_F0
 10
0
 20
0
 30
0
 70
128
 71
30
 72
2
 73
1
 74
1
 0
VERTEX
 8
MESH_354_F0
 10
0
 20
0
 30
0
 70
128
 71
3
 72
2
 73
30
 74
30
 0
VERTEX
 8
MESH_354_F0
 10
0
 20
0
 30
0
 70
128
 71
3
 72
30
 73
4
 74
4
 0
VERTEX
 8
MESH_354_F0
 10
0
 20
0
 30
0
 70
128
 71
30
 72
29
 73
4
 74
4
 0
VERTEX
 8
MESH_354_F0
 10
0
 20
0
 30
0
 70
128
 71
29
 72
5
 73
4
 74
4
 0
VERTEX
 8
MESH_354_F0
 10
0
 20
0
 30
0
 70
128
 71
28
 72
5
 73
29
 74
29
 0
VERTEX
 8
MESH_354_F0
 10
0
 20
0
 30
0
 70
128
 71
6
 72
5
 73
28
 74
28
 0
VERTEX
 8
MESH_354_F0
 10
0
 20
0
 30
0
 70
128
 71
7
 72
6
 73
27
 74
27
 0
VERTEX
 8
MESH_354_F0
 10
0
 20
0
 30
0
 70
128
 71
8
 72
7
 73
26
 74
26
 0
VERTEX
 8
MESH_354_F0
 10
0
 20
0
 30
0
 70
128
 71
9
 72
8
 73
25
 74
25
 0
VERTEX
 8
MESH_354_F0
 10
0
 20
0
 30
0
 70
128
 71
10
 72
9
 73
24
 74
24
 0
VERTEX
 8
MESH_354_F0
 10
0
 20
0
 30
0
 70
128
 71
11
 72
10
 73
23
 74
23
 0
VERTEX
 8
MESH_354_F0
 10
0
 20
0
 30
0
 70
128
 71
12
 72
11
 73
22
 74
22
 0
VERTEX
 8
MESH_354_F0
 10
0
 20
0
 30
0
 70
128
 71
13
 72
12
 73
21
 74
21
 0
VERTEX
 8
MESH_354_F0
 10
0
 20
0
 30
0
 70
128
 71
14
 72
13
 73
20
 74
20
 0
VERTEX
 8
MESH_354_F0
 10
0
 20
0
 30
0
 70
128
 71
15
 72
14
 73
19
 74
19
 0
VERTEX
 8
MESH_354_F0
 10
0
 20
0
 30
0
 70
128
 71
17
 72
15
 73
18
 74
18
 0
VERTEX
 8
MESH_354_F0
 10
0
 20
0
 30
0
 70
128
 71
15
 72
19
 73
18
 74
18
 0
VERTEX
 8
MESH_354_F0
 10
0
 20
0
 30
0
 70
128
 71
17
 72
16
 73
15
 74
15
 0
VERTEX
 8
MESH_354_F0
 10
0
 20
0
 30
0
 70
128
 71
14
 72
20
 73
19
 74
19
 0
VERTEX
 8
MESH_354_F0
 10
0
 20
0
 30
0
 70
128
 71
13
 72
21
 73
20
 74
20
 0
VERTEX
 8
MESH_354_F0
 10
0
 20
0
 30
0
 70
128
 71
12
 72
22
 73
21
 74
21
 0
VERTEX
 8
MESH_354_F0
 10
0
 20
0
 30
0
 70
128
 71
11
 72
23
 73
22
 74
22
 0
VERTEX
 8
MESH_354_F0
 10
0
 20
0
 30
0
 70
128
 71
10
 72
24
 73
23
 74
23
 0
VERTEX
 8
MESH_354_F0
 10
0
 20
0
 30
0
 70
128
 71
9
 72
25
 73
24
 74
24
 0
VERTEX
 8
MESH_354_F0
 10
0
 20
0
 30
0
 70
128
 71
8
 72
26
 73
25
 74
25
 0
VERTEX
 8
MESH_354_F0
 10
0
 20
0
 30
0
 70
128
 71
7
 72
27
 73
26
 74
26
 0
VERTEX
 8
MESH_354_F0
 10
0
 20
0
 30
0
 70
128
 71
6
 72
28
 73
27
 74
27
 0
SEQEND
 0
POLYLINE
 8
MESH_353_F0
 66
1
 10
0.0
 20
0.0
 30
0.0
 70
64
 71
4
 72
2
 0
VERTEX
 8
MESH_353_F0
 10
-699
 20
-412
 30
-7
 70
192
 0
VERTEX
 8
MESH_353_F0
 10
-699
 20
-415
 30
-7
 70
192
 0
VERTEX
 8
MESH_353_F0
 10
-699
 20
-415
 30
-3
 70
192
 0
VERTEX
 8
MESH_353_F0
 10
-699
 20
-412
 30
-3
 70
192
 0
VERTEX
 8
MESH_353_F0
 10
0
 20
0
 30
0
 70
128
 71
4
 72
2
 73
1
 74
1
 0
VERTEX
 8
MESH_353_F0
 10
0
 20
0
 30
0
 70
128
 71
3
 72
2
 73
4
 74
4
 0
SEQEND
 0
POLYLINE
 8
MESH_352_F0
 66
1
 10
0.0
 20
0.0
 30
0.0
 70
64
 71
32
 72
30
 0
VERTEX
 8
MESH_352_F0
 10
-699
 20
-412
 30
-3
 70
192
 0
VERTEX
 8
MESH_352_F0
 10
-699
 20
-415
 30
-3
 70
192
 0
VERTEX
 8
MESH_352_F0
 10
-698.8353
 20
-417.8842
 30
-3
 70
192
 0
VERTEX
 8
MESH_352_F0
 10
-698.3544
 20
-420.7017
 30
-3
 70
192
 0
VERTEX
 8
MESH_352_F0
 10
-697.5602
 20
-423.4446
 30
-3
 70
192
 0
VERTEX
 8
MESH_352_F0
 10
-696.4624
 20
-426.0894
 30
-3
 70
192
 0
VERTEX
 8
MESH_352_F0
 10
-695.0807
 20
-428.5844
 30
-3
 70
192
 0
VERTEX
 8
MESH_352_F0
 10
-693.4296
 20
-430.9077
 30
-3
 70
192
 0
VERTEX
 8
MESH_352_F0
 10
-691.5308
 20
-433.0308
 30
-3
 70
192
 0
VERTEX
 8
MESH_352_F0
 10
-689.4078
 20
-434.9296
 30
-3
 70
192
 0
VERTEX
 8
MESH_352_F0
 10
-687.0845
 20
-436.5807
 30
-3
 70
192
 0
VERTEX
 8
MESH_352_F0
 10
-684.5894
 20
-437.9624
 30
-3
 70
192
 0
VERTEX
 8
MESH_352_F0
 10
-681.9446
 20
-439.0602
 30
-3
 70
192
 0
VERTEX
 8
MESH_352_F0
 10
-679.2017
 20
-439.8543
 30
-3
 70
192
 0
VERTEX
 8
MESH_352_F0
 10
-676.3842
 20
-440.3353
 30
-3
 70
192
 0
VERTEX
 8
MESH_352_F0
 10
-673.5
 20
-440.5
 30
-3
 70
192
 0
VERTEX
 8
MESH_352_F0
 10
-26.5
 20
-440.5
 30
-3
 70
192
 0
VERTEX
 8
MESH_352_F0
 10
-23.6158
 20
-440.3353
 30
-3
 70
192
 0
VERTEX
 8
MESH_352_F0
 10
-20.7983
 20
-439.8543
 30
-3
 70
192
 0
VERTEX
 8
MESH_352_F0
 10
-18.0554
 20
-439.0602
 30
-3
 70
192
 0
VERTEX
 8
MESH_352_F0
 10
-15.4106
 20
-437.9624
 30
-3
 70
192
 0
VERTEX
 8
MESH_352_F0
 10
-12.9155
 20
-436.5807
 30
-3
 70
192
 0
VERTEX
 8
MESH_352_F0
 10
-10.5922
 20
-434.9296
 30
-3
 70
192
 0
VERTEX
 8
MESH_352_F0
 10
-8.4692
 20
-433.0308
 30
-3
 70
192
 0
VERTEX
 8
MESH_352_F0
 10
-6.5704
 20
-430.9077
 30
-3
 70
192
 0
VERTEX
 8
MESH_352_F0
 10
-4.9193
 20
-428.5844
 30
-3
 70
192
 0
VERTEX
 8
MESH_352_F0
 10
-3.5376
 20
-426.0894
 30
-3
 70
192
 0
VERTEX
 8
MESH_352_F0
 10
-2.4398
 20
-423.4446
 30
-3
 70
192
 0
VERTEX
 8
MESH_352_F0
 10
-1.6456
 20
-420.7017
 30
-3
 70
192
 0
VERTEX
 8
MESH_352_F0
 10
-1.1647
 20
-417.8842
 30
-3
 70
192
 0
VERTEX
 8
MESH_352_F0
 10
-1
 20
-415
 30
-3
 70
192
 0
VERTEX
 8
MESH_352_F0
 10
-1
 20
-412
 30
-3
 70
192
 0
VERTEX
 8
MESH_352_F0
 10
0
 20
0
 30
0
 70
128
 71
1
 72
30
 73
2
 74
2
 0
VERTEX
 8
MESH_352_F0
 10
0
 20
0
 30
0
 70
128
 71
30
 72
3
 73
2
 74
2
 0
VERTEX
 8
MESH_352_F0
 10
0
 20
0
 30
0
 70
128
 71
4
 72
3
 73
30
 74
30
 0
VERTEX
 8
MESH_352_F0
 10
0
 20
0
 30
0
 70
128
 71
5
 72
4
 73
29
 74
29
 0
VERTEX
 8
MESH_352_F0
 10
0
 20
0
 30
0
 70
128
 71
5
 72
29
 73
6
 74
6
 0
VERTEX
 8
MESH_352_F0
 10
0
 20
0
 30
0
 70
128
 71
29
 72
7
 73
6
 74
6
 0
VERTEX
 8
MESH_352_F0
 10
0
 20
0
 30
0
 70
128
 71
28
 72
7
 73
29
 74
29
 0
VERTEX
 8
MESH_352_F0
 10
0
 20
0
 30
0
 70
128
 71
8
 72
7
 73
28
 74
28
 0
VERTEX
 8
MESH_352_F0
 10
0
 20
0
 30
0
 70
128
 71
8
 72
28
 73
9
 74
9
 0
VERTEX
 8
MESH_352_F0
 10
0
 20
0
 30
0
 70
128
 71
28
 72
27
 73
9
 74
9
 0
VERTEX
 8
MESH_352_F0
 10
0
 20
0
 30
0
 70
128
 71
27
 72
10
 73
9
 74
9
 0
VERTEX
 8
MESH_352_F0
 10
0
 20
0
 30
0
 70
128
 71
11
 72
10
 73
27
 74
27
 0
VERTEX
 8
MESH_352_F0
 10
0
 20
0
 30
0
 70
128
 71
12
 72
11
 73
26
 74
26
 0
VERTEX
 8
MESH_352_F0
 10
0
 20
0
 30
0
 70
128
 71
13
 72
12
 73
16
 74
16
 0
VERTEX
 8
MESH_352_F0
 10
0
 20
0
 30
0
 70
128
 71
13
 72
16
 73
14
 74
14
 0
VERTEX
 8
MESH_352_F0
 10
0
 20
0
 30
0
 70
128
 71
16
 72
15
 73
14
 74
14
 0
VERTEX
 8
MESH_352_F0
 10
0
 20
0
 30
0
 70
128
 71
17
 72
20
 73
19
 74
19
 0
VERTEX
 8
MESH_352_F0
 10
0
 20
0
 30
0
 70
128
 71
17
 72
19
 73
18
 74
18
 0
VERTEX
 8
MESH_352_F0
 10
0
 20
0
 30
0
 70
128
 71
17
 72
21
 73
20
 74
20
 0
VERTEX
 8
MESH_352_F0
 10
0
 20
0
 30
0
 70
128
 71
16
 72
21
 73
17
 74
17
 0
VERTEX
 8
MESH_352_F0
 10
0
 20
0
 30
0
 70
128
 71
22
 72
21
 73
16
 74
16
 0
VERTEX
 8
MESH_352_F0
 10
0
 20
0
 30
0
 70
128
 71
22
 72
16
 73
23
 74
23
 0
VERTEX
 8
MESH_352_F0
 10
0
 20
0
 30
0
 70
128
 71
16
 72
24
 73
23
 74
23
 0
VERTEX
 8
MESH_352_F0
 10
0
 20
0
 30
0
 70
128
 71
25
 72
24
 73
16
 74
16
 0
VERTEX
 8
MESH_352_F0
 10
0
 20
0
 30
0
 70
128
 71
25
 72
16
 73
26
 74
26
 0
VERTEX
 8
MESH_352_F0
 10
0
 20
0
 30
0
 70
128
 71
16
 72
12
 73
26
 74
26
 0
VERTEX
 8
MESH_352_F0
 10
0
 20
0
 30
0
 70
128
 71
11
 72
27
 73
26
 74
26
 0
VERTEX
 8
MESH_352_F0
 10
0
 20
0
 30
0
 70
128
 71
4
 72
30
 73
29
 74
29
 0
VERTEX
 8
MESH_352_F0
 10
0
 20
0
 30
0
 70
128
 71
1
 72
31
 73
30
 74
30
 0
VERTEX
 8
MESH_352_F0
 10
0
 20
0
 30
0
 70
128
 71
32
 72
31
 73
1
 74
1
 0
SEQEND
 0
POLYLINE
 8
MESH_351_F0
 66
1
 10
0.0
 20
0.0
 30
0.0
 70
64
 71
4
 72
2
 0
VERTEX
 8
MESH_351_F0
 10
-1
 20
-412
 30
-3
 70
192
 0
VERTEX
 8
MESH_351_F0
 10
-1
 20
-415
 30
-3
 70
192
 0
VERTEX
 8
MESH_351_F0
 10
-1
 20
-415
 30
-7
 70
192
 0
VERTEX
 8
MESH_351_F0
 10
-1
 20
-412
 30
-7
 70
192
 0
VERTEX
 8
MESH_351_F0
 10
0
 20
0
 30
0
 70
128
 71
4
 72
2
 73
1
 74
1
 0
VERTEX
 8
MESH_351_F0
 10
0
 20
0
 30
0
 70
128
 71
3
 72
2
 73
4
 74
4
 0
SEQEND
 0
POLYLINE
 8
MESH_350_F0
 66
1
 10
0.0
 20
0.0
 30
0.0
 70
64
 71
4
 72
2
 0
VERTEX
 8
MESH_350_F0
 10
-673.501
 20
-440
 30
-7
 70
192
 0
VERTEX
 8
MESH_350_F0
 10
-673.501
 20
-440
 30
-237
 70
192
 0
VERTEX
 8
MESH_350_F0
 10
-26.499
 20
-440
 30
-237
 70
192
 0
VERTEX
 8
MESH_350_F0
 10
-26.499
 20
-440
 30
-7
 70
192
 0
VERTEX
 8
MESH_350_F0
 10
0
 20
0
 30
0
 70
128
 71
1
 72
3
 73
2
 74
2
 0
VERTEX
 8
MESH_350_F0
 10
0
 20
0
 30
0
 70
128
 71
4
 72
3
 73
1
 74
1
 0
SEQEND
 0
POLYLINE
 8
MESH_349_F0
 66
1
 10
0.0
 20
0.0
 30
0.0
 70
64
 71
30
 72
28
 0
VERTEX
 8
MESH_349_F0
 10
-698.3192
 20
-412
 30
-237
 70
192
 0
VERTEX
 8
MESH_349_F0
 10
-698.5
 20
-415.0125
 30
-237
 70
192
 0
VERTEX
 8
MESH_349_F0
 10
-698.3164
 20
-418.0248
 30
-237
 70
192
 0
VERTEX
 8
MESH_349_F0
 10
-697.7712
 20
-420.9931
 30
-237
 70
192
 0
VERTEX
 8
MESH_349_F0
 10
-696.8723
 20
-423.874
 30
-237
 70
192
 0
VERTEX
 8
MESH_349_F0
 10
-695.6328
 20
-426.6256
 30
-237
 70
192
 0
VERTEX
 8
MESH_349_F0
 10
-694.0707
 20
-429.2079
 30
-237
 70
192
 0
VERTEX
 8
MESH_349_F0
 10
-692.2089
 20
-431.583
 30
-237
 70
192
 0
VERTEX
 8
MESH_349_F0
 10
-690.0745
 20
-433.7166
 30
-237
 70
192
 0
VERTEX
 8
MESH_349_F0
 10
-687.6984
 20
-435.5773
 30
-237
 70
192
 0
VERTEX
 8
MESH_349_F0
 10
-685.1155
 20
-437.1381
 30
-237
 70
192
 0
VERTEX
 8
MESH_349_F0
 10
-682.3633
 20
-438.3764
 30
-237
 70
192
 0
VERTEX
 8
MESH_349_F0
 10
-679.4819
 20
-439.274
 30
-237
 70
192
 0
VERTEX
 8
MESH_349_F0
 10
-676.5134
 20
-439.8178
 30
-237
 70
192
 0
VERTEX
 8
MESH_349_F0
 10
-673.501
 20
-440
 30
-237
 70
192
 0
VERTEX
 8
MESH_349_F0
 10
-673.501
 20
-440
 30
-7
 70
192
 0
VERTEX
 8
MESH_349_F0
 10
-676.5134
 20
-439.8178
 30
-7
 70
192
 0
VERTEX
 8
MESH_349_F0
 10
-679.4819
 20
-439.274
 30
-7
 70
192
 0
VERTEX
 8
MESH_349_F0
 10
-682.3633
 20
-438.3764
 30
-7
 70
192
 0
VERTEX
 8
MESH_349_F0
 10
-685.1155
 20
-437.1381
 30
-7
 70
192
 0
VERTEX
 8
MESH_349_F0
 10
-687.6984
 20
-435.5773
 30
-7
 70
192
 0
VERTEX
 8
MESH_349_F0
 10
-690.0745
 20
-433.7166
 30
-7
 70
192
 0
VERTEX
 8
MESH_349_F0
 10
-692.2089
 20
-431.583
 30
-7
 70
192
 0
VERTEX
 8
MESH_349_F0
 10
-694.0707
 20
-429.2079
 30
-7
 70
192
 0
VERTEX
 8
MESH_349_F0
 10
-695.6328
 20
-426.6256
 30
-7
 70
192
 0
VERTEX
 8
MESH_349_F0
 10
-696.8723
 20
-423.874
 30
-7
 70
192
 0
VERTEX
 8
MESH_349_F0
 10
-697.7712
 20
-420.9931
 30
-7
 70
192
 0
VERTEX
 8
MESH_349_F0
 10
-698.3164
 20
-418.0248
 30
-7
 70
192
 0
VERTEX
 8
MESH_349_F0
 10
-698.5
 20
-415.0125
 30
-7
 70
192
 0
VERTEX
 8
MESH_349_F0
 10
-698.3192
 20
-412
 30
-7
 70
192
 0
VERTEX
 8
MESH_349_F0
 10
0
 20
0
 30
0
 70
128
 71
29
 72
1
 73
30
 74
30
 0
VERTEX
 8
MESH_349_F0
 10
0
 20
0
 30
0
 70
128
 71
2
 72
1
 73
29
 74
29
 0
VERTEX
 8
MESH_349_F0
 10
0
 20
0
 30
0
 70
128
 71
3
 72
2
 73
28
 74
28
 0
VERTEX
 8
MESH_349_F0
 10
0
 20
0
 30
0
 70
128
 71
4
 72
3
 73
27
 74
27
 0
VERTEX
 8
MESH_349_F0
 10
0
 20
0
 30
0
 70
128
 71
5
 72
4
 73
26
 74
26
 0
VERTEX
 8
MESH_349_F0
 10
0
 20
0
 30
0
 70
128
 71
6
 72
5
 73
25
 74
25
 0
VERTEX
 8
MESH_349_F0
 10
0
 20
0
 30
0
 70
128
 71
7
 72
6
 73
24
 74
24
 0
VERTEX
 8
MESH_349_F0
 10
0
 20
0
 30
0
 70
128
 71
8
 72
7
 73
23
 74
23
 0
VERTEX
 8
MESH_349_F0
 10
0
 20
0
 30
0
 70
128
 71
9
 72
8
 73
22
 74
22
 0
VERTEX
 8
MESH_349_F0
 10
0
 20
0
 30
0
 70
128
 71
10
 72
9
 73
21
 74
21
 0
VERTEX
 8
MESH_349_F0
 10
0
 20
0
 30
0
 70
128
 71
11
 72
10
 73
20
 74
20
 0
VERTEX
 8
MESH_349_F0
 10
0
 20
0
 30
0
 70
128
 71
12
 72
11
 73
19
 74
19
 0
VERTEX
 8
MESH_349_F0
 10
0
 20
0
 30
0
 70
128
 71
13
 72
12
 73
18
 74
18
 0
VERTEX
 8
MESH_349_F0
 10
0
 20
0
 30
0
 70
128
 71
14
 72
13
 73
17
 74
17
 0
VERTEX
 8
MESH_349_F0
 10
0
 20
0
 30
0
 70
128
 71
15
 72
14
 73
16
 74
16
 0
VERTEX
 8
MESH_349_F0
 10
0
 20
0
 30
0
 70
128
 71
14
 72
17
 73
16
 74
16
 0
VERTEX
 8
MESH_349_F0
 10
0
 20
0
 30
0
 70
128
 71
13
 72
18
 73
17
 74
17
 0
VERTEX
 8
MESH_349_F0
 10
0
 20
0
 30
0
 70
128
 71
12
 72
19
 73
18
 74
18
 0
VERTEX
 8
MESH_349_F0
 10
0
 20
0
 30
0
 70
128
 71
11
 72
20
 73
19
 74
19
 0
VERTEX
 8
MESH_349_F0
 10
0
 20
0
 30
0
 70
128
 71
10
 72
21
 73
20
 74
20
 0
VERTEX
 8
MESH_349_F0
 10
0
 20
0
 30
0
 70
128
 71
9
 72
22
 73
21
 74
21
 0
VERTEX
 8
MESH_349_F0
 10
0
 20
0
 30
0
 70
128
 71
8
 72
23
 73
22
 74
22
 0
VERTEX
 8
MESH_349_F0
 10
0
 20
0
 30
0
 70
128
 71
7
 72
24
 73
23
 74
23
 0
VERTEX
 8
MESH_349_F0
 10
0
 20
0
 30
0
 70
128
 71
6
 72
25
 73
24
 74
24
 0
VERTEX
 8
MESH_349_F0
 10
0
 20
0
 30
0
 70
128
 71
5
 72
26
 73
25
 74
25
 0
VERTEX
 8
MESH_349_F0
 10
0
 20
0
 30
0
 70
128
 71
4
 72
27
 73
26
 74
26
 0
VERTEX
 8
MESH_349_F0
 10
0
 20
0
 30
0
 70
128
 71
3
 72
28
 73
27
 74
27
 0
VERTEX
 8
MESH_349_F0
 10
0
 20
0
 30
0
 70
128
 71
2
 72
29
 73
28
 74
28
 0
SEQEND
 0
POLYLINE
 8
MESH_348_F0
 66
1
 10
0.0
 20
0.0
 30
0.0
 70
64
 71
62
 72
60
 0
VERTEX
 8
MESH_348_F0
 10
-698.3192
 20
-412
 30
-7
 70
192
 0
VERTEX
 8
MESH_348_F0
 10
-698.5
 20
-415.0125
 30
-7
 70
192
 0
VERTEX
 8
MESH_348_F0
 10
-698.3164
 20
-418.0248
 30
-7
 70
192
 0
VERTEX
 8
MESH_348_F0
 10
-697.7712
 20
-420.9931
 30
-7
 70
192
 0
VERTEX
 8
MESH_348_F0
 10
-696.8723
 20
-423.874
 30
-7
 70
192
 0
VERTEX
 8
MESH_348_F0
 10
-695.6328
 20
-426.6256
 30
-7
 70
192
 0
VERTEX
 8
MESH_348_F0
 10
-694.0707
 20
-429.2079
 30
-7
 70
192
 0
VERTEX
 8
MESH_348_F0
 10
-692.2089
 20
-431.583
 30
-7
 70
192
 0
VERTEX
 8
MESH_348_F0
 10
-690.0745
 20
-433.7166
 30
-7
 70
192
 0
VERTEX
 8
MESH_348_F0
 10
-687.6984
 20
-435.5773
 30
-7
 70
192
 0
VERTEX
 8
MESH_348_F0
 10
-685.1155
 20
-437.1381
 30
-7
 70
192
 0
VERTEX
 8
MESH_348_F0
 10
-682.3633
 20
-438.3764
 30
-7
 70
192
 0
VERTEX
 8
MESH_348_F0
 10
-679.4819
 20
-439.274
 30
-7
 70
192
 0
VERTEX
 8
MESH_348_F0
 10
-676.5134
 20
-439.8178
 30
-7
 70
192
 0
VERTEX
 8
MESH_348_F0
 10
-673.501
 20
-440
 30
-7
 70
192
 0
VERTEX
 8
MESH_348_F0
 10
-26.499
 20
-440
 30
-7
 70
192
 0
VERTEX
 8
MESH_348_F0
 10
-23.4866
 20
-439.8178
 30
-7
 70
192
 0
VERTEX
 8
MESH_348_F0
 10
-20.5181
 20
-439.274
 30
-7
 70
192
 0
VERTEX
 8
MESH_348_F0
 10
-17.6367
 20
-438.3764
 30
-7
 70
192
 0
VERTEX
 8
MESH_348_F0
 10
-14.8845
 20
-437.1381
 30
-7
 70
192
 0
VERTEX
 8
MESH_348_F0
 10
-12.3016
 20
-435.5773
 30
-7
 70
192
 0
VERTEX
 8
MESH_348_F0
 10
-9.9256
 20
-433.7166
 30
-7
 70
192
 0
VERTEX
 8
MESH_348_F0
 10
-7.7911
 20
-431.583
 30
-7
 70
192
 0
VERTEX
 8
MESH_348_F0
 10
-5.9292
 20
-429.2079
 30
-7
 70
192
 0
VERTEX
 8
MESH_348_F0
 10
-4.3672
 20
-426.6256
 30
-7
 70
192
 0
VERTEX
 8
MESH_348_F0
 10
-3.1277
 20
-423.874
 30
-7
 70
192
 0
VERTEX
 8
MESH_348_F0
 10
-2.2288
 20
-420.9931
 30
-7
 70
192
 0
VERTEX
 8
MESH_348_F0
 10
-1.6836
 20
-418.0248
 30
-7
 70
192
 0
VERTEX
 8
MESH_348_F0
 10
-1.5
 20
-415.0125
 30
-7
 70
192
 0
VERTEX
 8
MESH_348_F0
 10
-1.6808
 20
-412
 30
-7
 70
192
 0
VERTEX
 8
MESH_348_F0
 10
-1
 20
-412
 30
-7
 70
192
 0
VERTEX
 8
MESH_348_F0
 10
-1
 20
-415
 30
-7
 70
192
 0
VERTEX
 8
MESH_348_F0
 10
-1.1647
 20
-417.8842
 30
-7
 70
192
 0
VERTEX
 8
MESH_348_F0
 10
-1.6456
 20
-420.7017
 30
-7
 70
192
 0
VERTEX
 8
MESH_348_F0
 10
-2.4398
 20
-423.4446
 30
-7
 70
192
 0
VERTEX
 8
MESH_348_F0
 10
-3.5376
 20
-426.0894
 30
-7
 70
192
 0
VERTEX
 8
MESH_348_F0
 10
-4.9193
 20
-428.5844
 30
-7
 70
192
 0
VERTEX
 8
MESH_348_F0
 10
-6.5704
 20
-430.9077
 30
-7
 70
192
 0
VERTEX
 8
MESH_348_F0
 10
-8.4692
 20
-433.0308
 30
-7
 70
192
 0
VERTEX
 8
MESH_348_F0
 10
-10.5922
 20
-434.9296
 30
-7
 70
192
 0
VERTEX
 8
MESH_348_F0
 10
-12.9155
 20
-436.5807
 30
-7
 70
192
 0
VERTEX
 8
MESH_348_F0
 10
-15.4106
 20
-437.9624
 30
-7
 70
192
 0
VERTEX
 8
MESH_348_F0
 10
-18.0554
 20
-439.0602
 30
-7
 70
192
 0
VERTEX
 8
MESH_348_F0
 10
-20.7983
 20
-439.8543
 30
-7
 70
192
 0
VERTEX
 8
MESH_348_F0
 10
-23.6158
 20
-440.3353
 30
-7
 70
192
 0
VERTEX
 8
MESH_348_F0
 10
-26.5
 20
-440.5
 30
-7
 70
192
 0
VERTEX
 8
MESH_348_F0
 10
-673.5
 20
-440.5
 30
-7
 70
192
 0
VERTEX
 8
MESH_348_F0
 10
-676.3842
 20
-440.3353
 30
-7
 70
192
 0
VERTEX
 8
MESH_348_F0
 10
-679.2017
 20
-439.8543
 30
-7
 70
192
 0
VERTEX
 8
MESH_348_F0
 10
-681.9446
 20
-439.0602
 30
-7
 70
192
 0
VERTEX
 8
MESH_348_F0
 10
-684.5894
 20
-437.9624
 30
-7
 70
192
 0
VERTEX
 8
MESH_348_F0
 10
-687.0845
 20
-436.5807
 30
-7
 70
192
 0
VERTEX
 8
MESH_348_F0
 10
-689.4078
 20
-434.9296
 30
-7
 70
192
 0
VERTEX
 8
MESH_348_F0
 10
-691.5308
 20
-433.0308
 30
-7
 70
192
 0
VERTEX
 8
MESH_348_F0
 10
-693.4296
 20
-430.9077
 30
-7
 70
192
 0
VERTEX
 8
MESH_348_F0
 10
-695.0807
 20
-428.5844
 30
-7
 70
192
 0
VERTEX
 8
MESH_348_F0
 10
-696.4624
 20
-426.0894
 30
-7
 70
192
 0
VERTEX
 8
MESH_348_F0
 10
-697.5602
 20
-423.4446
 30
-7
 70
192
 0
VERTEX
 8
MESH_348_F0
 10
-698.3544
 20
-420.7017
 30
-7
 70
192
 0
VERTEX
 8
MESH_348_F0
 10
-698.8353
 20
-417.8842
 30
-7
 70
192
 0
VERTEX
 8
MESH_348_F0
 10
-699
 20
-415
 30
-7
 70
192
 0
VERTEX
 8
MESH_348_F0
 10
-699
 20
-412
 30
-7
 70
192
 0
VERTEX
 8
MESH_348_F0
 10
0
 20
0
 30
0
 70
128
 71
62
 72
2
 73
1
 74
1
 0
VERTEX
 8
MESH_348_F0
 10
0
 20
0
 30
0
 70
128
 71
61
 72
2
 73
62
 74
62
 0
VERTEX
 8
MESH_348_F0
 10
0
 20
0
 30
0
 70
128
 71
60
 72
2
 73
61
 74
61
 0
VERTEX
 8
MESH_348_F0
 10
0
 20
0
 30
0
 70
128
 71
3
 72
2
 73
60
 74
60
 0
VERTEX
 8
MESH_348_F0
 10
0
 20
0
 30
0
 70
128
 71
4
 72
3
 73
59
 74
59
 0
VERTEX
 8
MESH_348_F0
 10
0
 20
0
 30
0
 70
128
 71
5
 72
4
 73
58
 74
58
 0
VERTEX
 8
MESH_348_F0
 10
0
 20
0
 30
0
 70
128
 71
6
 72
5
 73
57
 74
57
 0
VERTEX
 8
MESH_348_F0
 10
0
 20
0
 30
0
 70
128
 71
7
 72
6
 73
56
 74
56
 0
VERTEX
 8
MESH_348_F0
 10
0
 20
0
 30
0
 70
128
 71
8
 72
7
 73
55
 74
55
 0
VERTEX
 8
MESH_348_F0
 10
0
 20
0
 30
0
 70
128
 71
9
 72
8
 73
54
 74
54
 0
VERTEX
 8
MESH_348_F0
 10
0
 20
0
 30
0
 70
128
 71
10
 72
9
 73
53
 74
53
 0
VERTEX
 8
MESH_348_F0
 10
0
 20
0
 30
0
 70
128
 71
11
 72
10
 73
52
 74
52
 0
VERTEX
 8
MESH_348_F0
 10
0
 20
0
 30
0
 70
128
 71
12
 72
11
 73
51
 74
51
 0
VERTEX
 8
MESH_348_F0
 10
0
 20
0
 30
0
 70
128
 71
13
 72
12
 73
50
 74
50
 0
VERTEX
 8
MESH_348_F0
 10
0
 20
0
 30
0
 70
128
 71
14
 72
13
 73
49
 74
49
 0
VERTEX
 8
MESH_348_F0
 10
0
 20
0
 30
0
 70
128
 71
14
 72
49
 73
15
 74
15
 0
VERTEX
 8
MESH_348_F0
 10
0
 20
0
 30
0
 70
128
 71
49
 72
48
 73
15
 74
15
 0
VERTEX
 8
MESH_348_F0
 10
0
 20
0
 30
0
 70
128
 71
48
 72
47
 73
15
 74
15
 0
VERTEX
 8
MESH_348_F0
 10
0
 20
0
 30
0
 70
128
 71
47
 72
46
 73
15
 74
15
 0
VERTEX
 8
MESH_348_F0
 10
0
 20
0
 30
0
 70
128
 71
46
 72
16
 73
15
 74
15
 0
VERTEX
 8
MESH_348_F0
 10
0
 20
0
 30
0
 70
128
 71
45
 72
16
 73
46
 74
46
 0
VERTEX
 8
MESH_348_F0
 10
0
 20
0
 30
0
 70
128
 71
44
 72
16
 73
45
 74
45
 0
VERTEX
 8
MESH_348_F0
 10
0
 20
0
 30
0
 70
128
 71
17
 72
16
 73
44
 74
44
 0
VERTEX
 8
MESH_348_F0
 10
0
 20
0
 30
0
 70
128
 71
17
 72
44
 73
18
 74
18
 0
VERTEX
 8
MESH_348_F0
 10
0
 20
0
 30
0
 70
128
 71
44
 72
43
 73
18
 74
18
 0
VERTEX
 8
MESH_348_F0
 10
0
 20
0
 30
0
 70
128
 71
43
 72
19
 73
18
 74
18
 0
VERTEX
 8
MESH_348_F0
 10
0
 20
0
 30
0
 70
128
 71
42
 72
19
 73
43
 74
43
 0
VERTEX
 8
MESH_348_F0
 10
0
 20
0
 30
0
 70
128
 71
20
 72
19
 73
42
 74
42
 0
VERTEX
 8
MESH_348_F0
 10
0
 20
0
 30
0
 70
128
 71
21
 72
20
 73
41
 74
41
 0
VERTEX
 8
MESH_348_F0
 10
0
 20
0
 30
0
 70
128
 71
22
 72
21
 73
40
 74
40
 0
VERTEX
 8
MESH_348_F0
 10
0
 20
0
 30
0
 70
128
 71
23
 72
22
 73
39
 74
39
 0
VERTEX
 8
MESH_348_F0
 10
0
 20
0
 30
0
 70
128
 71
24
 72
23
 73
38
 74
38
 0
VERTEX
 8
MESH_348_F0
 10
0
 20
0
 30
0
 70
128
 71
25
 72
24
 73
37
 74
37
 0
VERTEX
 8
MESH_348_F0
 10
0
 20
0
 30
0
 70
128
 71
26
 72
25
 73
36
 74
36
 0
VERTEX
 8
MESH_348_F0
 10
0
 20
0
 30
0
 70
128
 71
27
 72
26
 73
35
 74
35
 0
VERTEX
 8
MESH_348_F0
 10
0
 20
0
 30
0
 70
128
 71
28
 72
27
 73
34
 74
34
 0
VERTEX
 8
MESH_348_F0
 10
0
 20
0
 30
0
 70
128
 71
29
 72
28
 73
33
 74
33
 0
VERTEX
 8
MESH_348_F0
 10
0
 20
0
 30
0
 70
128
 71
30
 72
29
 73
32
 74
32
 0
VERTEX
 8
MESH_348_F0
 10
0
 20
0
 30
0
 70
128
 71
30
 72
32
 73
31
 74
31
 0
VERTEX
 8
MESH_348_F0
 10
0
 20
0
 30
0
 70
128
 71
29
 72
33
 73
32
 74
32
 0
VERTEX
 8
MESH_348_F0
 10
0
 20
0
 30
0
 70
128
 71
28
 72
34
 73
33
 74
33
 0
VERTEX
 8
MESH_348_F0
 10
0
 20
0
 30
0
 70
128
 71
27
 72
35
 73
34
 74
34
 0
VERTEX
 8
MESH_348_F0
 10
0
 20
0
 30
0
 70
128
 71
26
 72
36
 73
35
 74
35
 0
VERTEX
 8
MESH_348_F0
 10
0
 20
0
 30
0
 70
128
 71
25
 72
37
 73
36
 74
36
 0
VERTEX
 8
MESH_348_F0
 10
0
 20
0
 30
0
 70
128
 71
24
 72
38
 73
37
 74
37
 0
VERTEX
 8
MESH_348_F0
 10
0
 20
0
 30
0
 70
128
 71
23
 72
39
 73
38
 74
38
 0
VERTEX
 8
MESH_348_F0
 10
0
 20
0
 30
0
 70
128
 71
22
 72
40
 73
39
 74
39
 0
VERTEX
 8
MESH_348_F0
 10
0
 20
0
 30
0
 70
128
 71
21
 72
41
 73
40
 74
40
 0
VERTEX
 8
MESH_348_F0
 10
0
 20
0
 30
0
 70
128
 71
20
 72
42
 73
41
 74
41
 0
VERTEX
 8
MESH_348_F0
 10
0
 20
0
 30
0
 70
128
 71
13
 72
50
 73
49
 74
49
 0
VERTEX
 8
MESH_348_F0
 10
0
 20
0
 30
0
 70
128
 71
12
 72
51
 73
50
 74
50
 0
VERTEX
 8
MESH_348_F0
 10
0
 20
0
 30
0
 70
128
 71
11
 72
52
 73
51
 74
51
 0
VERTEX
 8
MESH_348_F0
 10
0
 20
0
 30
0
 70
128
 71
10
 72
53
 73
52
 74
52
 0
VERTEX
 8
MESH_348_F0
 10
0
 20
0
 30
0
 70
128
 71
9
 72
54
 73
53
 74
53
 0
VERTEX
 8
MESH_348_F0
 10
0
 20
0
 30
0
 70
128
 71
8
 72
55
 73
54
 74
54
 0
VERTEX
 8
MESH_348_F0
 10
0
 20
0
 30
0
 70
128
 71
7
 72
56
 73
55
 74
55
 0
VERTEX
 8
MESH_348_F0
 10
0
 20
0
 30
0
 70
128
 71
6
 72
57
 73
56
 74
56
 0
VERTEX
 8
MESH_348_F0
 10
0
 20
0
 30
0
 70
128
 71
5
 72
58
 73
57
 74
57
 0
VERTEX
 8
MESH_348_F0
 10
0
 20
0
 30
0
 70
128
 71
4
 72
59
 73
58
 74
58
 0
VERTEX
 8
MESH_348_F0
 10
0
 20
0
 30
0
 70
128
 71
3
 72
60
 73
59
 74
59
 0
SEQEND
 0
POLYLINE
 8
MESH_347_F0
 66
1
 10
0.0
 20
0.0
 30
0.0
 70
64
 71
30
 72
28
 0
VERTEX
 8
MESH_347_F0
 10
-1.6808
 20
-412
 30
-7
 70
192
 0
VERTEX
 8
MESH_347_F0
 10
-1.5
 20
-415.0125
 30
-7
 70
192
 0
VERTEX
 8
MESH_347_F0
 10
-1.6836
 20
-418.0248
 30
-7
 70
192
 0
VERTEX
 8
MESH_347_F0
 10
-2.2288
 20
-420.9931
 30
-7
 70
192
 0
VERTEX
 8
MESH_347_F0
 10
-3.1277
 20
-423.874
 30
-7
 70
192
 0
VERTEX
 8
MESH_347_F0
 10
-4.3672
 20
-426.6256
 30
-7
 70
192
 0
VERTEX
 8
MESH_347_F0
 10
-5.9292
 20
-429.2079
 30
-7
 70
192
 0
VERTEX
 8
MESH_347_F0
 10
-7.7911
 20
-431.583
 30
-7
 70
192
 0
VERTEX
 8
MESH_347_F0
 10
-9.9256
 20
-433.7166
 30
-7
 70
192
 0
VERTEX
 8
MESH_347_F0
 10
-12.3016
 20
-435.5773
 30
-7
 70
192
 0
VERTEX
 8
MESH_347_F0
 10
-14.8845
 20
-437.1381
 30
-7
 70
192
 0
VERTEX
 8
MESH_347_F0
 10
-17.6367
 20
-438.3764
 30
-7
 70
192
 0
VERTEX
 8
MESH_347_F0
 10
-20.5181
 20
-439.274
 30
-7
 70
192
 0
VERTEX
 8
MESH_347_F0
 10
-23.4866
 20
-439.8178
 30
-7
 70
192
 0
VERTEX
 8
MESH_347_F0
 10
-26.499
 20
-440
 30
-7
 70
192
 0
VERTEX
 8
MESH_347_F0
 10
-26.499
 20
-440
 30
-237
 70
192
 0
VERTEX
 8
MESH_347_F0
 10
-23.4866
 20
-439.8178
 30
-237
 70
192
 0
VERTEX
 8
MESH_347_F0
 10
-20.5181
 20
-439.274
 30
-237
 70
192
 0
VERTEX
 8
MESH_347_F0
 10
-17.6367
 20
-438.3764
 30
-237
 70
192
 0
VERTEX
 8
MESH_347_F0
 10
-14.8845
 20
-437.1381
 30
-237
 70
192
 0
VERTEX
 8
MESH_347_F0
 10
-12.3016
 20
-435.5773
 30
-237
 70
192
 0
VERTEX
 8
MESH_347_F0
 10
-9.9256
 20
-433.7166
 30
-237
 70
192
 0
VERTEX
 8
MESH_347_F0
 10
-7.7911
 20
-431.583
 30
-237
 70
192
 0
VERTEX
 8
MESH_347_F0
 10
-5.9292
 20
-429.2079
 30
-237
 70
192
 0
VERTEX
 8
MESH_347_F0
 10
-4.3672
 20
-426.6256
 30
-237
 70
192
 0
VERTEX
 8
MESH_347_F0
 10
-3.1277
 20
-423.874
 30
-237
 70
192
 0
VERTEX
 8
MESH_347_F0
 10
-2.2288
 20
-420.9931
 30
-237
 70
192
 0
VERTEX
 8
MESH_347_F0
 10
-1.6836
 20
-418.0248
 30
-237
 70
192
 0
VERTEX
 8
MESH_347_F0
 10
-1.5
 20
-415.0125
 30
-237
 70
192
 0
VERTEX
 8
MESH_347_F0
 10
-1.6808
 20
-412
 30
-237
 70
192
 0
VERTEX
 8
MESH_347_F0
 10
0
 20
0
 30
0
 70
128
 71
29
 72
1
 73
30
 74
30
 0
VERTEX
 8
MESH_347_F0
 10
0
 20
0
 30
0
 70
128
 71
2
 72
1
 73
29
 74
29
 0
VERTEX
 8
MESH_347_F0
 10
0
 20
0
 30
0
 70
128
 71
3
 72
2
 73
28
 74
28
 0
VERTEX
 8
MESH_347_F0
 10
0
 20
0
 30
0
 70
128
 71
4
 72
3
 73
27
 74
27
 0
VERTEX
 8
MESH_347_F0
 10
0
 20
0
 30
0
 70
128
 71
5
 72
4
 73
26
 74
26
 0
VERTEX
 8
MESH_347_F0
 10
0
 20
0
 30
0
 70
128
 71
6
 72
5
 73
25
 74
25
 0
VERTEX
 8
MESH_347_F0
 10
0
 20
0
 30
0
 70
128
 71
7
 72
6
 73
24
 74
24
 0
VERTEX
 8
MESH_347_F0
 10
0
 20
0
 30
0
 70
128
 71
8
 72
7
 73
23
 74
23
 0
VERTEX
 8
MESH_347_F0
 10
0
 20
0
 30
0
 70
128
 71
9
 72
8
 73
22
 74
22
 0
VERTEX
 8
MESH_347_F0
 10
0
 20
0
 30
0
 70
128
 71
10
 72
9
 73
21
 74
21
 0
VERTEX
 8
MESH_347_F0
 10
0
 20
0
 30
0
 70
128
 71
11
 72
10
 73
20
 74
20
 0
VERTEX
 8
MESH_347_F0
 10
0
 20
0
 30
0
 70
128
 71
12
 72
11
 73
19
 74
19
 0
VERTEX
 8
MESH_347_F0
 10
0
 20
0
 30
0
 70
128
 71
13
 72
12
 73
18
 74
18
 0
VERTEX
 8
MESH_347_F0
 10
0
 20
0
 30
0
 70
128
 71
14
 72
13
 73
17
 74
17
 0
VERTEX
 8
MESH_347_F0
 10
0
 20
0
 30
0
 70
128
 71
15
 72
14
 73
16
 74
16
 0
VERTEX
 8
MESH_347_F0
 10
0
 20
0
 30
0
 70
128
 71
14
 72
17
 73
16
 74
16
 0
VERTEX
 8
MESH_347_F0
 10
0
 20
0
 30
0
 70
128
 71
13
 72
18
 73
17
 74
17
 0
VERTEX
 8
MESH_347_F0
 10
0
 20
0
 30
0
 70
128
 71
12
 72
19
 73
18
 74
18
 0
VERTEX
 8
MESH_347_F0
 10
0
 20
0
 30
0
 70
128
 71
11
 72
20
 73
19
 74
19
 0
VERTEX
 8
MESH_347_F0
 10
0
 20
0
 30
0
 70
128
 71
10
 72
21
 73
20
 74
20
 0
VERTEX
 8
MESH_347_F0
 10
0
 20
0
 30
0
 70
128
 71
9
 72
22
 73
21
 74
21
 0
VERTEX
 8
MESH_347_F0
 10
0
 20
0
 30
0
 70
128
 71
8
 72
23
 73
22
 74
22
 0
VERTEX
 8
MESH_347_F0
 10
0
 20
0
 30
0
 70
128
 71
7
 72
24
 73
23
 74
23
 0
VERTEX
 8
MESH_347_F0
 10
0
 20
0
 30
0
 70
128
 71
6
 72
25
 73
24
 74
24
 0
VERTEX
 8
MESH_347_F0
 10
0
 20
0
 30
0
 70
128
 71
5
 72
26
 73
25
 74
25
 0
VERTEX
 8
MESH_347_F0
 10
0
 20
0
 30
0
 70
128
 71
4
 72
27
 73
26
 74
26
 0
VERTEX
 8
MESH_347_F0
 10
0
 20
0
 30
0
 70
128
 71
3
 72
28
 73
27
 74
27
 0
VERTEX
 8
MESH_347_F0
 10
0
 20
0
 30
0
 70
128
 71
2
 72
29
 73
28
 74
28
 0
SEQEND
 0
POLYLINE
 8
MESH_346_F0
 66
1
 10
0.0
 20
0.0
 30
0.0
 70
64
 71
30
 72
28
 0
VERTEX
 8
MESH_346_F0
 10
-1.6808
 20
-412
 30
-237
 70
192
 0
VERTEX
 8
MESH_346_F0
 10
-1.5
 20
-415.0125
 30
-237
 70
192
 0
VERTEX
 8
MESH_346_F0
 10
-1.6836
 20
-418.0248
 30
-237
 70
192
 0
VERTEX
 8
MESH_346_F0
 10
-2.2288
 20
-420.9931
 30
-237
 70
192
 0
VERTEX
 8
MESH_346_F0
 10
-3.1277
 20
-423.874
 30
-237
 70
192
 0
VERTEX
 8
MESH_346_F0
 10
-4.3672
 20
-426.6256
 30
-237
 70
192
 0
VERTEX
 8
MESH_346_F0
 10
-5.9292
 20
-429.2079
 30
-237
 70
192
 0
VERTEX
 8
MESH_346_F0
 10
-7.7911
 20
-431.583
 30
-237
 70
192
 0
VERTEX
 8
MESH_346_F0
 10
-9.9256
 20
-433.7166
 30
-237
 70
192
 0
VERTEX
 8
MESH_346_F0
 10
-12.3016
 20
-435.5773
 30
-237
 70
192
 0
VERTEX
 8
MESH_346_F0
 10
-14.8845
 20
-437.1381
 30
-237
 70
192
 0
VERTEX
 8
MESH_346_F0
 10
-17.6367
 20
-438.3764
 30
-237
 70
192
 0
VERTEX
 8
MESH_346_F0
 10
-20.5181
 20
-439.274
 30
-237
 70
192
 0
VERTEX
 8
MESH_346_F0
 10
-23.4866
 20
-439.8178
 30
-237
 70
192
 0
VERTEX
 8
MESH_346_F0
 10
-26.499
 20
-440
 30
-237
 70
192
 0
VERTEX
 8
MESH_346_F0
 10
-673.501
 20
-440
 30
-237
 70
192
 0
VERTEX
 8
MESH_346_F0
 10
-676.5134
 20
-439.8178
 30
-237
 70
192
 0
VERTEX
 8
MESH_346_F0
 10
-679.4819
 20
-439.274
 30
-237
 70
192
 0
VERTEX
 8
MESH_346_F0
 10
-682.3633
 20
-438.3764
 30
-237
 70
192
 0
VERTEX
 8
MESH_346_F0
 10
-685.1155
 20
-437.1381
 30
-237
 70
192
 0
VERTEX
 8
MESH_346_F0
 10
-687.6984
 20
-435.5773
 30
-237
 70
192
 0
VERTEX
 8
MESH_346_F0
 10
-690.0745
 20
-433.7166
 30
-237
 70
192
 0
VERTEX
 8
MESH_346_F0
 10
-692.2089
 20
-431.583
 30
-237
 70
192
 0
VERTEX
 8
MESH_346_F0
 10
-694.0707
 20
-429.2079
 30
-237
 70
192
 0
VERTEX
 8
MESH_346_F0
 10
-695.6328
 20
-426.6256
 30
-237
 70
192
 0
VERTEX
 8
MESH_346_F0
 10
-696.8723
 20
-423.874
 30
-237
 70
192
 0
VERTEX
 8
MESH_346_F0
 10
-697.7712
 20
-420.9931
 30
-237
 70
192
 0
VERTEX
 8
MESH_346_F0
 10
-698.3164
 20
-418.0248
 30
-237
 70
192
 0
VERTEX
 8
MESH_346_F0
 10
-698.5
 20
-415.0125
 30
-237
 70
192
 0
VERTEX
 8
MESH_346_F0
 10
-698.3192
 20
-412
 30
-237
 70
192
 0
VERTEX
 8
MESH_346_F0
 10
0
 20
0
 30
0
 70
128
 71
30
 72
2
 73
1
 74
1
 0
VERTEX
 8
MESH_346_F0
 10
0
 20
0
 30
0
 70
128
 71
3
 72
2
 73
30
 74
30
 0
VERTEX
 8
MESH_346_F0
 10
0
 20
0
 30
0
 70
128
 71
28
 72
3
 73
29
 74
29
 0
VERTEX
 8
MESH_346_F0
 10
0
 20
0
 30
0
 70
128
 71
3
 72
30
 73
29
 74
29
 0
VERTEX
 8
MESH_346_F0
 10
0
 20
0
 30
0
 70
128
 71
27
 72
3
 73
28
 74
28
 0
VERTEX
 8
MESH_346_F0
 10
0
 20
0
 30
0
 70
128
 71
4
 72
3
 73
27
 74
27
 0
VERTEX
 8
MESH_346_F0
 10
0
 20
0
 30
0
 70
128
 71
25
 72
4
 73
26
 74
26
 0
VERTEX
 8
MESH_346_F0
 10
0
 20
0
 30
0
 70
128
 71
4
 72
27
 73
26
 74
26
 0
VERTEX
 8
MESH_346_F0
 10
0
 20
0
 30
0
 70
128
 71
24
 72
4
 73
25
 74
25
 0
VERTEX
 8
MESH_346_F0
 10
0
 20
0
 30
0
 70
128
 71
5
 72
4
 73
24
 74
24
 0
VERTEX
 8
MESH_346_F0
 10
0
 20
0
 30
0
 70
128
 71
22
 72
5
 73
23
 74
23
 0
VERTEX
 8
MESH_346_F0
 10
0
 20
0
 30
0
 70
128
 71
5
 72
24
 73
23
 74
23
 0
VERTEX
 8
MESH_346_F0
 10
0
 20
0
 30
0
 70
128
 71
22
 72
6
 73
5
 74
5
 0
VERTEX
 8
MESH_346_F0
 10
0
 20
0
 30
0
 70
128
 71
21
 72
6
 73
22
 74
22
 0
VERTEX
 8
MESH_346_F0
 10
0
 20
0
 30
0
 70
128
 71
20
 72
6
 73
21
 74
21
 0
VERTEX
 8
MESH_346_F0
 10
0
 20
0
 30
0
 70
128
 71
7
 72
6
 73
20
 74
20
 0
VERTEX
 8
MESH_346_F0
 10
0
 20
0
 30
0
 70
128
 71
16
 72
7
 73
19
 74
19
 0
VERTEX
 8
MESH_346_F0
 10
0
 20
0
 30
0
 70
128
 71
17
 72
16
 73
18
 74
18
 0
VERTEX
 8
MESH_346_F0
 10
0
 20
0
 30
0
 70
128
 71
16
 72
19
 73
18
 74
18
 0
VERTEX
 8
MESH_346_F0
 10
0
 20
0
 30
0
 70
128
 71
16
 72
8
 73
7
 74
7
 0
VERTEX
 8
MESH_346_F0
 10
0
 20
0
 30
0
 70
128
 71
9
 72
8
 73
16
 74
16
 0
VERTEX
 8
MESH_346_F0
 10
0
 20
0
 30
0
 70
128
 71
9
 72
16
 73
10
 74
10
 0
VERTEX
 8
MESH_346_F0
 10
0
 20
0
 30
0
 70
128
 71
16
 72
11
 73
10
 74
10
 0
VERTEX
 8
MESH_346_F0
 10
0
 20
0
 30
0
 70
128
 71
12
 72
11
 73
16
 74
16
 0
VERTEX
 8
MESH_346_F0
 10
0
 20
0
 30
0
 70
128
 71
13
 72
12
 73
15
 74
15
 0
VERTEX
 8
MESH_346_F0
 10
0
 20
0
 30
0
 70
128
 71
13
 72
15
 73
14
 74
14
 0
VERTEX
 8
MESH_346_F0
 10
0
 20
0
 30
0
 70
128
 71
12
 72
16
 73
15
 74
15
 0
VERTEX
 8
MESH_346_F0
 10
0
 20
0
 30
0
 70
128
 71
7
 72
20
 73
19
 74
19
 0
SEQEND
 0
POLYLINE
 8
MESH_345_F0
 66
1
 10
0.0
 20
0.0
 30
0.0
 70
64
 71
17
 72
15
 0
VERTEX
 8
MESH_345_F0
 10
2.3375
 20
-423.1499
 30
-244
 70
192
 0
VERTEX
 8
MESH_345_F0
 10
3.1842
 20
-425.6392
 30
-244
 70
192
 0
VERTEX
 8
MESH_345_F0
 10
4.3095
 20
-428.0156
 30
-244
 70
192
 0
VERTEX
 8
MESH_345_F0
 10
5.6987
 20
-430.248
 30
-244
 70
192
 0
VERTEX
 8
MESH_345_F0
 10
7.3335
 20
-432.3072
 30
-244
 70
192
 0
VERTEX
 8
MESH_345_F0
 10
9.1927
 20
-434.1665
 30
-244
 70
192
 0
VERTEX
 8
MESH_345_F0
 10
11.252
 20
-435.8014
 30
-244
 70
192
 0
VERTEX
 8
MESH_345_F0
 10
13.4844
 20
-437.1905
 30
-244
 70
192
 0
VERTEX
 8
MESH_345_F0
 10
15.8608
 20
-438.3158
 30
-244
 70
192
 0
VERTEX
 8
MESH_345_F0
 10
18.35
 20
-439.1625
 30
-244
 70
192
 0
VERTEX
 8
MESH_345_F0
 10
15.6308
 20
-438.0675
 30
-244
 70
192
 0
VERTEX
 8
MESH_345_F0
 10
13.0552
 20
-436.6677
 30
-244
 70
192
 0
VERTEX
 8
MESH_345_F0
 10
10.6573
 20
-434.9815
 30
-244
 70
192
 0
VERTEX
 8
MESH_345_F0
 10
8.4688
 20
-433.0312
 30
-244
 70
192
 0
VERTEX
 8
MESH_345_F0
 10
6.5185
 20
-430.8427
 30
-244
 70
192
 0
VERTEX
 8
MESH_345_F0
 10
4.8323
 20
-428.4448
 30
-244
 70
192
 0
VERTEX
 8
MESH_345_F0
 10
3.4325
 20
-425.8692
 30
-244
 70
192
 0
VERTEX
 8
MESH_345_F0
 10
0
 20
0
 30
0
 70
128
 71
17
 72
2
 73
1
 74
1
 0
VERTEX
 8
MESH_345_F0
 10
0
 20
0
 30
0
 70
128
 71
3
 72
2
 73
17
 74
17
 0
VERTEX
 8
MESH_345_F0
 10
0
 20
0
 30
0
 70
128
 71
4
 72
3
 73
16
 74
16
 0
VERTEX
 8
MESH_345_F0
 10
0
 20
0
 30
0
 70
128
 71
5
 72
4
 73
15
 74
15
 0
VERTEX
 8
MESH_345_F0
 10
0
 20
0
 30
0
 70
128
 71
6
 72
5
 73
14
 74
14
 0
VERTEX
 8
MESH_345_F0
 10
0
 20
0
 30
0
 70
128
 71
7
 72
6
 73
13
 74
13
 0
VERTEX
 8
MESH_345_F0
 10
0
 20
0
 30
0
 70
128
 71
8
 72
7
 73
12
 74
12
 0
VERTEX
 8
MESH_345_F0
 10
0
 20
0
 30
0
 70
128
 71
9
 72
8
 73
11
 74
11
 0
VERTEX
 8
MESH_345_F0
 10
0
 20
0
 30
0
 70
128
 71
9
 72
11
 73
10
 74
10
 0
VERTEX
 8
MESH_345_F0
 10
0
 20
0
 30
0
 70
128
 71
8
 72
12
 73
11
 74
11
 0
VERTEX
 8
MESH_345_F0
 10
0
 20
0
 30
0
 70
128
 71
7
 72
13
 73
12
 74
12
 0
VERTEX
 8
MESH_345_F0
 10
0
 20
0
 30
0
 70
128
 71
6
 72
14
 73
13
 74
13
 0
VERTEX
 8
MESH_345_F0
 10
0
 20
0
 30
0
 70
128
 71
5
 72
15
 73
14
 74
14
 0
VERTEX
 8
MESH_345_F0
 10
0
 20
0
 30
0
 70
128
 71
4
 72
16
 73
15
 74
15
 0
VERTEX
 8
MESH_345_F0
 10
0
 20
0
 30
0
 70
128
 71
3
 72
17
 73
16
 74
16
 0
SEQEND
 0
POLYLINE
 8
MESH_344_F0
 66
1
 10
0.0
 20
0.0
 30
0.0
 70
64
 71
31
 72
29
 0
VERTEX
 8
MESH_344_F0
 10
1.5
 20
-417
 30
-244
 70
192
 0
VERTEX
 8
MESH_344_F0
 10
1.5
 20
-417
 30
-474
 70
192
 0
VERTEX
 8
MESH_344_F0
 10
1.6485
 20
-419.6014
 30
-474
 70
192
 0
VERTEX
 8
MESH_344_F0
 10
2.0823
 20
-422.1427
 30
-474
 70
192
 0
VERTEX
 8
MESH_344_F0
 10
2.7987
 20
-424.6167
 30
-474
 70
192
 0
VERTEX
 8
MESH_344_F0
 10
3.7888
 20
-427.0022
 30
-474
 70
192
 0
VERTEX
 8
MESH_344_F0
 10
5.0351
 20
-429.2526
 30
-474
 70
192
 0
VERTEX
 8
MESH_344_F0
 10
6.5243
 20
-431.3482
 30
-474
 70
192
 0
VERTEX
 8
MESH_344_F0
 10
8.2369
 20
-433.2631
 30
-474
 70
192
 0
VERTEX
 8
MESH_344_F0
 10
10.1518
 20
-434.9757
 30
-474
 70
192
 0
VERTEX
 8
MESH_344_F0
 10
12.2474
 20
-436.4649
 30
-474
 70
192
 0
VERTEX
 8
MESH_344_F0
 10
14.4978
 20
-437.7112
 30
-474
 70
192
 0
VERTEX
 8
MESH_344_F0
 10
16.8833
 20
-438.7013
 30
-474
 70
192
 0
VERTEX
 8
MESH_344_F0
 10
19.3573
 20
-439.4177
 30
-474
 70
192
 0
VERTEX
 8
MESH_344_F0
 10
21.8986
 20
-439.8514
 30
-474
 70
192
 0
VERTEX
 8
MESH_344_F0
 10
24.5
 20
-440
 30
-474
 70
192
 0
VERTEX
 8
MESH_344_F0
 10
24.5
 20
-440
 30
-244
 70
192
 0
VERTEX
 8
MESH_344_F0
 10
22.4276
 20
-439.9064
 30
-244
 70
192
 0
VERTEX
 8
MESH_344_F0
 10
20.372
 20
-439.6265
 30
-244
 70
192
 0
VERTEX
 8
MESH_344_F0
 10
18.35
 20
-439.1625
 30
-244
 70
192
 0
VERTEX
 8
MESH_344_F0
 10
15.8608
 20
-438.3158
 30
-244
 70
192
 0
VERTEX
 8
MESH_344_F0
 10
13.4844
 20
-437.1905
 30
-244
 70
192
 0
VERTEX
 8
MESH_344_F0
 10
11.252
 20
-435.8014
 30
-244
 70
192
 0
VERTEX
 8
MESH_344_F0
 10
9.1927
 20
-434.1665
 30
-244
 70
192
 0
VERTEX
 8
MESH_344_F0
 10
7.3335
 20
-432.3072
 30
-244
 70
192
 0
VERTEX
 8
MESH_344_F0
 10
5.6987
 20
-430.248
 30
-244
 70
192
 0
VERTEX
 8
MESH_344_F0
 10
4.3095
 20
-428.0156
 30
-244
 70
192
 0
VERTEX
 8
MESH_344_F0
 10
3.1842
 20
-425.6392
 30
-244
 70
192
 0
VERTEX
 8
MESH_344_F0
 10
2.3375
 20
-423.1499
 30
-244
 70
192
 0
VERTEX
 8
MESH_344_F0
 10
1.8735
 20
-421.128
 30
-244
 70
192
 0
VERTEX
 8
MESH_344_F0
 10
1.5936
 20
-419.0724
 30
-244
 70
192
 0
VERTEX
 8
MESH_344_F0
 10
0
 20
0
 30
0
 70
128
 71
31
 72
2
 73
1
 74
1
 0
VERTEX
 8
MESH_344_F0
 10
0
 20
0
 30
0
 70
128
 71
3
 72
2
 73
31
 74
31
 0
VERTEX
 8
MESH_344_F0
 10
0
 20
0
 30
0
 70
128
 71
4
 72
3
 73
30
 74
30
 0
VERTEX
 8
MESH_344_F0
 10
0
 20
0
 30
0
 70
128
 71
5
 72
4
 73
29
 74
29
 0
VERTEX
 8
MESH_344_F0
 10
0
 20
0
 30
0
 70
128
 71
6
 72
5
 73
28
 74
28
 0
VERTEX
 8
MESH_344_F0
 10
0
 20
0
 30
0
 70
128
 71
7
 72
6
 73
27
 74
27
 0
VERTEX
 8
MESH_344_F0
 10
0
 20
0
 30
0
 70
128
 71
8
 72
7
 73
26
 74
26
 0
VERTEX
 8
MESH_344_F0
 10
0
 20
0
 30
0
 70
128
 71
9
 72
8
 73
25
 74
25
 0
VERTEX
 8
MESH_344_F0
 10
0
 20
0
 30
0
 70
128
 71
10
 72
9
 73
24
 74
24
 0
VERTEX
 8
MESH_344_F0
 10
0
 20
0
 30
0
 70
128
 71
11
 72
10
 73
23
 74
23
 0
VERTEX
 8
MESH_344_F0
 10
0
 20
0
 30
0
 70
128
 71
12
 72
11
 73
22
 74
22
 0
VERTEX
 8
MESH_344_F0
 10
0
 20
0
 30
0
 70
128
 71
13
 72
12
 73
21
 74
21
 0
VERTEX
 8
MESH_344_F0
 10
0
 20
0
 30
0
 70
128
 71
14
 72
13
 73
20
 74
20
 0
VERTEX
 8
MESH_344_F0
 10
0
 20
0
 30
0
 70
128
 71
15
 72
14
 73
19
 74
19
 0
VERTEX
 8
MESH_344_F0
 10
0
 20
0
 30
0
 70
128
 71
16
 72
15
 73
18
 74
18
 0
VERTEX
 8
MESH_344_F0
 10
0
 20
0
 30
0
 70
128
 71
16
 72
18
 73
17
 74
17
 0
VERTEX
 8
MESH_344_F0
 10
0
 20
0
 30
0
 70
128
 71
15
 72
19
 73
18
 74
18
 0
VERTEX
 8
MESH_344_F0
 10
0
 20
0
 30
0
 70
128
 71
14
 72
20
 73
19
 74
19
 0
VERTEX
 8
MESH_344_F0
 10
0
 20
0
 30
0
 70
128
 71
13
 72
21
 73
20
 74
20
 0
VERTEX
 8
MESH_344_F0
 10
0
 20
0
 30
0
 70
128
 71
12
 72
22
 73
21
 74
21
 0
VERTEX
 8
MESH_344_F0
 10
0
 20
0
 30
0
 70
128
 71
11
 72
23
 73
22
 74
22
 0
VERTEX
 8
MESH_344_F0
 10
0
 20
0
 30
0
 70
128
 71
10
 72
24
 73
23
 74
23
 0
VERTEX
 8
MESH_344_F0
 10
0
 20
0
 30
0
 70
128
 71
9
 72
25
 73
24
 74
24
 0
VERTEX
 8
MESH_344_F0
 10
0
 20
0
 30
0
 70
128
 71
8
 72
26
 73
25
 74
25
 0
VERTEX
 8
MESH_344_F0
 10
0
 20
0
 30
0
 70
128
 71
7
 72
27
 73
26
 74
26
 0
VERTEX
 8
MESH_344_F0
 10
0
 20
0
 30
0
 70
128
 71
6
 72
28
 73
27
 74
27
 0
VERTEX
 8
MESH_344_F0
 10
0
 20
0
 30
0
 70
128
 71
5
 72
29
 73
28
 74
28
 0
VERTEX
 8
MESH_344_F0
 10
0
 20
0
 30
0
 70
128
 71
4
 72
30
 73
29
 74
29
 0
VERTEX
 8
MESH_344_F0
 10
0
 20
0
 30
0
 70
128
 71
3
 72
31
 73
30
 74
30
 0
SEQEND
 0
POLYLINE
 8
MESH_343_F0
 66
1
 10
0.0
 20
0.0
 30
0.0
 70
64
 71
6
 72
4
 0
VERTEX
 8
MESH_343_F0
 10
24.5
 20
-440
 30
-244
 70
192
 0
VERTEX
 8
MESH_343_F0
 10
24.5
 20
-440
 30
-474
 70
192
 0
VERTEX
 8
MESH_343_F0
 10
675.5
 20
-440
 30
-474
 70
192
 0
VERTEX
 8
MESH_343_F0
 10
675.5
 20
-440
 30
-244
 70
192
 0
VERTEX
 8
MESH_343_F0
 10
458.5
 20
-440
 30
-244
 70
192
 0
VERTEX
 8
MESH_343_F0
 10
241.5
 20
-440
 30
-244
 70
192
 0
VERTEX
 8
MESH_343_F0
 10
0
 20
0
 30
0
 70
128
 71
6
 72
2
 73
1
 74
1
 0
VERTEX
 8
MESH_343_F0
 10
0
 20
0
 30
0
 70
128
 71
3
 72
2
 73
6
 74
6
 0
VERTEX
 8
MESH_343_F0
 10
0
 20
0
 30
0
 70
128
 71
4
 72
3
 73
5
 74
5
 0
VERTEX
 8
MESH_343_F0
 10
0
 20
0
 30
0
 70
128
 71
3
 72
6
 73
5
 74
5
 0
SEQEND
 0
POLYLINE
 8
MESH_342_F0
 66
1
 10
0.0
 20
0.0
 30
0.0
 70
64
 71
31
 72
29
 0
VERTEX
 8
MESH_342_F0
 10
675.5
 20
-440
 30
-244
 70
192
 0
VERTEX
 8
MESH_342_F0
 10
675.5
 20
-440
 30
-474
 70
192
 0
VERTEX
 8
MESH_342_F0
 10
678.1014
 20
-439.8514
 30
-474
 70
192
 0
VERTEX
 8
MESH_342_F0
 10
680.6427
 20
-439.4177
 30
-474
 70
192
 0
VERTEX
 8
MESH_342_F0
 10
683.1167
 20
-438.7013
 30
-474
 70
192
 0
VERTEX
 8
MESH_342_F0
 10
685.5022
 20
-437.7112
 30
-474
 70
192
 0
VERTEX
 8
MESH_342_F0
 10
687.7526
 20
-436.4649
 30
-474
 70
192
 0
VERTEX
 8
MESH_342_F0
 10
689.8481
 20
-434.9757
 30
-474
 70
192
 0
VERTEX
 8
MESH_342_F0
 10
691.7631
 20
-433.2631
 30
-474
 70
192
 0
VERTEX
 8
MESH_342_F0
 10
693.4757
 20
-431.3482
 30
-474
 70
192
 0
VERTEX
 8
MESH_342_F0
 10
694.9649
 20
-429.2526
 30
-474
 70
192
 0
VERTEX
 8
MESH_342_F0
 10
696.2112
 20
-427.0022
 30
-474
 70
192
 0
VERTEX
 8
MESH_342_F0
 10
697.2014
 20
-424.6167
 30
-474
 70
192
 0
VERTEX
 8
MESH_342_F0
 10
697.9177
 20
-422.1427
 30
-474
 70
192
 0
VERTEX
 8
MESH_342_F0
 10
698.3514
 20
-419.6014
 30
-474
 70
192
 0
VERTEX
 8
MESH_342_F0
 10
698.5
 20
-417
 30
-474
 70
192
 0
VERTEX
 8
MESH_342_F0
 10
698.5
 20
-417
 30
-244
 70
192
 0
VERTEX
 8
MESH_342_F0
 10
698.4064
 20
-419.0724
 30
-244
 70
192
 0
VERTEX
 8
MESH_342_F0
 10
698.1265
 20
-421.128
 30
-244
 70
192
 0
VERTEX
 8
MESH_342_F0
 10
697.6625
 20
-423.1499
 30
-244
 70
192
 0
VERTEX
 8
MESH_342_F0
 10
696.8158
 20
-425.6392
 30
-244
 70
192
 0
VERTEX
 8
MESH_342_F0
 10
695.6905
 20
-428.0156
 30
-244
 70
192
 0
VERTEX
 8
MESH_342_F0
 10
694.3013
 20
-430.248
 30
-244
 70
192
 0
VERTEX
 8
MESH_342_F0
 10
692.6665
 20
-432.3072
 30
-244
 70
192
 0
VERTEX
 8
MESH_342_F0
 10
690.8073
 20
-434.1665
 30
-244
 70
192
 0
VERTEX
 8
MESH_342_F0
 10
688.748
 20
-435.8014
 30
-244
 70
192
 0
VERTEX
 8
MESH_342_F0
 10
686.5156
 20
-437.1905
 30
-244
 70
192
 0
VERTEX
 8
MESH_342_F0
 10
684.1392
 20
-438.3158
 30
-244
 70
192
 0
VERTEX
 8
MESH_342_F0
 10
681.65
 20
-439.1625
 30
-244
 70
192
 0
VERTEX
 8
MESH_342_F0
 10
679.628
 20
-439.6265
 30
-244
 70
192
 0
VERTEX
 8
MESH_342_F0
 10
677.5724
 20
-439.9064
 30
-244
 70
192
 0
VERTEX
 8
MESH_342_F0
 10
0
 20
0
 30
0
 70
128
 71
31
 72
2
 73
1
 74
1
 0
VERTEX
 8
MESH_342_F0
 10
0
 20
0
 30
0
 70
128
 71
3
 72
2
 73
31
 74
31
 0
VERTEX
 8
MESH_342_F0
 10
0
 20
0
 30
0
 70
128
 71
4
 72
3
 73
30
 74
30
 0
VERTEX
 8
MESH_342_F0
 10
0
 20
0
 30
0
 70
128
 71
5
 72
4
 73
29
 74
29
 0
VERTEX
 8
MESH_342_F0
 10
0
 20
0
 30
0
 70
128
 71
6
 72
5
 73
28
 74
28
 0
VERTEX
 8
MESH_342_F0
 10
0
 20
0
 30
0
 70
128
 71
7
 72
6
 73
27
 74
27
 0
VERTEX
 8
MESH_342_F0
 10
0
 20
0
 30
0
 70
128
 71
8
 72
7
 73
26
 74
26
 0
VERTEX
 8
MESH_342_F0
 10
0
 20
0
 30
0
 70
128
 71
9
 72
8
 73
25
 74
25
 0
VERTEX
 8
MESH_342_F0
 10
0
 20
0
 30
0
 70
128
 71
10
 72
9
 73
24
 74
24
 0
VERTEX
 8
MESH_342_F0
 10
0
 20
0
 30
0
 70
128
 71
11
 72
10
 73
23
 74
23
 0
VERTEX
 8
MESH_342_F0
 10
0
 20
0
 30
0
 70
128
 71
12
 72
11
 73
22
 74
22
 0
VERTEX
 8
MESH_342_F0
 10
0
 20
0
 30
0
 70
128
 71
13
 72
12
 73
21
 74
21
 0
VERTEX
 8
MESH_342_F0
 10
0
 20
0
 30
0
 70
128
 71
14
 72
13
 73
20
 74
20
 0
VERTEX
 8
MESH_342_F0
 10
0
 20
0
 30
0
 70
128
 71
15
 72
14
 73
19
 74
19
 0
VERTEX
 8
MESH_342_F0
 10
0
 20
0
 30
0
 70
128
 71
16
 72
15
 73
18
 74
18
 0
VERTEX
 8
MESH_342_F0
 10
0
 20
0
 30
0
 70
128
 71
16
 72
18
 73
17
 74
17
 0
VERTEX
 8
MESH_342_F0
 10
0
 20
0
 30
0
 70
128
 71
15
 72
19
 73
18
 74
18
 0
VERTEX
 8
MESH_342_F0
 10
0
 20
0
 30
0
 70
128
 71
14
 72
20
 73
19
 74
19
 0
VERTEX
 8
MESH_342_F0
 10
0
 20
0
 30
0
 70
128
 71
13
 72
21
 73
20
 74
20
 0
VERTEX
 8
MESH_342_F0
 10
0
 20
0
 30
0
 70
128
 71
12
 72
22
 73
21
 74
21
 0
VERTEX
 8
MESH_342_F0
 10
0
 20
0
 30
0
 70
128
 71
11
 72
23
 73
22
 74
22
 0
VERTEX
 8
MESH_342_F0
 10
0
 20
0
 30
0
 70
128
 71
10
 72
24
 73
23
 74
23
 0
VERTEX
 8
MESH_342_F0
 10
0
 20
0
 30
0
 70
128
 71
9
 72
25
 73
24
 74
24
 0
VERTEX
 8
MESH_342_F0
 10
0
 20
0
 30
0
 70
128
 71
8
 72
26
 73
25
 74
25
 0
VERTEX
 8
MESH_342_F0
 10
0
 20
0
 30
0
 70
128
 71
7
 72
27
 73
26
 74
26
 0
VERTEX
 8
MESH_342_F0
 10
0
 20
0
 30
0
 70
128
 71
6
 72
28
 73
27
 74
27
 0
VERTEX
 8
MESH_342_F0
 10
0
 20
0
 30
0
 70
128
 71
5
 72
29
 73
28
 74
28
 0
VERTEX
 8
MESH_342_F0
 10
0
 20
0
 30
0
 70
128
 71
4
 72
30
 73
29
 74
29
 0
VERTEX
 8
MESH_342_F0
 10
0
 20
0
 30
0
 70
128
 71
3
 72
31
 73
30
 74
30
 0
SEQEND
 0
POLYLINE
 8
MESH_341_F0
 66
1
 10
0.0
 20
0.0
 30
0.0
 70
64
 71
17
 72
15
 0
VERTEX
 8
MESH_341_F0
 10
681.65
 20
-439.1625
 30
-244
 70
192
 0
VERTEX
 8
MESH_341_F0
 10
684.1392
 20
-438.3158
 30
-244
 70
192
 0
VERTEX
 8
MESH_341_F0
 10
686.5156
 20
-437.1905
 30
-244
 70
192
 0
VERTEX
 8
MESH_341_F0
 10
688.748
 20
-435.8014
 30
-244
 70
192
 0
VERTEX
 8
MESH_341_F0
 10
690.8073
 20
-434.1665
 30
-244
 70
192
 0
VERTEX
 8
MESH_341_F0
 10
692.6665
 20
-432.3072
 30
-244
 70
192
 0
VERTEX
 8
MESH_341_F0
 10
694.3013
 20
-430.248
 30
-244
 70
192
 0
VERTEX
 8
MESH_341_F0
 10
695.6905
 20
-428.0156
 30
-244
 70
192
 0
VERTEX
 8
MESH_341_F0
 10
696.8158
 20
-425.6392
 30
-244
 70
192
 0
VERTEX
 8
MESH_341_F0
 10
697.6625
 20
-423.1499
 30
-244
 70
192
 0
VERTEX
 8
MESH_341_F0
 10
696.5675
 20
-425.8692
 30
-244
 70
192
 0
VERTEX
 8
MESH_341_F0
 10
695.1677
 20
-428.4448
 30
-244
 70
192
 0
VERTEX
 8
MESH_341_F0
 10
693.4814
 20
-430.8427
 30
-244
 70
192
 0
VERTEX
 8
MESH_341_F0
 10
691.5313
 20
-433.0312
 30
-244
 70
192
 0
VERTEX
 8
MESH_341_F0
 10
689.3427
 20
-434.9815
 30
-244
 70
192
 0
VERTEX
 8
MESH_341_F0
 10
686.9448
 20
-436.6677
 30
-244
 70
192
 0
VERTEX
 8
MESH_341_F0
 10
684.3691
 20
-438.0675
 30
-244
 70
192
 0
VERTEX
 8
MESH_341_F0
 10
0
 20
0
 30
0
 70
128
 71
17
 72
2
 73
1
 74
1
 0
VERTEX
 8
MESH_341_F0
 10
0
 20
0
 30
0
 70
128
 71
3
 72
2
 73
17
 74
17
 0
VERTEX
 8
MESH_341_F0
 10
0
 20
0
 30
0
 70
128
 71
4
 72
3
 73
16
 74
16
 0
VERTEX
 8
MESH_341_F0
 10
0
 20
0
 30
0
 70
128
 71
5
 72
4
 73
15
 74
15
 0
VERTEX
 8
MESH_341_F0
 10
0
 20
0
 30
0
 70
128
 71
6
 72
5
 73
14
 74
14
 0
VERTEX
 8
MESH_341_F0
 10
0
 20
0
 30
0
 70
128
 71
7
 72
6
 73
13
 74
13
 0
VERTEX
 8
MESH_341_F0
 10
0
 20
0
 30
0
 70
128
 71
8
 72
7
 73
12
 74
12
 0
VERTEX
 8
MESH_341_F0
 10
0
 20
0
 30
0
 70
128
 71
9
 72
8
 73
11
 74
11
 0
VERTEX
 8
MESH_341_F0
 10
0
 20
0
 30
0
 70
128
 71
9
 72
11
 73
10
 74
10
 0
VERTEX
 8
MESH_341_F0
 10
0
 20
0
 30
0
 70
128
 71
8
 72
12
 73
11
 74
11
 0
VERTEX
 8
MESH_341_F0
 10
0
 20
0
 30
0
 70
128
 71
7
 72
13
 73
12
 74
12
 0
VERTEX
 8
MESH_341_F0
 10
0
 20
0
 30
0
 70
128
 71
6
 72
14
 73
13
 74
13
 0
VERTEX
 8
MESH_341_F0
 10
0
 20
0
 30
0
 70
128
 71
5
 72
15
 73
14
 74
14
 0
VERTEX
 8
MESH_341_F0
 10
0
 20
0
 30
0
 70
128
 71
4
 72
16
 73
15
 74
15
 0
VERTEX
 8
MESH_341_F0
 10
0
 20
0
 30
0
 70
128
 71
3
 72
17
 73
16
 74
16
 0
SEQEND
 0
POLYLINE
 8
MESH_340_F0
 66
1
 10
0.0
 20
0.0
 30
0.0
 70
64
 71
4
 72
2
 0
VERTEX
 8
MESH_340_F0
 10
673.5
 20
-440.5
 30
-244
 70
192
 0
VERTEX
 8
MESH_340_F0
 10
673.5
 20
-440.5
 30
-240
 70
192
 0
VERTEX
 8
MESH_340_F0
 10
26.5
 20
-440.5
 30
-240
 70
192
 0
VERTEX
 8
MESH_340_F0
 10
26.5
 20
-440.5
 30
-244
 70
192
 0
VERTEX
 8
MESH_340_F0
 10
0
 20
0
 30
0
 70
128
 71
1
 72
3
 73
2
 74
2
 0
VERTEX
 8
MESH_340_F0
 10
0
 20
0
 30
0
 70
128
 71
4
 72
3
 73
1
 74
1
 0
SEQEND
 0
POLYLINE
 8
MESH_339_F0
 66
1
 10
0.0
 20
0.0
 30
0.0
 70
64
 71
30
 72
28
 0
VERTEX
 8
MESH_339_F0
 10
697.6625
 20
-423.1499
 30
-244
 70
192
 0
VERTEX
 8
MESH_339_F0
 10
698.4026
 20
-420.4871
 30
-244
 70
192
 0
VERTEX
 8
MESH_339_F0
 10
698.8502
 20
-417.7598
 30
-244
 70
192
 0
VERTEX
 8
MESH_339_F0
 10
699
 20
-415
 30
-244
 70
192
 0
VERTEX
 8
MESH_339_F0
 10
699
 20
-415
 30
-240
 70
192
 0
VERTEX
 8
MESH_339_F0
 10
698.8353
 20
-417.8842
 30
-240
 70
192
 0
VERTEX
 8
MESH_339_F0
 10
698.3544
 20
-420.7017
 30
-240
 70
192
 0
VERTEX
 8
MESH_339_F0
 10
697.5602
 20
-423.4446
 30
-240
 70
192
 0
VERTEX
 8
MESH_339_F0
 10
696.4624
 20
-426.0894
 30
-240
 70
192
 0
VERTEX
 8
MESH_339_F0
 10
695.0807
 20
-428.5844
 30
-240
 70
192
 0
VERTEX
 8
MESH_339_F0
 10
693.4296
 20
-430.9077
 30
-240
 70
192
 0
VERTEX
 8
MESH_339_F0
 10
691.5308
 20
-433.0308
 30
-240
 70
192
 0
VERTEX
 8
MESH_339_F0
 10
689.4078
 20
-434.9296
 30
-240
 70
192
 0
VERTEX
 8
MESH_339_F0
 10
687.0845
 20
-436.5807
 30
-240
 70
192
 0
VERTEX
 8
MESH_339_F0
 10
684.5894
 20
-437.9624
 30
-240
 70
192
 0
VERTEX
 8
MESH_339_F0
 10
681.9446
 20
-439.0602
 30
-240
 70
192
 0
VERTEX
 8
MESH_339_F0
 10
679.2017
 20
-439.8543
 30
-240
 70
192
 0
VERTEX
 8
MESH_339_F0
 10
676.3842
 20
-440.3353
 30
-240
 70
192
 0
VERTEX
 8
MESH_339_F0
 10
673.5
 20
-440.5
 30
-240
 70
192
 0
VERTEX
 8
MESH_339_F0
 10
673.5
 20
-440.5
 30
-244
 70
192
 0
VERTEX
 8
MESH_339_F0
 10
676.2597
 20
-440.3502
 30
-244
 70
192
 0
VERTEX
 8
MESH_339_F0
 10
678.9871
 20
-439.9026
 30
-244
 70
192
 0
VERTEX
 8
MESH_339_F0
 10
681.65
 20
-439.1625
 30
-244
 70
192
 0
VERTEX
 8
MESH_339_F0
 10
684.3691
 20
-438.0675
 30
-244
 70
192
 0
VERTEX
 8
MESH_339_F0
 10
686.9448
 20
-436.6677
 30
-244
 70
192
 0
VERTEX
 8
MESH_339_F0
 10
689.3427
 20
-434.9815
 30
-244
 70
192
 0
VERTEX
 8
MESH_339_F0
 10
691.5313
 20
-433.0312
 30
-244
 70
192
 0
VERTEX
 8
MESH_339_F0
 10
693.4814
 20
-430.8427
 30
-244
 70
192
 0
VERTEX
 8
MESH_339_F0
 10
695.1677
 20
-428.4448
 30
-244
 70
192
 0
VERTEX
 8
MESH_339_F0
 10
696.5675
 20
-425.8692
 30
-244
 70
192
 0
VERTEX
 8
MESH_339_F0
 10
0
 20
0
 30
0
 70
128
 71
3
 72
5
 73
4
 74
4
 0
VERTEX
 8
MESH_339_F0
 10
0
 20
0
 30
0
 70
128
 71
6
 72
5
 73
3
 74
3
 0
VERTEX
 8
MESH_339_F0
 10
0
 20
0
 30
0
 70
128
 71
7
 72
6
 73
2
 74
2
 0
VERTEX
 8
MESH_339_F0
 10
0
 20
0
 30
0
 70
128
 71
8
 72
7
 73
1
 74
1
 0
VERTEX
 8
MESH_339_F0
 10
0
 20
0
 30
0
 70
128
 71
9
 72
8
 73
30
 74
30
 0
VERTEX
 8
MESH_339_F0
 10
0
 20
0
 30
0
 70
128
 71
10
 72
9
 73
29
 74
29
 0
VERTEX
 8
MESH_339_F0
 10
0
 20
0
 30
0
 70
128
 71
10
 72
29
 73
11
 74
11
 0
VERTEX
 8
MESH_339_F0
 10
0
 20
0
 30
0
 70
128
 71
29
 72
28
 73
11
 74
11
 0
VERTEX
 8
MESH_339_F0
 10
0
 20
0
 30
0
 70
128
 71
28
 72
12
 73
11
 74
11
 0
VERTEX
 8
MESH_339_F0
 10
0
 20
0
 30
0
 70
128
 71
27
 72
12
 73
28
 74
28
 0
VERTEX
 8
MESH_339_F0
 10
0
 20
0
 30
0
 70
128
 71
13
 72
12
 73
27
 74
27
 0
VERTEX
 8
MESH_339_F0
 10
0
 20
0
 30
0
 70
128
 71
14
 72
13
 73
26
 74
26
 0
VERTEX
 8
MESH_339_F0
 10
0
 20
0
 30
0
 70
128
 71
15
 72
14
 73
25
 74
25
 0
VERTEX
 8
MESH_339_F0
 10
0
 20
0
 30
0
 70
128
 71
16
 72
15
 73
24
 74
24
 0
VERTEX
 8
MESH_339_F0
 10
0
 20
0
 30
0
 70
128
 71
17
 72
16
 73
23
 74
23
 0
VERTEX
 8
MESH_339_F0
 10
0
 20
0
 30
0
 70
128
 71
18
 72
17
 73
22
 74
22
 0
VERTEX
 8
MESH_339_F0
 10
0
 20
0
 30
0
 70
128
 71
20
 72
18
 73
21
 74
21
 0
VERTEX
 8
MESH_339_F0
 10
0
 20
0
 30
0
 70
128
 71
18
 72
22
 73
21
 74
21
 0
VERTEX
 8
MESH_339_F0
 10
0
 20
0
 30
0
 70
128
 71
6
 72
3
 73
2
 74
2
 0
VERTEX
 8
MESH_339_F0
 10
0
 20
0
 30
0
 70
128
 71
20
 72
19
 73
18
 74
18
 0
VERTEX
 8
MESH_339_F0
 10
0
 20
0
 30
0
 70
128
 71
17
 72
23
 73
22
 74
22
 0
VERTEX
 8
MESH_339_F0
 10
0
 20
0
 30
0
 70
128
 71
16
 72
24
 73
23
 74
23
 0
VERTEX
 8
MESH_339_F0
 10
0
 20
0
 30
0
 70
128
 71
15
 72
25
 73
24
 74
24
 0
VERTEX
 8
MESH_339_F0
 10
0
 20
0
 30
0
 70
128
 71
14
 72
26
 73
25
 74
25
 0
VERTEX
 8
MESH_339_F0
 10
0
 20
0
 30
0
 70
128
 71
13
 72
27
 73
26
 74
26
 0
VERTEX
 8
MESH_339_F0
 10
0
 20
0
 30
0
 70
128
 71
9
 72
30
 73
29
 74
29
 0
VERTEX
 8
MESH_339_F0
 10
0
 20
0
 30
0
 70
128
 71
8
 72
1
 73
30
 74
30
 0
VERTEX
 8
MESH_339_F0
 10
0
 20
0
 30
0
 70
128
 71
1
 72
7
 73
2
 74
2
 0
SEQEND
 0
POLYLINE
 8
MESH_338_F0
 66
1
 10
0.0
 20
0.0
 30
0.0
 70
64
 71
16
 72
14
 0
VERTEX
 8
MESH_338_F0
 10
681.65
 20
-439.1625
 30
-244
 70
192
 0
VERTEX
 8
MESH_338_F0
 10
678.9871
 20
-439.9026
 30
-244
 70
192
 0
VERTEX
 8
MESH_338_F0
 10
676.2597
 20
-440.3502
 30
-244
 70
192
 0
VERTEX
 8
MESH_338_F0
 10
673.5
 20
-440.5
 30
-244
 70
192
 0
VERTEX
 8
MESH_338_F0
 10
26.5
 20
-440.5
 30
-244
 70
192
 0
VERTEX
 8
MESH_338_F0
 10
23.7402
 20
-440.3502
 30
-244
 70
192
 0
VERTEX
 8
MESH_338_F0
 10
21.0129
 20
-439.9026
 30
-244
 70
192
 0
VERTEX
 8
MESH_338_F0
 10
18.35
 20
-439.1625
 30
-244
 70
192
 0
VERTEX
 8
MESH_338_F0
 10
20.372
 20
-439.6265
 30
-244
 70
192
 0
VERTEX
 8
MESH_338_F0
 10
22.4276
 20
-439.9064
 30
-244
 70
192
 0
VERTEX
 8
MESH_338_F0
 10
24.5
 20
-440
 30
-244
 70
192
 0
VERTEX
 8
MESH_338_F0
 10
241.5
 20
-440
 30
-244
 70
192
 0
VERTEX
 8
MESH_338_F0
 10
458.5
 20
-440
 30
-244
 70
192
 0
VERTEX
 8
MESH_338_F0
 10
675.5
 20
-440
 30
-244
 70
192
 0
VERTEX
 8
MESH_338_F0
 10
677.5724
 20
-439.9064
 30
-244
 70
192
 0
VERTEX
 8
MESH_338_F0
 10
679.628
 20
-439.6265
 30
-244
 70
192
 0
VERTEX
 8
MESH_338_F0
 10
0
 20
0
 30
0
 70
128
 71
16
 72
2
 73
1
 74
1
 0
VERTEX
 8
MESH_338_F0
 10
0
 20
0
 30
0
 70
128
 71
15
 72
2
 73
16
 74
16
 0
VERTEX
 8
MESH_338_F0
 10
0
 20
0
 30
0
 70
128
 71
14
 72
2
 73
15
 74
15
 0
VERTEX
 8
MESH_338_F0
 10
0
 20
0
 30
0
 70
128
 71
3
 72
2
 73
14
 74
14
 0
VERTEX
 8
MESH_338_F0
 10
0
 20
0
 30
0
 70
128
 71
4
 72
3
 73
13
 74
13
 0
VERTEX
 8
MESH_338_F0
 10
0
 20
0
 30
0
 70
128
 71
4
 72
13
 73
5
 74
5
 0
VERTEX
 8
MESH_338_F0
 10
0
 20
0
 30
0
 70
128
 71
13
 72
12
 73
5
 74
5
 0
VERTEX
 8
MESH_338_F0
 10
0
 20
0
 30
0
 70
128
 71
12
 72
6
 73
5
 74
5
 0
VERTEX
 8
MESH_338_F0
 10
0
 20
0
 30
0
 70
128
 71
11
 72
6
 73
12
 74
12
 0
VERTEX
 8
MESH_338_F0
 10
0
 20
0
 30
0
 70
128
 71
7
 72
6
 73
11
 74
11
 0
VERTEX
 8
MESH_338_F0
 10
0
 20
0
 30
0
 70
128
 71
9
 72
7
 73
10
 74
10
 0
VERTEX
 8
MESH_338_F0
 10
0
 20
0
 30
0
 70
128
 71
7
 72
11
 73
10
 74
10
 0
VERTEX
 8
MESH_338_F0
 10
0
 20
0
 30
0
 70
128
 71
9
 72
8
 73
7
 74
7
 0
VERTEX
 8
MESH_338_F0
 10
0
 20
0
 30
0
 70
128
 71
3
 72
14
 73
13
 74
13
 0
SEQEND
 0
POLYLINE
 8
MESH_337_F0
 66
1
 10
0.0
 20
0.0
 30
0.0
 70
64
 71
30
 72
28
 0
VERTEX
 8
MESH_337_F0
 10
18.35
 20
-439.1625
 30
-244
 70
192
 0
VERTEX
 8
MESH_337_F0
 10
21.0129
 20
-439.9026
 30
-244
 70
192
 0
VERTEX
 8
MESH_337_F0
 10
23.7402
 20
-440.3502
 30
-244
 70
192
 0
VERTEX
 8
MESH_337_F0
 10
26.5
 20
-440.5
 30
-244
 70
192
 0
VERTEX
 8
MESH_337_F0
 10
26.5
 20
-440.5
 30
-240
 70
192
 0
VERTEX
 8
MESH_337_F0
 10
23.6158
 20
-440.3353
 30
-240
 70
192
 0
VERTEX
 8
MESH_337_F0
 10
20.7983
 20
-439.8543
 30
-240
 70
192
 0
VERTEX
 8
MESH_337_F0
 10
18.0554
 20
-439.0602
 30
-240
 70
192
 0
VERTEX
 8
MESH_337_F0
 10
15.4106
 20
-437.9624
 30
-240
 70
192
 0
VERTEX
 8
MESH_337_F0
 10
12.9155
 20
-436.5807
 30
-240
 70
192
 0
VERTEX
 8
MESH_337_F0
 10
10.5922
 20
-434.9296
 30
-240
 70
192
 0
VERTEX
 8
MESH_337_F0
 10
8.4692
 20
-433.0308
 30
-240
 70
192
 0
VERTEX
 8
MESH_337_F0
 10
6.5704
 20
-430.9077
 30
-240
 70
192
 0
VERTEX
 8
MESH_337_F0
 10
4.9193
 20
-428.5844
 30
-240
 70
192
 0
VERTEX
 8
MESH_337_F0
 10
3.5376
 20
-426.0894
 30
-240
 70
192
 0
VERTEX
 8
MESH_337_F0
 10
2.4398
 20
-423.4446
 30
-240
 70
192
 0
VERTEX
 8
MESH_337_F0
 10
1.6456
 20
-420.7017
 30
-240
 70
192
 0
VERTEX
 8
MESH_337_F0
 10
1.1647
 20
-417.8842
 30
-240
 70
192
 0
VERTEX
 8
MESH_337_F0
 10
1
 20
-415
 30
-240
 70
192
 0
VERTEX
 8
MESH_337_F0
 10
1
 20
-415
 30
-244
 70
192
 0
VERTEX
 8
MESH_337_F0
 10
1.1498
 20
-417.7598
 30
-244
 70
192
 0
VERTEX
 8
MESH_337_F0
 10
1.5974
 20
-420.4871
 30
-244
 70
192
 0
VERTEX
 8
MESH_337_F0
 10
2.3375
 20
-423.1499
 30
-244
 70
192
 0
VERTEX
 8
MESH_337_F0
 10
3.4325
 20
-425.8692
 30
-244
 70
192
 0
VERTEX
 8
MESH_337_F0
 10
4.8323
 20
-428.4448
 30
-244
 70
192
 0
VERTEX
 8
MESH_337_F0
 10
6.5185
 20
-430.8427
 30
-244
 70
192
 0
VERTEX
 8
MESH_337_F0
 10
8.4688
 20
-433.0312
 30
-244
 70
192
 0
VERTEX
 8
MESH_337_F0
 10
10.6573
 20
-434.9815
 30
-244
 70
192
 0
VERTEX
 8
MESH_337_F0
 10
13.0552
 20
-436.6677
 30
-244
 70
192
 0
VERTEX
 8
MESH_337_F0
 10
15.6308
 20
-438.0675
 30
-244
 70
192
 0
VERTEX
 8
MESH_337_F0
 10
0
 20
0
 30
0
 70
128
 71
3
 72
5
 73
4
 74
4
 0
VERTEX
 8
MESH_337_F0
 10
0
 20
0
 30
0
 70
128
 71
6
 72
5
 73
3
 74
3
 0
VERTEX
 8
MESH_337_F0
 10
0
 20
0
 30
0
 70
128
 71
7
 72
6
 73
2
 74
2
 0
VERTEX
 8
MESH_337_F0
 10
0
 20
0
 30
0
 70
128
 71
8
 72
7
 73
1
 74
1
 0
VERTEX
 8
MESH_337_F0
 10
0
 20
0
 30
0
 70
128
 71
9
 72
8
 73
30
 74
30
 0
VERTEX
 8
MESH_337_F0
 10
0
 20
0
 30
0
 70
128
 71
10
 72
9
 73
29
 74
29
 0
VERTEX
 8
MESH_337_F0
 10
0
 20
0
 30
0
 70
128
 71
10
 72
29
 73
11
 74
11
 0
VERTEX
 8
MESH_337_F0
 10
0
 20
0
 30
0
 70
128
 71
29
 72
28
 73
11
 74
11
 0
VERTEX
 8
MESH_337_F0
 10
0
 20
0
 30
0
 70
128
 71
28
 72
12
 73
11
 74
11
 0
VERTEX
 8
MESH_337_F0
 10
0
 20
0
 30
0
 70
128
 71
27
 72
12
 73
28
 74
28
 0
VERTEX
 8
MESH_337_F0
 10
0
 20
0
 30
0
 70
128
 71
13
 72
12
 73
27
 74
27
 0
VERTEX
 8
MESH_337_F0
 10
0
 20
0
 30
0
 70
128
 71
14
 72
13
 73
26
 74
26
 0
VERTEX
 8
MESH_337_F0
 10
0
 20
0
 30
0
 70
128
 71
15
 72
14
 73
25
 74
25
 0
VERTEX
 8
MESH_337_F0
 10
0
 20
0
 30
0
 70
128
 71
16
 72
15
 73
24
 74
24
 0
VERTEX
 8
MESH_337_F0
 10
0
 20
0
 30
0
 70
128
 71
17
 72
16
 73
23
 74
23
 0
VERTEX
 8
MESH_337_F0
 10
0
 20
0
 30
0
 70
128
 71
18
 72
17
 73
22
 74
22
 0
VERTEX
 8
MESH_337_F0
 10
0
 20
0
 30
0
 70
128
 71
20
 72
18
 73
21
 74
21
 0
VERTEX
 8
MESH_337_F0
 10
0
 20
0
 30
0
 70
128
 71
18
 72
22
 73
21
 74
21
 0
VERTEX
 8
MESH_337_F0
 10
0
 20
0
 30
0
 70
128
 71
6
 72
3
 73
2
 74
2
 0
VERTEX
 8
MESH_337_F0
 10
0
 20
0
 30
0
 70
128
 71
20
 72
19
 73
18
 74
18
 0
VERTEX
 8
MESH_337_F0
 10
0
 20
0
 30
0
 70
128
 71
17
 72
23
 73
22
 74
22
 0
VERTEX
 8
MESH_337_F0
 10
0
 20
0
 30
0
 70
128
 71
16
 72
24
 73
23
 74
23
 0
VERTEX
 8
MESH_337_F0
 10
0
 20
0
 30
0
 70
128
 71
15
 72
25
 73
24
 74
24
 0
VERTEX
 8
MESH_337_F0
 10
0
 20
0
 30
0
 70
128
 71
14
 72
26
 73
25
 74
25
 0
VERTEX
 8
MESH_337_F0
 10
0
 20
0
 30
0
 70
128
 71
13
 72
27
 73
26
 74
26
 0
VERTEX
 8
MESH_337_F0
 10
0
 20
0
 30
0
 70
128
 71
9
 72
30
 73
29
 74
29
 0
VERTEX
 8
MESH_337_F0
 10
0
 20
0
 30
0
 70
128
 71
8
 72
1
 73
30
 74
30
 0
VERTEX
 8
MESH_337_F0
 10
0
 20
0
 30
0
 70
128
 71
1
 72
7
 73
2
 74
2
 0
SEQEND
 0
POLYLINE
 8
MESH_336_F0
 66
1
 10
0.0
 20
0.0
 30
0.0
 70
64
 71
4
 72
2
 0
VERTEX
 8
MESH_336_F0
 10
1
 20
-412
 30
-244
 70
192
 0
VERTEX
 8
MESH_336_F0
 10
1
 20
-415
 30
-244
 70
192
 0
VERTEX
 8
MESH_336_F0
 10
1
 20
-415
 30
-240
 70
192
 0
VERTEX
 8
MESH_336_F0
 10
1
 20
-412
 30
-240
 70
192
 0
VERTEX
 8
MESH_336_F0
 10
0
 20
0
 30
0
 70
128
 71
4
 72
2
 73
1
 74
1
 0
VERTEX
 8
MESH_336_F0
 10
0
 20
0
 30
0
 70
128
 71
3
 72
2
 73
4
 74
4
 0
SEQEND
 0
POLYLINE
 8
MESH_335_F0
 66
1
 10
0.0
 20
0.0
 30
0.0
 70
64
 71
32
 72
30
 0
VERTEX
 8
MESH_335_F0
 10
1
 20
-412
 30
-240
 70
192
 0
VERTEX
 8
MESH_335_F0
 10
1
 20
-415
 30
-240
 70
192
 0
VERTEX
 8
MESH_335_F0
 10
1.1647
 20
-417.8842
 30
-240
 70
192
 0
VERTEX
 8
MESH_335_F0
 10
1.6456
 20
-420.7017
 30
-240
 70
192
 0
VERTEX
 8
MESH_335_F0
 10
2.4398
 20
-423.4446
 30
-240
 70
192
 0
VERTEX
 8
MESH_335_F0
 10
3.5376
 20
-426.0894
 30
-240
 70
192
 0
VERTEX
 8
MESH_335_F0
 10
4.9193
 20
-428.5844
 30
-240
 70
192
 0
VERTEX
 8
MESH_335_F0
 10
6.5704
 20
-430.9077
 30
-240
 70
192
 0
VERTEX
 8
MESH_335_F0
 10
8.4692
 20
-433.0308
 30
-240
 70
192
 0
VERTEX
 8
MESH_335_F0
 10
10.5922
 20
-434.9296
 30
-240
 70
192
 0
VERTEX
 8
MESH_335_F0
 10
12.9155
 20
-436.5807
 30
-240
 70
192
 0
VERTEX
 8
MESH_335_F0
 10
15.4106
 20
-437.9624
 30
-240
 70
192
 0
VERTEX
 8
MESH_335_F0
 10
18.0554
 20
-439.0602
 30
-240
 70
192
 0
VERTEX
 8
MESH_335_F0
 10
20.7983
 20
-439.8543
 30
-240
 70
192
 0
VERTEX
 8
MESH_335_F0
 10
23.6158
 20
-440.3353
 30
-240
 70
192
 0
VERTEX
 8
MESH_335_F0
 10
26.5
 20
-440.5
 30
-240
 70
192
 0
VERTEX
 8
MESH_335_F0
 10
673.5
 20
-440.5
 30
-240
 70
192
 0
VERTEX
 8
MESH_335_F0
 10
676.3842
 20
-440.3353
 30
-240
 70
192
 0
VERTEX
 8
MESH_335_F0
 10
679.2017
 20
-439.8543
 30
-240
 70
192
 0
VERTEX
 8
MESH_335_F0
 10
681.9446
 20
-439.0602
 30
-240
 70
192
 0
VERTEX
 8
MESH_335_F0
 10
684.5894
 20
-437.9624
 30
-240
 70
192
 0
VERTEX
 8
MESH_335_F0
 10
687.0845
 20
-436.5807
 30
-240
 70
192
 0
VERTEX
 8
MESH_335_F0
 10
689.4078
 20
-434.9296
 30
-240
 70
192
 0
VERTEX
 8
MESH_335_F0
 10
691.5308
 20
-433.0308
 30
-240
 70
192
 0
VERTEX
 8
MESH_335_F0
 10
693.4296
 20
-430.9077
 30
-240
 70
192
 0
VERTEX
 8
MESH_335_F0
 10
695.0807
 20
-428.5844
 30
-240
 70
192
 0
VERTEX
 8
MESH_335_F0
 10
696.4624
 20
-426.0894
 30
-240
 70
192
 0
VERTEX
 8
MESH_335_F0
 10
697.5602
 20
-423.4446
 30
-240
 70
192
 0
VERTEX
 8
MESH_335_F0
 10
698.3544
 20
-420.7017
 30
-240
 70
192
 0
VERTEX
 8
MESH_335_F0
 10
698.8353
 20
-417.8842
 30
-240
 70
192
 0
VERTEX
 8
MESH_335_F0
 10
699
 20
-415
 30
-240
 70
192
 0
VERTEX
 8
MESH_335_F0
 10
699
 20
-412
 30
-240
 70
192
 0
VERTEX
 8
MESH_335_F0
 10
0
 20
0
 30
0
 70
128
 71
1
 72
30
 73
2
 74
2
 0
VERTEX
 8
MESH_335_F0
 10
0
 20
0
 30
0
 70
128
 71
30
 72
3
 73
2
 74
2
 0
VERTEX
 8
MESH_335_F0
 10
0
 20
0
 30
0
 70
128
 71
4
 72
3
 73
30
 74
30
 0
VERTEX
 8
MESH_335_F0
 10
0
 20
0
 30
0
 70
128
 71
5
 72
4
 73
29
 74
29
 0
VERTEX
 8
MESH_335_F0
 10
0
 20
0
 30
0
 70
128
 71
5
 72
29
 73
6
 74
6
 0
VERTEX
 8
MESH_335_F0
 10
0
 20
0
 30
0
 70
128
 71
29
 72
7
 73
6
 74
6
 0
VERTEX
 8
MESH_335_F0
 10
0
 20
0
 30
0
 70
128
 71
28
 72
7
 73
29
 74
29
 0
VERTEX
 8
MESH_335_F0
 10
0
 20
0
 30
0
 70
128
 71
8
 72
7
 73
28
 74
28
 0
VERTEX
 8
MESH_335_F0
 10
0
 20
0
 30
0
 70
128
 71
8
 72
28
 73
9
 74
9
 0
VERTEX
 8
MESH_335_F0
 10
0
 20
0
 30
0
 70
128
 71
28
 72
27
 73
9
 74
9
 0
VERTEX
 8
MESH_335_F0
 10
0
 20
0
 30
0
 70
128
 71
27
 72
10
 73
9
 74
9
 0
VERTEX
 8
MESH_335_F0
 10
0
 20
0
 30
0
 70
128
 71
11
 72
10
 73
27
 74
27
 0
VERTEX
 8
MESH_335_F0
 10
0
 20
0
 30
0
 70
128
 71
12
 72
11
 73
26
 74
26
 0
VERTEX
 8
MESH_335_F0
 10
0
 20
0
 30
0
 70
128
 71
13
 72
12
 73
16
 74
16
 0
VERTEX
 8
MESH_335_F0
 10
0
 20
0
 30
0
 70
128
 71
13
 72
16
 73
14
 74
14
 0
VERTEX
 8
MESH_335_F0
 10
0
 20
0
 30
0
 70
128
 71
16
 72
15
 73
14
 74
14
 0
VERTEX
 8
MESH_335_F0
 10
0
 20
0
 30
0
 70
128
 71
17
 72
20
 73
19
 74
19
 0
VERTEX
 8
MESH_335_F0
 10
0
 20
0
 30
0
 70
128
 71
17
 72
19
 73
18
 74
18
 0
VERTEX
 8
MESH_335_F0
 10
0
 20
0
 30
0
 70
128
 71
17
 72
21
 73
20
 74
20
 0
VERTEX
 8
MESH_335_F0
 10
0
 20
0
 30
0
 70
128
 71
16
 72
21
 73
17
 74
17
 0
VERTEX
 8
MESH_335_F0
 10
0
 20
0
 30
0
 70
128
 71
22
 72
21
 73
16
 74
16
 0
VERTEX
 8
MESH_335_F0
 10
0
 20
0
 30
0
 70
128
 71
22
 72
16
 73
23
 74
23
 0
VERTEX
 8
MESH_335_F0
 10
0
 20
0
 30
0
 70
128
 71
16
 72
24
 73
23
 74
23
 0
VERTEX
 8
MESH_335_F0
 10
0
 20
0
 30
0
 70
128
 71
25
 72
24
 73
16
 74
16
 0
VERTEX
 8
MESH_335_F0
 10
0
 20
0
 30
0
 70
128
 71
25
 72
16
 73
26
 74
26
 0
VERTEX
 8
MESH_335_F0
 10
0
 20
0
 30
0
 70
128
 71
16
 72
12
 73
26
 74
26
 0
VERTEX
 8
MESH_335_F0
 10
0
 20
0
 30
0
 70
128
 71
11
 72
27
 73
26
 74
26
 0
VERTEX
 8
MESH_335_F0
 10
0
 20
0
 30
0
 70
128
 71
4
 72
30
 73
29
 74
29
 0
VERTEX
 8
MESH_335_F0
 10
0
 20
0
 30
0
 70
128
 71
1
 72
31
 73
30
 74
30
 0
VERTEX
 8
MESH_335_F0
 10
0
 20
0
 30
0
 70
128
 71
32
 72
31
 73
1
 74
1
 0
SEQEND
 0
POLYLINE
 8
MESH_334_F0
 66
1
 10
0.0
 20
0.0
 30
0.0
 70
64
 71
4
 72
2
 0
VERTEX
 8
MESH_334_F0
 10
699
 20
-412
 30
-240
 70
192
 0
VERTEX
 8
MESH_334_F0
 10
699
 20
-415
 30
-240
 70
192
 0
VERTEX
 8
MESH_334_F0
 10
699
 20
-415
 30
-244
 70
192
 0
VERTEX
 8
MESH_334_F0
 10
699
 20
-412
 30
-244
 70
192
 0
VERTEX
 8
MESH_334_F0
 10
0
 20
0
 30
0
 70
128
 71
4
 72
2
 73
1
 74
1
 0
VERTEX
 8
MESH_334_F0
 10
0
 20
0
 30
0
 70
128
 71
3
 72
2
 73
4
 74
4
 0
SEQEND
 0
POLYLINE
 8
MESH_333_F0
 66
1
 10
0.0
 20
0.0
 30
0.0
 70
64
 71
9
 72
7
 0
VERTEX
 8
MESH_333_F0
 10
699
 20
-412
 30
-244
 70
192
 0
VERTEX
 8
MESH_333_F0
 10
699
 20
-415
 30
-244
 70
192
 0
VERTEX
 8
MESH_333_F0
 10
698.8502
 20
-417.7598
 30
-244
 70
192
 0
VERTEX
 8
MESH_333_F0
 10
698.4026
 20
-420.4871
 30
-244
 70
192
 0
VERTEX
 8
MESH_333_F0
 10
697.6625
 20
-423.1499
 30
-244
 70
192
 0
VERTEX
 8
MESH_333_F0
 10
698.1265
 20
-421.128
 30
-244
 70
192
 0
VERTEX
 8
MESH_333_F0
 10
698.4064
 20
-419.0724
 30
-244
 70
192
 0
VERTEX
 8
MESH_333_F0
 10
698.5
 20
-417
 30
-244
 70
192
 0
VERTEX
 8
MESH_333_F0
 10
698.5
 20
-412
 30
-244
 70
192
 0
VERTEX
 8
MESH_333_F0
 10
0
 20
0
 30
0
 70
128
 71
9
 72
2
 73
1
 74
1
 0
VERTEX
 8
MESH_333_F0
 10
0
 20
0
 30
0
 70
128
 71
8
 72
2
 73
9
 74
9
 0
VERTEX
 8
MESH_333_F0
 10
0
 20
0
 30
0
 70
128
 71
3
 72
2
 73
8
 74
8
 0
VERTEX
 8
MESH_333_F0
 10
0
 20
0
 30
0
 70
128
 71
4
 72
3
 73
7
 74
7
 0
VERTEX
 8
MESH_333_F0
 10
0
 20
0
 30
0
 70
128
 71
5
 72
4
 73
6
 74
6
 0
VERTEX
 8
MESH_333_F0
 10
0
 20
0
 30
0
 70
128
 71
4
 72
7
 73
6
 74
6
 0
VERTEX
 8
MESH_333_F0
 10
0
 20
0
 30
0
 70
128
 71
3
 72
8
 73
7
 74
7
 0
SEQEND
 0
POLYLINE
 8
MESH_332_F0
 66
1
 10
0.0
 20
0.0
 30
0.0
 70
64
 71
4
 72
2
 0
VERTEX
 8
MESH_332_F0
 10
698.5
 20
-412
 30
-244
 70
192
 0
VERTEX
 8
MESH_332_F0
 10
698.5
 20
-417
 30
-244
 70
192
 0
VERTEX
 8
MESH_332_F0
 10
698.5
 20
-417
 30
-474
 70
192
 0
VERTEX
 8
MESH_332_F0
 10
698.5
 20
-412
 30
-474
 70
192
 0
VERTEX
 8
MESH_332_F0
 10
0
 20
0
 30
0
 70
128
 71
4
 72
2
 73
1
 74
1
 0
VERTEX
 8
MESH_332_F0
 10
0
 20
0
 30
0
 70
128
 71
3
 72
2
 73
4
 74
4
 0
SEQEND
 0
POLYLINE
 8
MESH_331_F0
 66
1
 10
0.0
 20
0.0
 30
0.0
 70
64
 71
4
 72
2
 0
VERTEX
 8
MESH_331_F0
 10
-700
 20
0
 30
-475
 70
192
 0
VERTEX
 8
MESH_331_F0
 10
-700
 20
-412
 30
-475
 70
192
 0
VERTEX
 8
MESH_331_F0
 10
-700
 20
-412
 30
0
 70
192
 0
VERTEX
 8
MESH_331_F0
 10
-700
 20
0
 30
0
 70
192
 0
VERTEX
 8
MESH_331_F0
 10
0
 20
0
 30
0
 70
128
 71
4
 72
2
 73
1
 74
1
 0
VERTEX
 8
MESH_331_F0
 10
0
 20
0
 30
0
 70
128
 71
3
 72
2
 73
4
 74
4
 0
SEQEND
 0
POLYLINE
 8
MESH_330_F0
 66
1
 10
0.0
 20
0.0
 30
0.0
 70
64
 71
4
 72
2
 0
VERTEX
 8
MESH_330_F0
 10
-682
 20
-70.5
 30
-456.5
 70
192
 0
VERTEX
 8
MESH_330_F0
 10
682
 20
-70.5
 30
-456.5
 70
192
 0
VERTEX
 8
MESH_330_F0
 10
682
 20
0
 30
-456.5
 70
192
 0
VERTEX
 8
MESH_330_F0
 10
-682
 20
0
 30
-456.5
 70
192
 0
VERTEX
 8
MESH_330_F0
 10
0
 20
0
 30
0
 70
128
 71
1
 72
3
 73
2
 74
2
 0
VERTEX
 8
MESH_330_F0
 10
0
 20
0
 30
0
 70
128
 71
4
 72
3
 73
1
 74
1
 0
SEQEND
 0
POLYLINE
 8
MESH_329_F0
 66
1
 10
0.0
 20
0.0
 30
0.0
 70
64
 71
4
 72
2
 0
VERTEX
 8
MESH_329_F0
 10
682
 20
-70.5
 30
-144.5
 70
192
 0
VERTEX
 8
MESH_329_F0
 10
582
 20
-70.5
 30
-144.5
 70
192
 0
VERTEX
 8
MESH_329_F0
 10
582
 20
-88.5
 30
-144.5
 70
192
 0
VERTEX
 8
MESH_329_F0
 10
682
 20
-88.5
 30
-144.5
 70
192
 0
VERTEX
 8
MESH_329_F0
 10
0
 20
0
 30
0
 70
128
 71
1
 72
3
 73
2
 74
2
 0
VERTEX
 8
MESH_329_F0
 10
0
 20
0
 30
0
 70
128
 71
4
 72
3
 73
1
 74
1
 0
SEQEND
 0
POLYLINE
 8
MESH_328_F0
 66
1
 10
0.0
 20
0.0
 30
0.0
 70
64
 71
4
 72
2
 0
VERTEX
 8
MESH_328_F0
 10
582
 20
-88.5
 30
-144.5
 70
192
 0
VERTEX
 8
MESH_328_F0
 10
582
 20
-70.5
 30
-144.5
 70
192
 0
VERTEX
 8
MESH_328_F0
 10
582
 20
-70.5
 30
-284.5
 70
192
 0
VERTEX
 8
MESH_328_F0
 10
582
 20
-88.5
 30
-284.5
 70
192
 0
VERTEX
 8
MESH_328_F0
 10
0
 20
0
 30
0
 70
128
 71
1
 72
3
 73
2
 74
2
 0
VERTEX
 8
MESH_328_F0
 10
0
 20
0
 30
0
 70
128
 71
4
 72
3
 73
1
 74
1
 0
SEQEND
 0
POLYLINE
 8
MESH_327_F0
 66
1
 10
0.0
 20
0.0
 30
0.0
 70
64
 71
31
 72
29
 0
VERTEX
 8
MESH_327_F0
 10
582
 20
-88.5
 30
-284.5
 70
192
 0
VERTEX
 8
MESH_327_F0
 10
582
 20
-70.5
 30
-284.5
 70
192
 0
VERTEX
 8
MESH_327_F0
 10
581.5103
 20
-70.5
 30
-294.3599
 70
192
 0
VERTEX
 8
MESH_327_F0
 10
580.0712
 20
-70.5
 30
-304.0455
 70
192
 0
VERTEX
 8
MESH_327_F0
 10
577.6837
 20
-70.5
 30
-313.5556
 70
192
 0
VERTEX
 8
MESH_327_F0
 10
574.3718
 20
-70.5
 30
-322.8071
 70
192
 0
VERTEX
 8
MESH_327_F0
 10
570.1752
 20
-70.5
 30
-331.6721
 70
192
 0
VERTEX
 8
MESH_327_F0
 10
565.1326
 20
-70.5
 30
-340.0782
 70
192
 0
VERTEX
 8
MESH_327_F0
 10
559.293
 20
-70.5
 30
-347.9478
 70
192
 0
VERTEX
 8
MESH_327_F0
 10
552.7111
 20
-70.5
 30
-355.21
 70
192
 0
VERTEX
 8
MESH_327_F0
 10
545.449
 20
-70.5
 30
-361.7921
 70
192
 0
VERTEX
 8
MESH_327_F0
 10
537.5795
 20
-70.5
 30
-367.6317
 70
192
 0
VERTEX
 8
MESH_327_F0
 10
529.1733
 20
-70.5
 30
-372.6746
 70
192
 0
VERTEX
 8
MESH_327_F0
 10
520.3082
 20
-70.5
 30
-376.8713
 70
192
 0
VERTEX
 8
MESH_327_F0
 10
511.0565
 20
-70.5
 30
-380.1834
 70
192
 0
VERTEX
 8
MESH_327_F0
 10
501.5462
 20
-70.5
 30
-382.5711
 70
192
 0
VERTEX
 8
MESH_327_F0
 10
491.8602
 20
-70.5
 30
-384.0103
 70
192
 0
VERTEX
 8
MESH_327_F0
 10
482
 20
-70.5
 30
-384.5
 70
192
 0
VERTEX
 8
MESH_327_F0
 10
482
 20
-88.5
 30
-384.5
 70
192
 0
VERTEX
 8
MESH_327_F0
 10
494.0536
 20
-88.5
 30
-383.7709
 70
192
 0
VERTEX
 8
MESH_327_F0
 10
505.9315
 20
-88.5
 30
-381.5942
 70
192
 0
VERTEX
 8
MESH_327_F0
 10
517.4604
 20
-88.5
 30
-378.0016
 70
192
 0
VERTEX
 8
MESH_327_F0
 10
528.4723
 20
-88.5
 30
-373.0456
 70
192
 0
VERTEX
 8
MESH_327_F0
 10
538.8065
 20
-88.5
 30
-366.7984
 70
192
 0
VERTEX
 8
MESH_327_F0
 10
548.3123
 20
-88.5
 30
-359.3511
 70
192
 0
VERTEX
 8
MESH_327_F0
 10
556.8511
 20
-88.5
 30
-350.8123
 70
192
 0
VERTEX
 8
MESH_327_F0
 10
564.2984
 20
-88.5
 30
-341.3065
 70
192
 0
VERTEX
 8
MESH_327_F0
 10
570.5456
 20
-88.5
 30
-330.9723
 70
192
 0
VERTEX
 8
MESH_327_F0
 10
575.5016
 20
-88.5
 30
-319.9605
 70
192
 0
VERTEX
 8
MESH_327_F0
 10
579.0942
 20
-88.5
 30
-308.4315
 70
192
 0
VERTEX
 8
MESH_327_F0
 10
581.2709
 20
-88.5
 30
-296.5537
 70
192
 0
VERTEX
 8
MESH_327_F0
 10
0
 20
0
 30
0
 70
128
 71
1
 72
3
 73
2
 74
2
 0
VERTEX
 8
MESH_327_F0
 10
0
 20
0
 30
0
 70
128
 71
31
 72
3
 73
1
 74
1
 0
VERTEX
 8
MESH_327_F0
 10
0
 20
0
 30
0
 70
128
 71
4
 72
3
 73
31
 74
31
 0
VERTEX
 8
MESH_327_F0
 10
0
 20
0
 30
0
 70
128
 71
5
 72
4
 73
30
 74
30
 0
VERTEX
 8
MESH_327_F0
 10
0
 20
0
 30
0
 70
128
 71
6
 72
5
 73
29
 74
29
 0
VERTEX
 8
MESH_327_F0
 10
0
 20
0
 30
0
 70
128
 71
7
 72
6
 73
28
 74
28
 0
VERTEX
 8
MESH_327_F0
 10
0
 20
0
 30
0
 70
128
 71
7
 72
28
 73
8
 74
8
 0
VERTEX
 8
MESH_327_F0
 10
0
 20
0
 30
0
 70
128
 71
28
 72
27
 73
8
 74
8
 0
VERTEX
 8
MESH_327_F0
 10
0
 20
0
 30
0
 70
128
 71
27
 72
9
 73
8
 74
8
 0
VERTEX
 8
MESH_327_F0
 10
0
 20
0
 30
0
 70
128
 71
26
 72
9
 73
27
 74
27
 0
VERTEX
 8
MESH_327_F0
 10
0
 20
0
 30
0
 70
128
 71
10
 72
9
 73
26
 74
26
 0
VERTEX
 8
MESH_327_F0
 10
0
 20
0
 30
0
 70
128
 71
11
 72
10
 73
25
 74
25
 0
VERTEX
 8
MESH_327_F0
 10
0
 20
0
 30
0
 70
128
 71
12
 72
11
 73
24
 74
24
 0
VERTEX
 8
MESH_327_F0
 10
0
 20
0
 30
0
 70
128
 71
12
 72
24
 73
13
 74
13
 0
VERTEX
 8
MESH_327_F0
 10
0
 20
0
 30
0
 70
128
 71
24
 72
23
 73
13
 74
13
 0
VERTEX
 8
MESH_327_F0
 10
0
 20
0
 30
0
 70
128
 71
23
 72
14
 73
13
 74
13
 0
VERTEX
 8
MESH_327_F0
 10
0
 20
0
 30
0
 70
128
 71
22
 72
14
 73
23
 74
23
 0
VERTEX
 8
MESH_327_F0
 10
0
 20
0
 30
0
 70
128
 71
15
 72
14
 73
22
 74
22
 0
VERTEX
 8
MESH_327_F0
 10
0
 20
0
 30
0
 70
128
 71
16
 72
15
 73
21
 74
21
 0
VERTEX
 8
MESH_327_F0
 10
0
 20
0
 30
0
 70
128
 71
17
 72
16
 73
20
 74
20
 0
VERTEX
 8
MESH_327_F0
 10
0
 20
0
 30
0
 70
128
 71
18
 72
17
 73
19
 74
19
 0
VERTEX
 8
MESH_327_F0
 10
0
 20
0
 30
0
 70
128
 71
17
 72
20
 73
19
 74
19
 0
VERTEX
 8
MESH_327_F0
 10
0
 20
0
 30
0
 70
128
 71
16
 72
21
 73
20
 74
20
 0
VERTEX
 8
MESH_327_F0
 10
0
 20
0
 30
0
 70
128
 71
15
 72
22
 73
21
 74
21
 0
VERTEX
 8
MESH_327_F0
 10
0
 20
0
 30
0
 70
128
 71
11
 72
25
 73
24
 74
24
 0
VERTEX
 8
MESH_327_F0
 10
0
 20
0
 30
0
 70
128
 71
10
 72
26
 73
25
 74
25
 0
VERTEX
 8
MESH_327_F0
 10
0
 20
0
 30
0
 70
128
 71
6
 72
29
 73
28
 74
28
 0
VERTEX
 8
MESH_327_F0
 10
0
 20
0
 30
0
 70
128
 71
5
 72
30
 73
29
 74
29
 0
VERTEX
 8
MESH_327_F0
 10
0
 20
0
 30
0
 70
128
 71
4
 72
31
 73
30
 74
30
 0
SEQEND
 0
POLYLINE
 8
MESH_326_F0
 66
1
 10
0.0
 20
0.0
 30
0.0
 70
64
 71
4
 72
2
 0
VERTEX
 8
MESH_326_F0
 10
482
 20
-88.5
 30
-384.5
 70
192
 0
VERTEX
 8
MESH_326_F0
 10
482
 20
-70.5
 30
-384.5
 70
192
 0
VERTEX
 8
MESH_326_F0
 10
-482
 20
-70.5
 30
-384.5
 70
192
 0
VERTEX
 8
MESH_326_F0
 10
-482
 20
-88.5
 30
-384.5
 70
192
 0
VERTEX
 8
MESH_326_F0
 10
0
 20
0
 30
0
 70
128
 71
1
 72
3
 73
2
 74
2
 0
VERTEX
 8
MESH_326_F0
 10
0
 20
0
 30
0
 70
128
 71
4
 72
3
 73
1
 74
1
 0
SEQEND
 0
POLYLINE
 8
MESH_325_F0
 66
1
 10
0.0
 20
0.0
 30
0.0
 70
64
 71
31
 72
29
 0
VERTEX
 8
MESH_325_F0
 10
-482
 20
-88.5
 30
-384.5
 70
192
 0
VERTEX
 8
MESH_325_F0
 10
-482
 20
-70.5
 30
-384.5
 70
192
 0
VERTEX
 8
MESH_325_F0
 10
-491.8598
 20
-70.5
 30
-384.0103
 70
192
 0
VERTEX
 8
MESH_325_F0
 10
-501.5455
 20
-70.5
 30
-382.5712
 70
192
 0
VERTEX
 8
MESH_325_F0
 10
-511.0556
 20
-70.5
 30
-380.1837
 70
192
 0
VERTEX
 8
MESH_325_F0
 10
-520.3071
 20
-70.5
 30
-376.8718
 70
192
 0
VERTEX
 8
MESH_325_F0
 10
-529.1721
 20
-70.5
 30
-372.6752
 70
192
 0
VERTEX
 8
MESH_325_F0
 10
-537.5782
 20
-70.5
 30
-367.6326
 70
192
 0
VERTEX
 8
MESH_325_F0
 10
-545.4478
 20
-70.5
 30
-361.7931
 70
192
 0
VERTEX
 8
MESH_325_F0
 10
-552.71
 20
-70.5
 30
-355.2112
 70
192
 0
VERTEX
 8
MESH_325_F0
 10
-559.2921
 20
-70.5
 30
-347.949
 70
192
 0
VERTEX
 8
MESH_325_F0
 10
-565.1317
 20
-70.5
 30
-340.0795
 70
192
 0
VERTEX
 8
MESH_325_F0
 10
-570.1746
 20
-70.5
 30
-331.6733
 70
192
 0
VERTEX
 8
MESH_325_F0
 10
-574.3713
 20
-70.5
 30
-322.8083
 70
192
 0
VERTEX
 8
MESH_325_F0
 10
-577.6834
 20
-70.5
 30
-313.5565
 70
192
 0
VERTEX
 8
MESH_325_F0
 10
-580.0711
 20
-70.5
 30
-304.0462
 70
192
 0
VERTEX
 8
MESH_325_F0
 10
-581.5103
 20
-70.5
 30
-294.3602
 70
192
 0
VERTEX
 8
MESH_325_F0
 10
-582
 20
-70.5
 30
-284.5
 70
192
 0
VERTEX
 8
MESH_325_F0
 10
-582
 20
-88.5
 30
-284.5
 70
192
 0
VERTEX
 8
MESH_325_F0
 10
-581.2709
 20
-88.5
 30
-296.5537
 70
192
 0
VERTEX
 8
MESH_325_F0
 10
-579.0942
 20
-88.5
 30
-308.4315
 70
192
 0
VERTEX
 8
MESH_325_F0
 10
-575.5016
 20
-88.5
 30
-319.9605
 70
192
 0
VERTEX
 8
MESH_325_F0
 10
-570.5456
 20
-88.5
 30
-330.9723
 70
192
 0
VERTEX
 8
MESH_325_F0
 10
-564.2984
 20
-88.5
 30
-341.3065
 70
192
 0
VERTEX
 8
MESH_325_F0
 10
-556.8511
 20
-88.5
 30
-350.8123
 70
192
 0
VERTEX
 8
MESH_325_F0
 10
-548.3123
 20
-88.5
 30
-359.3511
 70
192
 0
VERTEX
 8
MESH_325_F0
 10
-538.8065
 20
-88.5
 30
-366.7984
 70
192
 0
VERTEX
 8
MESH_325_F0
 10
-528.4723
 20
-88.5
 30
-373.0456
 70
192
 0
VERTEX
 8
MESH_325_F0
 10
-517.4604
 20
-88.5
 30
-378.0016
 70
192
 0
VERTEX
 8
MESH_325_F0
 10
-505.9315
 20
-88.5
 30
-381.5942
 70
192
 0
VERTEX
 8
MESH_325_F0
 10
-494.0536
 20
-88.5
 30
-383.7709
 70
192
 0
VERTEX
 8
MESH_325_F0
 10
0
 20
0
 30
0
 70
128
 71
1
 72
3
 73
2
 74
2
 0
VERTEX
 8
MESH_325_F0
 10
0
 20
0
 30
0
 70
128
 71
31
 72
3
 73
1
 74
1
 0
VERTEX
 8
MESH_325_F0
 10
0
 20
0
 30
0
 70
128
 71
4
 72
3
 73
31
 74
31
 0
VERTEX
 8
MESH_325_F0
 10
0
 20
0
 30
0
 70
128
 71
5
 72
4
 73
30
 74
30
 0
VERTEX
 8
MESH_325_F0
 10
0
 20
0
 30
0
 70
128
 71
6
 72
5
 73
29
 74
29
 0
VERTEX
 8
MESH_325_F0
 10
0
 20
0
 30
0
 70
128
 71
7
 72
6
 73
28
 74
28
 0
VERTEX
 8
MESH_325_F0
 10
0
 20
0
 30
0
 70
128
 71
7
 72
28
 73
8
 74
8
 0
VERTEX
 8
MESH_325_F0
 10
0
 20
0
 30
0
 70
128
 71
28
 72
27
 73
8
 74
8
 0
VERTEX
 8
MESH_325_F0
 10
0
 20
0
 30
0
 70
128
 71
27
 72
9
 73
8
 74
8
 0
VERTEX
 8
MESH_325_F0
 10
0
 20
0
 30
0
 70
128
 71
26
 72
9
 73
27
 74
27
 0
VERTEX
 8
MESH_325_F0
 10
0
 20
0
 30
0
 70
128
 71
10
 72
9
 73
26
 74
26
 0
VERTEX
 8
MESH_325_F0
 10
0
 20
0
 30
0
 70
128
 71
11
 72
10
 73
25
 74
25
 0
VERTEX
 8
MESH_325_F0
 10
0
 20
0
 30
0
 70
128
 71
12
 72
11
 73
24
 74
24
 0
VERTEX
 8
MESH_325_F0
 10
0
 20
0
 30
0
 70
128
 71
12
 72
24
 73
13
 74
13
 0
VERTEX
 8
MESH_325_F0
 10
0
 20
0
 30
0
 70
128
 71
24
 72
23
 73
13
 74
13
 0
VERTEX
 8
MESH_325_F0
 10
0
 20
0
 30
0
 70
128
 71
23
 72
14
 73
13
 74
13
 0
VERTEX
 8
MESH_325_F0
 10
0
 20
0
 30
0
 70
128
 71
22
 72
14
 73
23
 74
23
 0
VERTEX
 8
MESH_325_F0
 10
0
 20
0
 30
0
 70
128
 71
15
 72
14
 73
22
 74
22
 0
VERTEX
 8
MESH_325_F0
 10
0
 20
0
 30
0
 70
128
 71
16
 72
15
 73
21
 74
21
 0
VERTEX
 8
MESH_325_F0
 10
0
 20
0
 30
0
 70
128
 71
17
 72
16
 73
20
 74
20
 0
VERTEX
 8
MESH_325_F0
 10
0
 20
0
 30
0
 70
128
 71
18
 72
17
 73
19
 74
19
 0
VERTEX
 8
MESH_325_F0
 10
0
 20
0
 30
0
 70
128
 71
17
 72
20
 73
19
 74
19
 0
VERTEX
 8
MESH_325_F0
 10
0
 20
0
 30
0
 70
128
 71
16
 72
21
 73
20
 74
20
 0
VERTEX
 8
MESH_325_F0
 10
0
 20
0
 30
0
 70
128
 71
15
 72
22
 73
21
 74
21
 0
VERTEX
 8
MESH_325_F0
 10
0
 20
0
 30
0
 70
128
 71
11
 72
25
 73
24
 74
24
 0
VERTEX
 8
MESH_325_F0
 10
0
 20
0
 30
0
 70
128
 71
10
 72
26
 73
25
 74
25
 0
VERTEX
 8
MESH_325_F0
 10
0
 20
0
 30
0
 70
128
 71
6
 72
29
 73
28
 74
28
 0
VERTEX
 8
MESH_325_F0
 10
0
 20
0
 30
0
 70
128
 71
5
 72
30
 73
29
 74
29
 0
VERTEX
 8
MESH_325_F0
 10
0
 20
0
 30
0
 70
128
 71
4
 72
31
 73
30
 74
30
 0
SEQEND
 0
POLYLINE
 8
MESH_324_F0
 66
1
 10
0.0
 20
0.0
 30
0.0
 70
64
 71
4
 72
2
 0
VERTEX
 8
MESH_324_F0
 10
-582
 20
-88.5
 30
-284.5
 70
192
 0
VERTEX
 8
MESH_324_F0
 10
-582
 20
-70.5
 30
-284.5
 70
192
 0
VERTEX
 8
MESH_324_F0
 10
-582
 20
-70.5
 30
-144.5
 70
192
 0
VERTEX
 8
MESH_324_F0
 10
-582
 20
-88.5
 30
-144.5
 70
192
 0
VERTEX
 8
MESH_324_F0
 10
0
 20
0
 30
0
 70
128
 71
4
 72
2
 73
1
 74
1
 0
VERTEX
 8
MESH_324_F0
 10
0
 20
0
 30
0
 70
128
 71
3
 72
2
 73
4
 74
4
 0
SEQEND
 0
POLYLINE
 8
MESH_323_F0
 66
1
 10
0.0
 20
0.0
 30
0.0
 70
64
 71
4
 72
2
 0
VERTEX
 8
MESH_323_F0
 10
-682
 20
-88.5
 30
-144.5
 70
192
 0
VERTEX
 8
MESH_323_F0
 10
-582
 20
-88.5
 30
-144.5
 70
192
 0
VERTEX
 8
MESH_323_F0
 10
-582
 20
-70.5
 30
-144.5
 70
192
 0
VERTEX
 8
MESH_323_F0
 10
-682
 20
-70.5
 30
-144.5
 70
192
 0
VERTEX
 8
MESH_323_F0
 10
0
 20
0
 30
0
 70
128
 71
1
 72
3
 73
2
 74
2
 0
VERTEX
 8
MESH_323_F0
 10
0
 20
0
 30
0
 70
128
 71
4
 72
3
 73
1
 74
1
 0
SEQEND
 0
POLYLINE
 8
MESH_322_F0
 66
1
 10
0.0
 20
0.0
 30
0.0
 70
64
 71
40
 72
38
 0
VERTEX
 8
MESH_322_F0
 10
-682
 20
-70.5
 30
-144.5
 70
192
 0
VERTEX
 8
MESH_322_F0
 10
-582
 20
-70.5
 30
-144.5
 70
192
 0
VERTEX
 8
MESH_322_F0
 10
-582
 20
-70.5
 30
-284.5
 70
192
 0
VERTEX
 8
MESH_322_F0
 10
-581.5103
 20
-70.5
 30
-294.3602
 70
192
 0
VERTEX
 8
MESH_322_F0
 10
-580.0711
 20
-70.5
 30
-304.0462
 70
192
 0
VERTEX
 8
MESH_322_F0
 10
-577.6834
 20
-70.5
 30
-313.5565
 70
192
 0
VERTEX
 8
MESH_322_F0
 10
-574.3713
 20
-70.5
 30
-322.8083
 70
192
 0
VERTEX
 8
MESH_322_F0
 10
-570.1746
 20
-70.5
 30
-331.6733
 70
192
 0
VERTEX
 8
MESH_322_F0
 10
-565.1317
 20
-70.5
 30
-340.0795
 70
192
 0
VERTEX
 8
MESH_322_F0
 10
-559.2921
 20
-70.5
 30
-347.949
 70
192
 0
VERTEX
 8
MESH_322_F0
 10
-552.71
 20
-70.5
 30
-355.2112
 70
192
 0
VERTEX
 8
MESH_322_F0
 10
-545.4478
 20
-70.5
 30
-361.7931
 70
192
 0
VERTEX
 8
MESH_322_F0
 10
-537.5782
 20
-70.5
 30
-367.6326
 70
192
 0
VERTEX
 8
MESH_322_F0
 10
-529.1721
 20
-70.5
 30
-372.6752
 70
192
 0
VERTEX
 8
MESH_322_F0
 10
-520.3071
 20
-70.5
 30
-376.8718
 70
192
 0
VERTEX
 8
MESH_322_F0
 10
-511.0556
 20
-70.5
 30
-380.1837
 70
192
 0
VERTEX
 8
MESH_322_F0
 10
-501.5455
 20
-70.5
 30
-382.5712
 70
192
 0
VERTEX
 8
MESH_322_F0
 10
-491.8598
 20
-70.5
 30
-384.0103
 70
192
 0
VERTEX
 8
MESH_322_F0
 10
-482
 20
-70.5
 30
-384.5
 70
192
 0
VERTEX
 8
MESH_322_F0
 10
482
 20
-70.5
 30
-384.5
 70
192
 0
VERTEX
 8
MESH_322_F0
 10
491.8602
 20
-70.5
 30
-384.0103
 70
192
 0
VERTEX
 8
MESH_322_F0
 10
501.5462
 20
-70.5
 30
-382.5711
 70
192
 0
VERTEX
 8
MESH_322_F0
 10
511.0565
 20
-70.5
 30
-380.1834
 70
192
 0
VERTEX
 8
MESH_322_F0
 10
520.3082
 20
-70.5
 30
-376.8713
 70
192
 0
VERTEX
 8
MESH_322_F0
 10
529.1733
 20
-70.5
 30
-372.6746
 70
192
 0
VERTEX
 8
MESH_322_F0
 10
537.5795
 20
-70.5
 30
-367.6317
 70
192
 0
VERTEX
 8
MESH_322_F0
 10
545.449
 20
-70.5
 30
-361.7921
 70
192
 0
VERTEX
 8
MESH_322_F0
 10
552.7111
 20
-70.5
 30
-355.21
 70
192
 0
VERTEX
 8
MESH_322_F0
 10
559.293
 20
-70.5
 30
-347.9478
 70
192
 0
VERTEX
 8
MESH_322_F0
 10
565.1326
 20
-70.5
 30
-340.0782
 70
192
 0
VERTEX
 8
MESH_322_F0
 10
570.1752
 20
-70.5
 30
-331.6721
 70
192
 0
VERTEX
 8
MESH_322_F0
 10
574.3718
 20
-70.5
 30
-322.8071
 70
192
 0
VERTEX
 8
MESH_322_F0
 10
577.6837
 20
-70.5
 30
-313.5556
 70
192
 0
VERTEX
 8
MESH_322_F0
 10
580.0712
 20
-70.5
 30
-304.0455
 70
192
 0
VERTEX
 8
MESH_322_F0
 10
581.5103
 20
-70.5
 30
-294.3599
 70
192
 0
VERTEX
 8
MESH_322_F0
 10
582
 20
-70.5
 30
-284.5
 70
192
 0
VERTEX
 8
MESH_322_F0
 10
582
 20
-70.5
 30
-144.5
 70
192
 0
VERTEX
 8
MESH_322_F0
 10
682
 20
-70.5
 30
-144.5
 70
192
 0
VERTEX
 8
MESH_322_F0
 10
682
 20
-70.5
 30
-456.5
 70
192
 0
VERTEX
 8
MESH_322_F0
 10
-682
 20
-70.5
 30
-456.5
 70
192
 0
VERTEX
 8
MESH_322_F0
 10
0
 20
0
 30
0
 70
128
 71
1
 72
3
 73
2
 74
2
 0
VERTEX
 8
MESH_322_F0
 10
0
 20
0
 30
0
 70
128
 71
4
 72
3
 73
1
 74
1
 0
VERTEX
 8
MESH_322_F0
 10
0
 20
0
 30
0
 70
128
 71
5
 72
4
 73
40
 74
40
 0
VERTEX
 8
MESH_322_F0
 10
0
 20
0
 30
0
 70
128
 71
5
 72
40
 73
6
 74
6
 0
VERTEX
 8
MESH_322_F0
 10
0
 20
0
 30
0
 70
128
 71
40
 72
7
 73
6
 74
6
 0
VERTEX
 8
MESH_322_F0
 10
0
 20
0
 30
0
 70
128
 71
8
 72
7
 73
40
 74
40
 0
VERTEX
 8
MESH_322_F0
 10
0
 20
0
 30
0
 70
128
 71
8
 72
40
 73
9
 74
9
 0
VERTEX
 8
MESH_322_F0
 10
0
 20
0
 30
0
 70
128
 71
40
 72
10
 73
9
 74
9
 0
VERTEX
 8
MESH_322_F0
 10
0
 20
0
 30
0
 70
128
 71
11
 72
10
 73
40
 74
40
 0
VERTEX
 8
MESH_322_F0
 10
0
 20
0
 30
0
 70
128
 71
11
 72
40
 73
12
 74
12
 0
VERTEX
 8
MESH_322_F0
 10
0
 20
0
 30
0
 70
128
 71
40
 72
13
 73
12
 74
12
 0
VERTEX
 8
MESH_322_F0
 10
0
 20
0
 30
0
 70
128
 71
14
 72
13
 73
40
 74
40
 0
VERTEX
 8
MESH_322_F0
 10
0
 20
0
 30
0
 70
128
 71
14
 72
40
 73
15
 74
15
 0
VERTEX
 8
MESH_322_F0
 10
0
 20
0
 30
0
 70
128
 71
40
 72
16
 73
15
 74
15
 0
VERTEX
 8
MESH_322_F0
 10
0
 20
0
 30
0
 70
128
 71
17
 72
16
 73
40
 74
40
 0
VERTEX
 8
MESH_322_F0
 10
0
 20
0
 30
0
 70
128
 71
17
 72
40
 73
18
 74
18
 0
VERTEX
 8
MESH_322_F0
 10
0
 20
0
 30
0
 70
128
 71
40
 72
19
 73
18
 74
18
 0
VERTEX
 8
MESH_322_F0
 10
0
 20
0
 30
0
 70
128
 71
20
 72
19
 73
40
 74
40
 0
VERTEX
 8
MESH_322_F0
 10
0
 20
0
 30
0
 70
128
 71
21
 72
20
 73
39
 74
39
 0
VERTEX
 8
MESH_322_F0
 10
0
 20
0
 30
0
 70
128
 71
21
 72
39
 73
22
 74
22
 0
VERTEX
 8
MESH_322_F0
 10
0
 20
0
 30
0
 70
128
 71
39
 72
23
 73
22
 74
22
 0
VERTEX
 8
MESH_322_F0
 10
0
 20
0
 30
0
 70
128
 71
24
 72
23
 73
39
 74
39
 0
VERTEX
 8
MESH_322_F0
 10
0
 20
0
 30
0
 70
128
 71
24
 72
39
 73
25
 74
25
 0
VERTEX
 8
MESH_322_F0
 10
0
 20
0
 30
0
 70
128
 71
39
 72
26
 73
25
 74
25
 0
VERTEX
 8
MESH_322_F0
 10
0
 20
0
 30
0
 70
128
 71
27
 72
26
 73
39
 74
39
 0
VERTEX
 8
MESH_322_F0
 10
0
 20
0
 30
0
 70
128
 71
27
 72
39
 73
28
 74
28
 0
VERTEX
 8
MESH_322_F0
 10
0
 20
0
 30
0
 70
128
 71
39
 72
29
 73
28
 74
28
 0
VERTEX
 8
MESH_322_F0
 10
0
 20
0
 30
0
 70
128
 71
30
 72
29
 73
39
 74
39
 0
VERTEX
 8
MESH_322_F0
 10
0
 20
0
 30
0
 70
128
 71
30
 72
39
 73
31
 74
31
 0
VERTEX
 8
MESH_322_F0
 10
0
 20
0
 30
0
 70
128
 71
39
 72
32
 73
31
 74
31
 0
VERTEX
 8
MESH_322_F0
 10
0
 20
0
 30
0
 70
128
 71
33
 72
32
 73
39
 74
39
 0
VERTEX
 8
MESH_322_F0
 10
0
 20
0
 30
0
 70
128
 71
33
 72
39
 73
34
 74
34
 0
VERTEX
 8
MESH_322_F0
 10
0
 20
0
 30
0
 70
128
 71
39
 72
35
 73
34
 74
34
 0
VERTEX
 8
MESH_322_F0
 10
0
 20
0
 30
0
 70
128
 71
38
 72
35
 73
39
 74
39
 0
VERTEX
 8
MESH_322_F0
 10
0
 20
0
 30
0
 70
128
 71
36
 72
35
 73
38
 74
38
 0
VERTEX
 8
MESH_322_F0
 10
0
 20
0
 30
0
 70
128
 71
36
 72
38
 73
37
 74
37
 0
VERTEX
 8
MESH_322_F0
 10
0
 20
0
 30
0
 70
128
 71
20
 72
40
 73
39
 74
39
 0
VERTEX
 8
MESH_322_F0
 10
0
 20
0
 30
0
 70
128
 71
4
 72
1
 73
40
 74
40
 0
SEQEND
 0
POLYLINE
 8
MESH_321_F0
 66
1
 10
0.0
 20
0.0
 30
0.0
 70
64
 71
6
 72
4
 0
VERTEX
 8
MESH_321_F0
 10
682
 20
-70.5
 30
-456.5
 70
192
 0
VERTEX
 8
MESH_321_F0
 10
682
 20
-70.5
 30
-144.5
 70
192
 0
VERTEX
 8
MESH_321_F0
 10
682
 20
-88.5
 30
-144.5
 70
192
 0
VERTEX
 8
MESH_321_F0
 10
682
 20
-88.5
 30
0
 70
192
 0
VERTEX
 8
MESH_321_F0
 10
682
 20
0
 30
0
 70
192
 0
VERTEX
 8
MESH_321_F0
 10
682
 20
0
 30
-456.5
 70
192
 0
VERTEX
 8
MESH_321_F0
 10
0
 20
0
 30
0
 70
128
 71
6
 72
2
 73
1
 74
1
 0
VERTEX
 8
MESH_321_F0
 10
0
 20
0
 30
0
 70
128
 71
5
 72
2
 73
6
 74
6
 0
VERTEX
 8
MESH_321_F0
 10
0
 20
0
 30
0
 70
128
 71
4
 72
2
 73
5
 74
5
 0
VERTEX
 8
MESH_321_F0
 10
0
 20
0
 30
0
 70
128
 71
3
 72
2
 73
4
 74
4
 0
SEQEND
 0
POLYLINE
 8
MESH_320_F0
 66
1
 10
0.0
 20
0.0
 30
0.0
 70
64
 71
34
 72
32
 0
VERTEX
 8
MESH_320_F0
 10
-682
 20
-88.5
 30
0
 70
192
 0
VERTEX
 8
MESH_320_F0
 10
682
 20
-88.5
 30
0
 70
192
 0
VERTEX
 8
MESH_320_F0
 10
682
 20
-88.5
 30
-144.5
 70
192
 0
VERTEX
 8
MESH_320_F0
 10
582
 20
-88.5
 30
-144.5
 70
192
 0
VERTEX
 8
MESH_320_F0
 10
582
 20
-88.5
 30
-284.5
 70
192
 0
VERTEX
 8
MESH_320_F0
 10
581.2709
 20
-88.5
 30
-296.5537
 70
192
 0
VERTEX
 8
MESH_320_F0
 10
579.0942
 20
-88.5
 30
-308.4315
 70
192
 0
VERTEX
 8
MESH_320_F0
 10
575.5016
 20
-88.5
 30
-319.9605
 70
192
 0
VERTEX
 8
MESH_320_F0
 10
570.5456
 20
-88.5
 30
-330.9723
 70
192
 0
VERTEX
 8
MESH_320_F0
 10
564.2984
 20
-88.5
 30
-341.3065
 70
192
 0
VERTEX
 8
MESH_320_F0
 10
556.8511
 20
-88.5
 30
-350.8123
 70
192
 0
VERTEX
 8
MESH_320_F0
 10
548.3123
 20
-88.5
 30
-359.3511
 70
192
 0
VERTEX
 8
MESH_320_F0
 10
538.8065
 20
-88.5
 30
-366.7984
 70
192
 0
VERTEX
 8
MESH_320_F0
 10
528.4723
 20
-88.5
 30
-373.0456
 70
192
 0
VERTEX
 8
MESH_320_F0
 10
517.4604
 20
-88.5
 30
-378.0016
 70
192
 0
VERTEX
 8
MESH_320_F0
 10
505.9315
 20
-88.5
 30
-381.5942
 70
192
 0
VERTEX
 8
MESH_320_F0
 10
494.0536
 20
-88.5
 30
-383.7709
 70
192
 0
VERTEX
 8
MESH_320_F0
 10
482
 20
-88.5
 30
-384.5
 70
192
 0
VERTEX
 8
MESH_320_F0
 10
-482
 20
-88.5
 30
-384.5
 70
192
 0
VERTEX
 8
MESH_320_F0
 10
-494.0536
 20
-88.5
 30
-383.7709
 70
192
 0
VERTEX
 8
MESH_320_F0
 10
-505.9315
 20
-88.5
 30
-381.5942
 70
192
 0
VERTEX
 8
MESH_320_F0
 10
-517.4604
 20
-88.5
 30
-378.0016
 70
192
 0
VERTEX
 8
MESH_320_F0
 10
-528.4723
 20
-88.5
 30
-373.0456
 70
192
 0
VERTEX
 8
MESH_320_F0
 10
-538.8065
 20
-88.5
 30
-366.7984
 70
192
 0
VERTEX
 8
MESH_320_F0
 10
-548.3123
 20
-88.5
 30
-359.3511
 70
192
 0
VERTEX
 8
MESH_320_F0
 10
-556.8511
 20
-88.5
 30
-350.8123
 70
192
 0
VERTEX
 8
MESH_320_F0
 10
-564.2984
 20
-88.5
 30
-341.3065
 70
192
 0
VERTEX
 8
MESH_320_F0
 10
-570.5456
 20
-88.5
 30
-330.9723
 70
192
 0
VERTEX
 8
MESH_320_F0
 10
-575.5016
 20
-88.5
 30
-319.9605
 70
192
 0
VERTEX
 8
MESH_320_F0
 10
-579.0942
 20
-88.5
 30
-308.4315
 70
192
 0
VERTEX
 8
MESH_320_F0
 10
-581.2709
 20
-88.5
 30
-296.5537
 70
192
 0
VERTEX
 8
MESH_320_F0
 10
-582
 20
-88.5
 30
-284.5
 70
192
 0
VERTEX
 8
MESH_320_F0
 10
-582
 20
-88.5
 30
-144.5
 70
192
 0
VERTEX
 8
MESH_320_F0
 10
-682
 20
-88.5
 30
-144.5
 70
192
 0
VERTEX
 8
MESH_320_F0
 10
0
 20
0
 30
0
 70
128
 71
1
 72
4
 73
2
 74
2
 0
VERTEX
 8
MESH_320_F0
 10
0
 20
0
 30
0
 70
128
 71
4
 72
3
 73
2
 74
2
 0
VERTEX
 8
MESH_320_F0
 10
0
 20
0
 30
0
 70
128
 71
1
 72
5
 73
4
 74
4
 0
VERTEX
 8
MESH_320_F0
 10
0
 20
0
 30
0
 70
128
 71
18
 72
5
 73
1
 74
1
 0
VERTEX
 8
MESH_320_F0
 10
0
 20
0
 30
0
 70
128
 71
19
 72
18
 73
33
 74
33
 0
VERTEX
 8
MESH_320_F0
 10
0
 20
0
 30
0
 70
128
 71
19
 72
33
 73
20
 74
20
 0
VERTEX
 8
MESH_320_F0
 10
0
 20
0
 30
0
 70
128
 71
33
 72
21
 73
20
 74
20
 0
VERTEX
 8
MESH_320_F0
 10
0
 20
0
 30
0
 70
128
 71
22
 72
21
 73
33
 74
33
 0
VERTEX
 8
MESH_320_F0
 10
0
 20
0
 30
0
 70
128
 71
22
 72
33
 73
23
 74
23
 0
VERTEX
 8
MESH_320_F0
 10
0
 20
0
 30
0
 70
128
 71
33
 72
24
 73
23
 74
23
 0
VERTEX
 8
MESH_320_F0
 10
0
 20
0
 30
0
 70
128
 71
25
 72
24
 73
33
 74
33
 0
VERTEX
 8
MESH_320_F0
 10
0
 20
0
 30
0
 70
128
 71
25
 72
33
 73
26
 74
26
 0
VERTEX
 8
MESH_320_F0
 10
0
 20
0
 30
0
 70
128
 71
33
 72
27
 73
26
 74
26
 0
VERTEX
 8
MESH_320_F0
 10
0
 20
0
 30
0
 70
128
 71
28
 72
27
 73
33
 74
33
 0
VERTEX
 8
MESH_320_F0
 10
0
 20
0
 30
0
 70
128
 71
28
 72
33
 73
29
 74
29
 0
VERTEX
 8
MESH_320_F0
 10
0
 20
0
 30
0
 70
128
 71
33
 72
30
 73
29
 74
29
 0
VERTEX
 8
MESH_320_F0
 10
0
 20
0
 30
0
 70
128
 71
31
 72
30
 73
33
 74
33
 0
VERTEX
 8
MESH_320_F0
 10
0
 20
0
 30
0
 70
128
 71
31
 72
33
 73
32
 74
32
 0
VERTEX
 8
MESH_320_F0
 10
0
 20
0
 30
0
 70
128
 71
18
 72
6
 73
5
 74
5
 0
VERTEX
 8
MESH_320_F0
 10
0
 20
0
 30
0
 70
128
 71
7
 72
6
 73
18
 74
18
 0
VERTEX
 8
MESH_320_F0
 10
0
 20
0
 30
0
 70
128
 71
7
 72
18
 73
8
 74
8
 0
VERTEX
 8
MESH_320_F0
 10
0
 20
0
 30
0
 70
128
 71
18
 72
9
 73
8
 74
8
 0
VERTEX
 8
MESH_320_F0
 10
0
 20
0
 30
0
 70
128
 71
10
 72
9
 73
18
 74
18
 0
VERTEX
 8
MESH_320_F0
 10
0
 20
0
 30
0
 70
128
 71
10
 72
18
 73
11
 74
11
 0
VERTEX
 8
MESH_320_F0
 10
0
 20
0
 30
0
 70
128
 71
18
 72
12
 73
11
 74
11
 0
VERTEX
 8
MESH_320_F0
 10
0
 20
0
 30
0
 70
128
 71
13
 72
12
 73
18
 74
18
 0
VERTEX
 8
MESH_320_F0
 10
0
 20
0
 30
0
 70
128
 71
13
 72
18
 73
14
 74
14
 0
VERTEX
 8
MESH_320_F0
 10
0
 20
0
 30
0
 70
128
 71
18
 72
15
 73
14
 74
14
 0
VERTEX
 8
MESH_320_F0
 10
0
 20
0
 30
0
 70
128
 71
16
 72
15
 73
18
 74
18
 0
VERTEX
 8
MESH_320_F0
 10
0
 20
0
 30
0
 70
128
 71
16
 72
18
 73
17
 74
17
 0
VERTEX
 8
MESH_320_F0
 10
0
 20
0
 30
0
 70
128
 71
33
 72
1
 73
34
 74
34
 0
VERTEX
 8
MESH_320_F0
 10
0
 20
0
 30
0
 70
128
 71
18
 72
1
 73
33
 74
33
 0
SEQEND
 0
POLYLINE
 8
MESH_319_F0
 66
1
 10
0.0
 20
0.0
 30
0.0
 70
64
 71
6
 72
4
 0
VERTEX
 8
MESH_319_F0
 10
-682
 20
0
 30
-456.5
 70
192
 0
VERTEX
 8
MESH_319_F0
 10
-682
 20
0
 30
0
 70
192
 0
VERTEX
 8
MESH_319_F0
 10
-682
 20
-88.5
 30
0
 70
192
 0
VERTEX
 8
MESH_319_F0
 10
-682
 20
-88.5
 30
-144.5
 70
192
 0
VERTEX
 8
MESH_319_F0
 10
-682
 20
-70.5
 30
-144.5
 70
192
 0
VERTEX
 8
MESH_319_F0
 10
-682
 20
-70.5
 30
-456.5
 70
192
 0
VERTEX
 8
MESH_319_F0
 10
0
 20
0
 30
0
 70
128
 71
5
 72
1
 73
6
 74
6
 0
VERTEX
 8
MESH_319_F0
 10
0
 20
0
 30
0
 70
128
 71
2
 72
1
 73
5
 74
5
 0
VERTEX
 8
MESH_319_F0
 10
0
 20
0
 30
0
 70
128
 71
2
 72
5
 73
3
 74
3
 0
VERTEX
 8
MESH_319_F0
 10
0
 20
0
 30
0
 70
128
 71
5
 72
4
 73
3
 74
3
 0
SEQEND
 0
POLYLINE
 8
MESH_318_F0
 66
1
 10
0.0
 20
0.0
 30
0.0
 70
64
 71
8
 72
6
 0
VERTEX
 8
MESH_318_F0
 10
-682
 20
-88.5
 30
0
 70
192
 0
VERTEX
 8
MESH_318_F0
 10
-682
 20
0
 30
0
 70
192
 0
VERTEX
 8
MESH_318_F0
 10
-700
 20
0
 30
0
 70
192
 0
VERTEX
 8
MESH_318_F0
 10
-700
 20
-412
 30
0
 70
192
 0
VERTEX
 8
MESH_318_F0
 10
700
 20
-412
 30
0
 70
192
 0
VERTEX
 8
MESH_318_F0
 10
700
 20
0
 30
0
 70
192
 0
VERTEX
 8
MESH_318_F0
 10
682
 20
0
 30
0
 70
192
 0
VERTEX
 8
MESH_318_F0
 10
682
 20
-88.5
 30
0
 70
192
 0
VERTEX
 8
MESH_318_F0
 10
0
 20
0
 30
0
 70
128
 71
1
 72
3
 73
2
 74
2
 0
VERTEX
 8
MESH_318_F0
 10
0
 20
0
 30
0
 70
128
 71
4
 72
3
 73
1
 74
1
 0
VERTEX
 8
MESH_318_F0
 10
0
 20
0
 30
0
 70
128
 71
5
 72
4
 73
8
 74
8
 0
VERTEX
 8
MESH_318_F0
 10
0
 20
0
 30
0
 70
128
 71
5
 72
8
 73
6
 74
6
 0
VERTEX
 8
MESH_318_F0
 10
0
 20
0
 30
0
 70
128
 71
8
 72
7
 73
6
 74
6
 0
VERTEX
 8
MESH_318_F0
 10
0
 20
0
 30
0
 70
128
 71
4
 72
1
 73
8
 74
8
 0
SEQEND
 0
POLYLINE
 8
MESH_317_F0
 66
1
 10
0.0
 20
0.0
 30
0.0
 70
64
 71
4
 72
2
 0
VERTEX
 8
MESH_317_F0
 10
700
 20
0
 30
0
 70
192
 0
VERTEX
 8
MESH_317_F0
 10
700
 20
-412
 30
0
 70
192
 0
VERTEX
 8
MESH_317_F0
 10
700
 20
-412
 30
-475
 70
192
 0
VERTEX
 8
MESH_317_F0
 10
700
 20
0
 30
-475
 70
192
 0
VERTEX
 8
MESH_317_F0
 10
0
 20
0
 30
0
 70
128
 71
4
 72
2
 73
1
 74
1
 0
VERTEX
 8
MESH_317_F0
 10
0
 20
0
 30
0
 70
128
 71
3
 72
2
 73
4
 74
4
 0
SEQEND
 0
POLYLINE
 8
MESH_316_F0
 66
1
 10
0.0
 20
0.0
 30
0.0
 70
64
 71
4
 72
2
 0
VERTEX
 8
MESH_316_F0
 10
682
 20
0
 30
-475
 70
192
 0
VERTEX
 8
MESH_316_F0
 10
700
 20
0
 30
-475
 70
192
 0
VERTEX
 8
MESH_316_F0
 10
700
 20
-412
 30
-475
 70
192
 0
VERTEX
 8
MESH_316_F0
 10
682
 20
-412
 30
-475
 70
192
 0
VERTEX
 8
MESH_316_F0
 10
0
 20
0
 30
0
 70
128
 71
1
 72
3
 73
2
 74
2
 0
VERTEX
 8
MESH_316_F0
 10
0
 20
0
 30
0
 70
128
 71
4
 72
3
 73
1
 74
1
 0
SEQEND
 0
POLYLINE
 8
MESH_315_F0
 66
1
 10
0.0
 20
0.0
 30
0.0
 70
64
 71
4
 72
2
 0
VERTEX
 8
MESH_315_F0
 10
-682
 20
0
 30
-474.5
 70
192
 0
VERTEX
 8
MESH_315_F0
 10
682
 20
0
 30
-474.5
 70
192
 0
VERTEX
 8
MESH_315_F0
 10
682
 20
-411.5
 30
-474.5
 70
192
 0
VERTEX
 8
MESH_315_F0
 10
-682
 20
-411.5
 30
-474.5
 70
192
 0
VERTEX
 8
MESH_315_F0
 10
0
 20
0
 30
0
 70
128
 71
1
 72
3
 73
2
 74
2
 0
VERTEX
 8
MESH_315_F0
 10
0
 20
0
 30
0
 70
128
 71
4
 72
3
 73
1
 74
1
 0
SEQEND
 0
POLYLINE
 8
MESH_314_F0
 66
1
 10
0.0
 20
0.0
 30
0.0
 70
64
 71
30
 72
28
 0
VERTEX
 8
MESH_314_F0
 10
-26.5
 20
-440.5
 30
-240
 70
192
 0
VERTEX
 8
MESH_314_F0
 10
-26.5
 20
-440.5
 30
-244
 70
192
 0
VERTEX
 8
MESH_314_F0
 10
-23.6158
 20
-440.3353
 30
-244
 70
192
 0
VERTEX
 8
MESH_314_F0
 10
-20.7983
 20
-439.8543
 30
-244
 70
192
 0
VERTEX
 8
MESH_314_F0
 10
-18.0554
 20
-439.0602
 30
-244
 70
192
 0
VERTEX
 8
MESH_314_F0
 10
-15.4106
 20
-437.9624
 30
-244
 70
192
 0
VERTEX
 8
MESH_314_F0
 10
-12.9155
 20
-436.5807
 30
-244
 70
192
 0
VERTEX
 8
MESH_314_F0
 10
-10.5922
 20
-434.9296
 30
-244
 70
192
 0
VERTEX
 8
MESH_314_F0
 10
-8.4692
 20
-433.0308
 30
-244
 70
192
 0
VERTEX
 8
MESH_314_F0
 10
-6.5704
 20
-430.9077
 30
-244
 70
192
 0
VERTEX
 8
MESH_314_F0
 10
-4.9193
 20
-428.5844
 30
-244
 70
192
 0
VERTEX
 8
MESH_314_F0
 10
-3.5376
 20
-426.0894
 30
-244
 70
192
 0
VERTEX
 8
MESH_314_F0
 10
-2.4398
 20
-423.4446
 30
-244
 70
192
 0
VERTEX
 8
MESH_314_F0
 10
-1.6456
 20
-420.7017
 30
-244
 70
192
 0
VERTEX
 8
MESH_314_F0
 10
-1.1647
 20
-417.8842
 30
-244
 70
192
 0
VERTEX
 8
MESH_314_F0
 10
-1
 20
-415
 30
-244
 70
192
 0
VERTEX
 8
MESH_314_F0
 10
-1
 20
-415
 30
-240
 70
192
 0
VERTEX
 8
MESH_314_F0
 10
-1.1647
 20
-417.8842
 30
-240
 70
192
 0
VERTEX
 8
MESH_314_F0
 10
-1.6456
 20
-420.7017
 30
-240
 70
192
 0
VERTEX
 8
MESH_314_F0
 10
-2.4398
 20
-423.4446
 30
-240
 70
192
 0
VERTEX
 8
MESH_314_F0
 10
-3.5376
 20
-426.0894
 30
-240
 70
192
 0
VERTEX
 8
MESH_314_F0
 10
-4.9193
 20
-428.5844
 30
-240
 70
192
 0
VERTEX
 8
MESH_314_F0
 10
-6.5704
 20
-430.9077
 30
-240
 70
192
 0
VERTEX
 8
MESH_314_F0
 10
-8.4692
 20
-433.0308
 30
-240
 70
192
 0
VERTEX
 8
MESH_314_F0
 10
-10.5922
 20
-434.9296
 30
-240
 70
192
 0
VERTEX
 8
MESH_314_F0
 10
-12.9155
 20
-436.5807
 30
-240
 70
192
 0
VERTEX
 8
MESH_314_F0
 10
-15.4106
 20
-437.9624
 30
-240
 70
192
 0
VERTEX
 8
MESH_314_F0
 10
-18.0554
 20
-439.0602
 30
-240
 70
192
 0
VERTEX
 8
MESH_314_F0
 10
-20.7983
 20
-439.8543
 30
-240
 70
192
 0
VERTEX
 8
MESH_314_F0
 10
-23.6158
 20
-440.3353
 30
-240
 70
192
 0
VERTEX
 8
MESH_314_F0
 10
0
 20
0
 30
0
 70
128
 71
30
 72
2
 73
1
 74
1
 0
VERTEX
 8
MESH_314_F0
 10
0
 20
0
 30
0
 70
128
 71
3
 72
2
 73
30
 74
30
 0
VERTEX
 8
MESH_314_F0
 10
0
 20
0
 30
0
 70
128
 71
3
 72
30
 73
4
 74
4
 0
VERTEX
 8
MESH_314_F0
 10
0
 20
0
 30
0
 70
128
 71
30
 72
29
 73
4
 74
4
 0
VERTEX
 8
MESH_314_F0
 10
0
 20
0
 30
0
 70
128
 71
29
 72
5
 73
4
 74
4
 0
VERTEX
 8
MESH_314_F0
 10
0
 20
0
 30
0
 70
128
 71
28
 72
5
 73
29
 74
29
 0
VERTEX
 8
MESH_314_F0
 10
0
 20
0
 30
0
 70
128
 71
6
 72
5
 73
28
 74
28
 0
VERTEX
 8
MESH_314_F0
 10
0
 20
0
 30
0
 70
128
 71
7
 72
6
 73
27
 74
27
 0
VERTEX
 8
MESH_314_F0
 10
0
 20
0
 30
0
 70
128
 71
8
 72
7
 73
26
 74
26
 0
VERTEX
 8
MESH_314_F0
 10
0
 20
0
 30
0
 70
128
 71
9
 72
8
 73
25
 74
25
 0
VERTEX
 8
MESH_314_F0
 10
0
 20
0
 30
0
 70
128
 71
10
 72
9
 73
24
 74
24
 0
VERTEX
 8
MESH_314_F0
 10
0
 20
0
 30
0
 70
128
 71
11
 72
10
 73
23
 74
23
 0
VERTEX
 8
MESH_314_F0
 10
0
 20
0
 30
0
 70
128
 71
12
 72
11
 73
22
 74
22
 0
VERTEX
 8
MESH_314_F0
 10
0
 20
0
 30
0
 70
128
 71
13
 72
12
 73
21
 74
21
 0
VERTEX
 8
MESH_314_F0
 10
0
 20
0
 30
0
 70
128
 71
14
 72
13
 73
20
 74
20
 0
VERTEX
 8
MESH_314_F0
 10
0
 20
0
 30
0
 70
128
 71
15
 72
14
 73
19
 74
19
 0
VERTEX
 8
MESH_314_F0
 10
0
 20
0
 30
0
 70
128
 71
17
 72
15
 73
18
 74
18
 0
VERTEX
 8
MESH_314_F0
 10
0
 20
0
 30
0
 70
128
 71
15
 72
19
 73
18
 74
18
 0
VERTEX
 8
MESH_314_F0
 10
0
 20
0
 30
0
 70
128
 71
17
 72
16
 73
15
 74
15
 0
VERTEX
 8
MESH_314_F0
 10
0
 20
0
 30
0
 70
128
 71
14
 72
20
 73
19
 74
19
 0
VERTEX
 8
MESH_314_F0
 10
0
 20
0
 30
0
 70
128
 71
13
 72
21
 73
20
 74
20
 0
VERTEX
 8
MESH_314_F0
 10
0
 20
0
 30
0
 70
128
 71
12
 72
22
 73
21
 74
21
 0
VERTEX
 8
MESH_314_F0
 10
0
 20
0
 30
0
 70
128
 71
11
 72
23
 73
22
 74
22
 0
VERTEX
 8
MESH_314_F0
 10
0
 20
0
 30
0
 70
128
 71
10
 72
24
 73
23
 74
23
 0
VERTEX
 8
MESH_314_F0
 10
0
 20
0
 30
0
 70
128
 71
9
 72
25
 73
24
 74
24
 0
VERTEX
 8
MESH_314_F0
 10
0
 20
0
 30
0
 70
128
 71
8
 72
26
 73
25
 74
25
 0
VERTEX
 8
MESH_314_F0
 10
0
 20
0
 30
0
 70
128
 71
7
 72
27
 73
26
 74
26
 0
VERTEX
 8
MESH_314_F0
 10
0
 20
0
 30
0
 70
128
 71
6
 72
28
 73
27
 74
27
 0
SEQEND
 0
POLYLINE
 8
MESH_313_F0
 66
1
 10
0.0
 20
0.0
 30
0.0
 70
64
 71
4
 72
2
 0
VERTEX
 8
MESH_313_F0
 10
-26.5
 20
-440.5
 30
-244
 70
192
 0
VERTEX
 8
MESH_313_F0
 10
-26.5
 20
-440.5
 30
-240
 70
192
 0
VERTEX
 8
MESH_313_F0
 10
-673.5
 20
-440.5
 30
-240
 70
192
 0
VERTEX
 8
MESH_313_F0
 10
-673.5
 20
-440.5
 30
-244
 70
192
 0
VERTEX
 8
MESH_313_F0
 10
0
 20
0
 30
0
 70
128
 71
1
 72
3
 73
2
 74
2
 0
VERTEX
 8
MESH_313_F0
 10
0
 20
0
 30
0
 70
128
 71
4
 72
3
 73
1
 74
1
 0
SEQEND
 0
POLYLINE
 8
MESH_312_F0
 66
1
 10
0.0
 20
0.0
 30
0.0
 70
64
 71
30
 72
28
 0
VERTEX
 8
MESH_312_F0
 10
-699
 20
-415
 30
-240
 70
192
 0
VERTEX
 8
MESH_312_F0
 10
-699
 20
-415
 30
-244
 70
192
 0
VERTEX
 8
MESH_312_F0
 10
-698.8353
 20
-417.8842
 30
-244
 70
192
 0
VERTEX
 8
MESH_312_F0
 10
-698.3544
 20
-420.7017
 30
-244
 70
192
 0
VERTEX
 8
MESH_312_F0
 10
-697.5602
 20
-423.4446
 30
-244
 70
192
 0
VERTEX
 8
MESH_312_F0
 10
-696.4624
 20
-426.0894
 30
-244
 70
192
 0
VERTEX
 8
MESH_312_F0
 10
-695.0807
 20
-428.5844
 30
-244
 70
192
 0
VERTEX
 8
MESH_312_F0
 10
-693.4296
 20
-430.9077
 30
-244
 70
192
 0
VERTEX
 8
MESH_312_F0
 10
-691.5308
 20
-433.0308
 30
-244
 70
192
 0
VERTEX
 8
MESH_312_F0
 10
-689.4078
 20
-434.9296
 30
-244
 70
192
 0
VERTEX
 8
MESH_312_F0
 10
-687.0845
 20
-436.5807
 30
-244
 70
192
 0
VERTEX
 8
MESH_312_F0
 10
-684.5894
 20
-437.9624
 30
-244
 70
192
 0
VERTEX
 8
MESH_312_F0
 10
-681.9446
 20
-439.0602
 30
-244
 70
192
 0
VERTEX
 8
MESH_312_F0
 10
-679.2017
 20
-439.8543
 30
-244
 70
192
 0
VERTEX
 8
MESH_312_F0
 10
-676.3842
 20
-440.3353
 30
-244
 70
192
 0
VERTEX
 8
MESH_312_F0
 10
-673.5
 20
-440.5
 30
-244
 70
192
 0
VERTEX
 8
MESH_312_F0
 10
-673.5
 20
-440.5
 30
-240
 70
192
 0
VERTEX
 8
MESH_312_F0
 10
-676.3842
 20
-440.3353
 30
-240
 70
192
 0
VERTEX
 8
MESH_312_F0
 10
-679.2017
 20
-439.8543
 30
-240
 70
192
 0
VERTEX
 8
MESH_312_F0
 10
-681.9446
 20
-439.0602
 30
-240
 70
192
 0
VERTEX
 8
MESH_312_F0
 10
-684.5894
 20
-437.9624
 30
-240
 70
192
 0
VERTEX
 8
MESH_312_F0
 10
-687.0845
 20
-436.5807
 30
-240
 70
192
 0
VERTEX
 8
MESH_312_F0
 10
-689.4078
 20
-434.9296
 30
-240
 70
192
 0
VERTEX
 8
MESH_312_F0
 10
-691.5308
 20
-433.0308
 30
-240
 70
192
 0
VERTEX
 8
MESH_312_F0
 10
-693.4296
 20
-430.9077
 30
-240
 70
192
 0
VERTEX
 8
MESH_312_F0
 10
-695.0807
 20
-428.5844
 30
-240
 70
192
 0
VERTEX
 8
MESH_312_F0
 10
-696.4624
 20
-426.0894
 30
-240
 70
192
 0
VERTEX
 8
MESH_312_F0
 10
-697.5602
 20
-423.4446
 30
-240
 70
192
 0
VERTEX
 8
MESH_312_F0
 10
-698.3544
 20
-420.7017
 30
-240
 70
192
 0
VERTEX
 8
MESH_312_F0
 10
-698.8353
 20
-417.8842
 30
-240
 70
192
 0
VERTEX
 8
MESH_312_F0
 10
0
 20
0
 30
0
 70
128
 71
30
 72
2
 73
1
 74
1
 0
VERTEX
 8
MESH_312_F0
 10
0
 20
0
 30
0
 70
128
 71
3
 72
2
 73
30
 74
30
 0
VERTEX
 8
MESH_312_F0
 10
0
 20
0
 30
0
 70
128
 71
3
 72
30
 73
4
 74
4
 0
VERTEX
 8
MESH_312_F0
 10
0
 20
0
 30
0
 70
128
 71
30
 72
29
 73
4
 74
4
 0
VERTEX
 8
MESH_312_F0
 10
0
 20
0
 30
0
 70
128
 71
29
 72
5
 73
4
 74
4
 0
VERTEX
 8
MESH_312_F0
 10
0
 20
0
 30
0
 70
128
 71
28
 72
5
 73
29
 74
29
 0
VERTEX
 8
MESH_312_F0
 10
0
 20
0
 30
0
 70
128
 71
6
 72
5
 73
28
 74
28
 0
VERTEX
 8
MESH_312_F0
 10
0
 20
0
 30
0
 70
128
 71
7
 72
6
 73
27
 74
27
 0
VERTEX
 8
MESH_312_F0
 10
0
 20
0
 30
0
 70
128
 71
8
 72
7
 73
26
 74
26
 0
VERTEX
 8
MESH_312_F0
 10
0
 20
0
 30
0
 70
128
 71
9
 72
8
 73
25
 74
25
 0
VERTEX
 8
MESH_312_F0
 10
0
 20
0
 30
0
 70
128
 71
10
 72
9
 73
24
 74
24
 0
VERTEX
 8
MESH_312_F0
 10
0
 20
0
 30
0
 70
128
 71
11
 72
10
 73
23
 74
23
 0
VERTEX
 8
MESH_312_F0
 10
0
 20
0
 30
0
 70
128
 71
12
 72
11
 73
22
 74
22
 0
VERTEX
 8
MESH_312_F0
 10
0
 20
0
 30
0
 70
128
 71
13
 72
12
 73
21
 74
21
 0
VERTEX
 8
MESH_312_F0
 10
0
 20
0
 30
0
 70
128
 71
14
 72
13
 73
20
 74
20
 0
VERTEX
 8
MESH_312_F0
 10
0
 20
0
 30
0
 70
128
 71
15
 72
14
 73
19
 74
19
 0
VERTEX
 8
MESH_312_F0
 10
0
 20
0
 30
0
 70
128
 71
17
 72
15
 73
18
 74
18
 0
VERTEX
 8
MESH_312_F0
 10
0
 20
0
 30
0
 70
128
 71
15
 72
19
 73
18
 74
18
 0
VERTEX
 8
MESH_312_F0
 10
0
 20
0
 30
0
 70
128
 71
17
 72
16
 73
15
 74
15
 0
VERTEX
 8
MESH_312_F0
 10
0
 20
0
 30
0
 70
128
 71
14
 72
20
 73
19
 74
19
 0
VERTEX
 8
MESH_312_F0
 10
0
 20
0
 30
0
 70
128
 71
13
 72
21
 73
20
 74
20
 0
VERTEX
 8
MESH_312_F0
 10
0
 20
0
 30
0
 70
128
 71
12
 72
22
 73
21
 74
21
 0
VERTEX
 8
MESH_312_F0
 10
0
 20
0
 30
0
 70
128
 71
11
 72
23
 73
22
 74
22
 0
VERTEX
 8
MESH_312_F0
 10
0
 20
0
 30
0
 70
128
 71
10
 72
24
 73
23
 74
23
 0
VERTEX
 8
MESH_312_F0
 10
0
 20
0
 30
0
 70
128
 71
9
 72
25
 73
24
 74
24
 0
VERTEX
 8
MESH_312_F0
 10
0
 20
0
 30
0
 70
128
 71
8
 72
26
 73
25
 74
25
 0
VERTEX
 8
MESH_312_F0
 10
0
 20
0
 30
0
 70
128
 71
7
 72
27
 73
26
 74
26
 0
VERTEX
 8
MESH_312_F0
 10
0
 20
0
 30
0
 70
128
 71
6
 72
28
 73
27
 74
27
 0
SEQEND
 0
POLYLINE
 8
MESH_311_F0
 66
1
 10
0.0
 20
0.0
 30
0.0
 70
64
 71
4
 72
2
 0
VERTEX
 8
MESH_311_F0
 10
-699
 20
-412
 30
-244
 70
192
 0
VERTEX
 8
MESH_311_F0
 10
-699
 20
-415
 30
-244
 70
192
 0
VERTEX
 8
MESH_311_F0
 10
-699
 20
-415
 30
-240
 70
192
 0
VERTEX
 8
MESH_311_F0
 10
-699
 20
-412
 30
-240
 70
192
 0
VERTEX
 8
MESH_311_F0
 10
0
 20
0
 30
0
 70
128
 71
4
 72
2
 73
1
 74
1
 0
VERTEX
 8
MESH_311_F0
 10
0
 20
0
 30
0
 70
128
 71
3
 72
2
 73
4
 74
4
 0
SEQEND
 0
POLYLINE
 8
MESH_310_F0
 66
1
 10
0.0
 20
0.0
 30
0.0
 70
64
 71
32
 72
30
 0
VERTEX
 8
MESH_310_F0
 10
-699
 20
-412
 30
-240
 70
192
 0
VERTEX
 8
MESH_310_F0
 10
-699
 20
-415
 30
-240
 70
192
 0
VERTEX
 8
MESH_310_F0
 10
-698.8353
 20
-417.8842
 30
-240
 70
192
 0
VERTEX
 8
MESH_310_F0
 10
-698.3544
 20
-420.7017
 30
-240
 70
192
 0
VERTEX
 8
MESH_310_F0
 10
-697.5602
 20
-423.4446
 30
-240
 70
192
 0
VERTEX
 8
MESH_310_F0
 10
-696.4624
 20
-426.0894
 30
-240
 70
192
 0
VERTEX
 8
MESH_310_F0
 10
-695.0807
 20
-428.5844
 30
-240
 70
192
 0
VERTEX
 8
MESH_310_F0
 10
-693.4296
 20
-430.9077
 30
-240
 70
192
 0
VERTEX
 8
MESH_310_F0
 10
-691.5308
 20
-433.0308
 30
-240
 70
192
 0
VERTEX
 8
MESH_310_F0
 10
-689.4078
 20
-434.9296
 30
-240
 70
192
 0
VERTEX
 8
MESH_310_F0
 10
-687.0845
 20
-436.5807
 30
-240
 70
192
 0
VERTEX
 8
MESH_310_F0
 10
-684.5894
 20
-437.9624
 30
-240
 70
192
 0
VERTEX
 8
MESH_310_F0
 10
-681.9446
 20
-439.0602
 30
-240
 70
192
 0
VERTEX
 8
MESH_310_F0
 10
-679.2017
 20
-439.8543
 30
-240
 70
192
 0
VERTEX
 8
MESH_310_F0
 10
-676.3842
 20
-440.3353
 30
-240
 70
192
 0
VERTEX
 8
MESH_310_F0
 10
-673.5
 20
-440.5
 30
-240
 70
192
 0
VERTEX
 8
MESH_310_F0
 10
-26.5
 20
-440.5
 30
-240
 70
192
 0
VERTEX
 8
MESH_310_F0
 10
-23.6158
 20
-440.3353
 30
-240
 70
192
 0
VERTEX
 8
MESH_310_F0
 10
-20.7983
 20
-439.8543
 30
-240
 70
192
 0
VERTEX
 8
MESH_310_F0
 10
-18.0554
 20
-439.0602
 30
-240
 70
192
 0
VERTEX
 8
MESH_310_F0
 10
-15.4106
 20
-437.9624
 30
-240
 70
192
 0
VERTEX
 8
MESH_310_F0
 10
-12.9155
 20
-436.5807
 30
-240
 70
192
 0
VERTEX
 8
MESH_310_F0
 10
-10.5922
 20
-434.9296
 30
-240
 70
192
 0
VERTEX
 8
MESH_310_F0
 10
-8.4692
 20
-433.0308
 30
-240
 70
192
 0
VERTEX
 8
MESH_310_F0
 10
-6.5704
 20
-430.9077
 30
-240
 70
192
 0
VERTEX
 8
MESH_310_F0
 10
-4.9193
 20
-428.5844
 30
-240
 70
192
 0
VERTEX
 8
MESH_310_F0
 10
-3.5376
 20
-426.0894
 30
-240
 70
192
 0
VERTEX
 8
MESH_310_F0
 10
-2.4398
 20
-423.4446
 30
-240
 70
192
 0
VERTEX
 8
MESH_310_F0
 10
-1.6456
 20
-420.7017
 30
-240
 70
192
 0
VERTEX
 8
MESH_310_F0
 10
-1.1647
 20
-417.8842
 30
-240
 70
192
 0
VERTEX
 8
MESH_310_F0
 10
-1
 20
-415
 30
-240
 70
192
 0
VERTEX
 8
MESH_310_F0
 10
-1
 20
-412
 30
-240
 70
192
 0
VERTEX
 8
MESH_310_F0
 10
0
 20
0
 30
0
 70
128
 71
1
 72
30
 73
2
 74
2
 0
VERTEX
 8
MESH_310_F0
 10
0
 20
0
 30
0
 70
128
 71
30
 72
3
 73
2
 74
2
 0
VERTEX
 8
MESH_310_F0
 10
0
 20
0
 30
0
 70
128
 71
4
 72
3
 73
30
 74
30
 0
VERTEX
 8
MESH_310_F0
 10
0
 20
0
 30
0
 70
128
 71
5
 72
4
 73
29
 74
29
 0
VERTEX
 8
MESH_310_F0
 10
0
 20
0
 30
0
 70
128
 71
5
 72
29
 73
6
 74
6
 0
VERTEX
 8
MESH_310_F0
 10
0
 20
0
 30
0
 70
128
 71
29
 72
7
 73
6
 74
6
 0
VERTEX
 8
MESH_310_F0
 10
0
 20
0
 30
0
 70
128
 71
28
 72
7
 73
29
 74
29
 0
VERTEX
 8
MESH_310_F0
 10
0
 20
0
 30
0
 70
128
 71
8
 72
7
 73
28
 74
28
 0
VERTEX
 8
MESH_310_F0
 10
0
 20
0
 30
0
 70
128
 71
8
 72
28
 73
9
 74
9
 0
VERTEX
 8
MESH_310_F0
 10
0
 20
0
 30
0
 70
128
 71
28
 72
27
 73
9
 74
9
 0
VERTEX
 8
MESH_310_F0
 10
0
 20
0
 30
0
 70
128
 71
27
 72
10
 73
9
 74
9
 0
VERTEX
 8
MESH_310_F0
 10
0
 20
0
 30
0
 70
128
 71
11
 72
10
 73
27
 74
27
 0
VERTEX
 8
MESH_310_F0
 10
0
 20
0
 30
0
 70
128
 71
12
 72
11
 73
26
 74
26
 0
VERTEX
 8
MESH_310_F0
 10
0
 20
0
 30
0
 70
128
 71
13
 72
12
 73
16
 74
16
 0
VERTEX
 8
MESH_310_F0
 10
0
 20
0
 30
0
 70
128
 71
13
 72
16
 73
14
 74
14
 0
VERTEX
 8
MESH_310_F0
 10
0
 20
0
 30
0
 70
128
 71
16
 72
15
 73
14
 74
14
 0
VERTEX
 8
MESH_310_F0
 10
0
 20
0
 30
0
 70
128
 71
17
 72
20
 73
19
 74
19
 0
VERTEX
 8
MESH_310_F0
 10
0
 20
0
 30
0
 70
128
 71
17
 72
19
 73
18
 74
18
 0
VERTEX
 8
MESH_310_F0
 10
0
 20
0
 30
0
 70
128
 71
17
 72
21
 73
20
 74
20
 0
VERTEX
 8
MESH_310_F0
 10
0
 20
0
 30
0
 70
128
 71
16
 72
21
 73
17
 74
17
 0
VERTEX
 8
MESH_310_F0
 10
0
 20
0
 30
0
 70
128
 71
22
 72
21
 73
16
 74
16
 0
VERTEX
 8
MESH_310_F0
 10
0
 20
0
 30
0
 70
128
 71
22
 72
16
 73
23
 74
23
 0
VERTEX
 8
MESH_310_F0
 10
0
 20
0
 30
0
 70
128
 71
16
 72
24
 73
23
 74
23
 0
VERTEX
 8
MESH_310_F0
 10
0
 20
0
 30
0
 70
128
 71
25
 72
24
 73
16
 74
16
 0
VERTEX
 8
MESH_310_F0
 10
0
 20
0
 30
0
 70
128
 71
25
 72
16
 73
26
 74
26
 0
VERTEX
 8
MESH_310_F0
 10
0
 20
0
 30
0
 70
128
 71
16
 72
12
 73
26
 74
26
 0
VERTEX
 8
MESH_310_F0
 10
0
 20
0
 30
0
 70
128
 71
11
 72
27
 73
26
 74
26
 0
VERTEX
 8
MESH_310_F0
 10
0
 20
0
 30
0
 70
128
 71
4
 72
30
 73
29
 74
29
 0
VERTEX
 8
MESH_310_F0
 10
0
 20
0
 30
0
 70
128
 71
1
 72
31
 73
30
 74
30
 0
VERTEX
 8
MESH_310_F0
 10
0
 20
0
 30
0
 70
128
 71
32
 72
31
 73
1
 74
1
 0
SEQEND
 0
POLYLINE
 8
MESH_309_F0
 66
1
 10
0.0
 20
0.0
 30
0.0
 70
64
 71
4
 72
2
 0
VERTEX
 8
MESH_309_F0
 10
-1
 20
-412
 30
-240
 70
192
 0
VERTEX
 8
MESH_309_F0
 10
-1
 20
-415
 30
-240
 70
192
 0
VERTEX
 8
MESH_309_F0
 10
-1
 20
-415
 30
-244
 70
192
 0
VERTEX
 8
MESH_309_F0
 10
-1
 20
-412
 30
-244
 70
192
 0
VERTEX
 8
MESH_309_F0
 10
0
 20
0
 30
0
 70
128
 71
4
 72
2
 73
1
 74
1
 0
VERTEX
 8
MESH_309_F0
 10
0
 20
0
 30
0
 70
128
 71
3
 72
2
 73
4
 74
4
 0
SEQEND
 0
POLYLINE
 8
MESH_308_F0
 66
1
 10
0.0
 20
0.0
 30
0.0
 70
64
 71
4
 72
2
 0
VERTEX
 8
MESH_308_F0
 10
-673.501
 20
-440
 30
-244
 70
192
 0
VERTEX
 8
MESH_308_F0
 10
-673.501
 20
-440
 30
-474
 70
192
 0
VERTEX
 8
MESH_308_F0
 10
-26.499
 20
-440
 30
-474
 70
192
 0
VERTEX
 8
MESH_308_F0
 10
-26.499
 20
-440
 30
-244
 70
192
 0
VERTEX
 8
MESH_308_F0
 10
0
 20
0
 30
0
 70
128
 71
1
 72
3
 73
2
 74
2
 0
VERTEX
 8
MESH_308_F0
 10
0
 20
0
 30
0
 70
128
 71
4
 72
3
 73
1
 74
1
 0
SEQEND
 0
POLYLINE
 8
MESH_307_F0
 66
1
 10
0.0
 20
0.0
 30
0.0
 70
64
 71
33
 72
31
 0
VERTEX
 8
MESH_307_F0
 10
-1.7464
 20
-411.5
 30
-474
 70
192
 0
VERTEX
 8
MESH_307_F0
 10
-1.5087
 20
-414.3406
 30
-474
 70
192
 0
VERTEX
 8
MESH_307_F0
 10
-1.596
 20
-417.1897
 30
-474
 70
192
 0
VERTEX
 8
MESH_307_F0
 10
-2.0071
 20
-420.0105
 30
-474
 70
192
 0
VERTEX
 8
MESH_307_F0
 10
-2.7366
 20
-422.7661
 30
-474
 70
192
 0
VERTEX
 8
MESH_307_F0
 10
-3.775
 20
-425.4207
 30
-474
 70
192
 0
VERTEX
 8
MESH_307_F0
 10
-5.1089
 20
-427.9398
 30
-474
 70
192
 0
VERTEX
 8
MESH_307_F0
 10
-6.7209
 20
-430.2908
 30
-474
 70
192
 0
VERTEX
 8
MESH_307_F0
 10
-8.5901
 20
-432.4429
 30
-474
 70
192
 0
VERTEX
 8
MESH_307_F0
 10
-10.6921
 20
-434.3683
 30
-474
 70
192
 0
VERTEX
 8
MESH_307_F0
 10
-12.9996
 20
-436.0418
 30
-474
 70
192
 0
VERTEX
 8
MESH_307_F0
 10
-15.4826
 20
-437.4418
 30
-474
 70
192
 0
VERTEX
 8
MESH_307_F0
 10
-18.1089
 20
-438.55
 30
-474
 70
192
 0
VERTEX
 8
MESH_307_F0
 10
-20.8442
 20
-439.3521
 30
-474
 70
192
 0
VERTEX
 8
MESH_307_F0
 10
-23.6531
 20
-439.8375
 30
-474
 70
192
 0
VERTEX
 8
MESH_307_F0
 10
-26.499
 20
-440
 30
-474
 70
192
 0
VERTEX
 8
MESH_307_F0
 10
-673.501
 20
-440
 30
-474
 70
192
 0
VERTEX
 8
MESH_307_F0
 10
-676.5134
 20
-439.8178
 30
-474
 70
192
 0
VERTEX
 8
MESH_307_F0
 10
-679.4819
 20
-439.274
 30
-474
 70
192
 0
VERTEX
 8
MESH_307_F0
 10
-682.3633
 20
-438.3764
 30
-474
 70
192
 0
VERTEX
 8
MESH_307_F0
 10
-685.1155
 20
-437.1381
 30
-474
 70
192
 0
VERTEX
 8
MESH_307_F0
 10
-687.6984
 20
-435.5773
 30
-474
 70
192
 0
VERTEX
 8
MESH_307_F0
 10
-690.0745
 20
-433.7166
 30
-474
 70
192
 0
VERTEX
 8
MESH_307_F0
 10
-692.2089
 20
-431.583
 30
-474
 70
192
 0
VERTEX
 8
MESH_307_F0
 10
-694.0707
 20
-429.2079
 30
-474
 70
192
 0
VERTEX
 8
MESH_307_F0
 10
-695.6328
 20
-426.6256
 30
-474
 70
192
 0
VERTEX
 8
MESH_307_F0
 10
-696.8723
 20
-423.874
 30
-474
 70
192
 0
VERTEX
 8
MESH_307_F0
 10
-697.7712
 20
-420.9931
 30
-474
 70
192
 0
VERTEX
 8
MESH_307_F0
 10
-698.3164
 20
-418.0248
 30
-474
 70
192
 0
VERTEX
 8
MESH_307_F0
 10
-698.5
 20
-415.0125
 30
-474
 70
192
 0
VERTEX
 8
MESH_307_F0
 10
-698.3192
 20
-412
 30
-474
 70
192
 0
VERTEX
 8
MESH_307_F0
 10
-682
 20
-412
 30
-474
 70
192
 0
VERTEX
 8
MESH_307_F0
 10
-682
 20
-411.5
 30
-474
 70
192
 0
VERTEX
 8
MESH_307_F0
 10
0
 20
0
 30
0
 70
128
 71
33
 72
2
 73
1
 74
1
 0
VERTEX
 8
MESH_307_F0
 10
0
 20
0
 30
0
 70
128
 71
3
 72
2
 73
33
 74
33
 0
VERTEX
 8
MESH_307_F0
 10
0
 20
0
 30
0
 70
128
 71
3
 72
33
 73
4
 74
4
 0
VERTEX
 8
MESH_307_F0
 10
0
 20
0
 30
0
 70
128
 71
33
 72
32
 73
4
 74
4
 0
VERTEX
 8
MESH_307_F0
 10
0
 20
0
 30
0
 70
128
 71
32
 72
30
 73
4
 74
4
 0
VERTEX
 8
MESH_307_F0
 10
0
 20
0
 30
0
 70
128
 71
30
 72
29
 73
4
 74
4
 0
VERTEX
 8
MESH_307_F0
 10
0
 20
0
 30
0
 70
128
 71
29
 72
28
 73
4
 74
4
 0
VERTEX
 8
MESH_307_F0
 10
0
 20
0
 30
0
 70
128
 71
28
 72
27
 73
4
 74
4
 0
VERTEX
 8
MESH_307_F0
 10
0
 20
0
 30
0
 70
128
 71
27
 72
5
 73
4
 74
4
 0
VERTEX
 8
MESH_307_F0
 10
0
 20
0
 30
0
 70
128
 71
26
 72
5
 73
27
 74
27
 0
VERTEX
 8
MESH_307_F0
 10
0
 20
0
 30
0
 70
128
 71
25
 72
5
 73
26
 74
26
 0
VERTEX
 8
MESH_307_F0
 10
0
 20
0
 30
0
 70
128
 71
24
 72
5
 73
25
 74
25
 0
VERTEX
 8
MESH_307_F0
 10
0
 20
0
 30
0
 70
128
 71
6
 72
5
 73
24
 74
24
 0
VERTEX
 8
MESH_307_F0
 10
0
 20
0
 30
0
 70
128
 71
22
 72
6
 73
23
 74
23
 0
VERTEX
 8
MESH_307_F0
 10
0
 20
0
 30
0
 70
128
 71
6
 72
24
 73
23
 74
23
 0
VERTEX
 8
MESH_307_F0
 10
0
 20
0
 30
0
 70
128
 71
22
 72
7
 73
6
 74
6
 0
VERTEX
 8
MESH_307_F0
 10
0
 20
0
 30
0
 70
128
 71
21
 72
7
 73
22
 74
22
 0
VERTEX
 8
MESH_307_F0
 10
0
 20
0
 30
0
 70
128
 71
20
 72
7
 73
21
 74
21
 0
VERTEX
 8
MESH_307_F0
 10
0
 20
0
 30
0
 70
128
 71
17
 72
7
 73
20
 74
20
 0
VERTEX
 8
MESH_307_F0
 10
0
 20
0
 30
0
 70
128
 71
18
 72
17
 73
19
 74
19
 0
VERTEX
 8
MESH_307_F0
 10
0
 20
0
 30
0
 70
128
 71
17
 72
20
 73
19
 74
19
 0
VERTEX
 8
MESH_307_F0
 10
0
 20
0
 30
0
 70
128
 71
17
 72
8
 73
7
 74
7
 0
VERTEX
 8
MESH_307_F0
 10
0
 20
0
 30
0
 70
128
 71
9
 72
8
 73
17
 74
17
 0
VERTEX
 8
MESH_307_F0
 10
0
 20
0
 30
0
 70
128
 71
9
 72
17
 73
10
 74
10
 0
VERTEX
 8
MESH_307_F0
 10
0
 20
0
 30
0
 70
128
 71
17
 72
11
 73
10
 74
10
 0
VERTEX
 8
MESH_307_F0
 10
0
 20
0
 30
0
 70
128
 71
12
 72
11
 73
17
 74
17
 0
VERTEX
 8
MESH_307_F0
 10
0
 20
0
 30
0
 70
128
 71
13
 72
12
 73
16
 74
16
 0
VERTEX
 8
MESH_307_F0
 10
0
 20
0
 30
0
 70
128
 71
13
 72
16
 73
14
 74
14
 0
VERTEX
 8
MESH_307_F0
 10
0
 20
0
 30
0
 70
128
 71
16
 72
15
 73
14
 74
14
 0
VERTEX
 8
MESH_307_F0
 10
0
 20
0
 30
0
 70
128
 71
12
 72
17
 73
16
 74
16
 0
VERTEX
 8
MESH_307_F0
 10
0
 20
0
 30
0
 70
128
 71
32
 72
31
 73
30
 74
30
 0
SEQEND
 0
POLYLINE
 8
MESH_306_F0
 66
1
 10
0.0
 20
0.0
 30
0.0
 70
64
 71
30
 72
28
 0
VERTEX
 8
MESH_306_F0
 10
-698.3192
 20
-412
 30
-474
 70
192
 0
VERTEX
 8
MESH_306_F0
 10
-698.5
 20
-415.0125
 30
-474
 70
192
 0
VERTEX
 8
MESH_306_F0
 10
-698.3164
 20
-418.0248
 30
-474
 70
192
 0
VERTEX
 8
MESH_306_F0
 10
-697.7712
 20
-420.9931
 30
-474
 70
192
 0
VERTEX
 8
MESH_306_F0
 10
-696.8723
 20
-423.874
 30
-474
 70
192
 0
VERTEX
 8
MESH_306_F0
 10
-695.6328
 20
-426.6256
 30
-474
 70
192
 0
VERTEX
 8
MESH_306_F0
 10
-694.0707
 20
-429.2079
 30
-474
 70
192
 0
VERTEX
 8
MESH_306_F0
 10
-692.2089
 20
-431.583
 30
-474
 70
192
 0
VERTEX
 8
MESH_306_F0
 10
-690.0745
 20
-433.7166
 30
-474
 70
192
 0
VERTEX
 8
MESH_306_F0
 10
-687.6984
 20
-435.5773
 30
-474
 70
192
 0
VERTEX
 8
MESH_306_F0
 10
-685.1155
 20
-437.1381
 30
-474
 70
192
 0
VERTEX
 8
MESH_306_F0
 10
-682.3633
 20
-438.3764
 30
-474
 70
192
 0
VERTEX
 8
MESH_306_F0
 10
-679.4819
 20
-439.274
 30
-474
 70
192
 0
VERTEX
 8
MESH_306_F0
 10
-676.5134
 20
-439.8178
 30
-474
 70
192
 0
VERTEX
 8
MESH_306_F0
 10
-673.501
 20
-440
 30
-474
 70
192
 0
VERTEX
 8
MESH_306_F0
 10
-673.501
 20
-440
 30
-244
 70
192
 0
VERTEX
 8
MESH_306_F0
 10
-676.5134
 20
-439.8178
 30
-244
 70
192
 0
VERTEX
 8
MESH_306_F0
 10
-679.4819
 20
-439.274
 30
-244
 70
192
 0
VERTEX
 8
MESH_306_F0
 10
-682.3633
 20
-438.3764
 30
-244
 70
192
 0
VERTEX
 8
MESH_306_F0
 10
-685.1155
 20
-437.1381
 30
-244
 70
192
 0
VERTEX
 8
MESH_306_F0
 10
-687.6984
 20
-435.5773
 30
-244
 70
192
 0
VERTEX
 8
MESH_306_F0
 10
-690.0745
 20
-433.7166
 30
-244
 70
192
 0
VERTEX
 8
MESH_306_F0
 10
-692.2089
 20
-431.583
 30
-244
 70
192
 0
VERTEX
 8
MESH_306_F0
 10
-694.0707
 20
-429.2079
 30
-244
 70
192
 0
VERTEX
 8
MESH_306_F0
 10
-695.6328
 20
-426.6256
 30
-244
 70
192
 0
VERTEX
 8
MESH_306_F0
 10
-696.8723
 20
-423.874
 30
-244
 70
192
 0
VERTEX
 8
MESH_306_F0
 10
-697.7712
 20
-420.9931
 30
-244
 70
192
 0
VERTEX
 8
MESH_306_F0
 10
-698.3164
 20
-418.0248
 30
-244
 70
192
 0
VERTEX
 8
MESH_306_F0
 10
-698.5
 20
-415.0125
 30
-244
 70
192
 0
VERTEX
 8
MESH_306_F0
 10
-698.3192
 20
-412
 30
-244
 70
192
 0
VERTEX
 8
MESH_306_F0
 10
0
 20
0
 30
0
 70
128
 71
29
 72
1
 73
30
 74
30
 0
VERTEX
 8
MESH_306_F0
 10
0
 20
0
 30
0
 70
128
 71
2
 72
1
 73
29
 74
29
 0
VERTEX
 8
MESH_306_F0
 10
0
 20
0
 30
0
 70
128
 71
3
 72
2
 73
28
 74
28
 0
VERTEX
 8
MESH_306_F0
 10
0
 20
0
 30
0
 70
128
 71
4
 72
3
 73
27
 74
27
 0
VERTEX
 8
MESH_306_F0
 10
0
 20
0
 30
0
 70
128
 71
5
 72
4
 73
26
 74
26
 0
VERTEX
 8
MESH_306_F0
 10
0
 20
0
 30
0
 70
128
 71
6
 72
5
 73
25
 74
25
 0
VERTEX
 8
MESH_306_F0
 10
0
 20
0
 30
0
 70
128
 71
7
 72
6
 73
24
 74
24
 0
VERTEX
 8
MESH_306_F0
 10
0
 20
0
 30
0
 70
128
 71
8
 72
7
 73
23
 74
23
 0
VERTEX
 8
MESH_306_F0
 10
0
 20
0
 30
0
 70
128
 71
9
 72
8
 73
22
 74
22
 0
VERTEX
 8
MESH_306_F0
 10
0
 20
0
 30
0
 70
128
 71
10
 72
9
 73
21
 74
21
 0
VERTEX
 8
MESH_306_F0
 10
0
 20
0
 30
0
 70
128
 71
11
 72
10
 73
20
 74
20
 0
VERTEX
 8
MESH_306_F0
 10
0
 20
0
 30
0
 70
128
 71
12
 72
11
 73
19
 74
19
 0
VERTEX
 8
MESH_306_F0
 10
0
 20
0
 30
0
 70
128
 71
13
 72
12
 73
18
 74
18
 0
VERTEX
 8
MESH_306_F0
 10
0
 20
0
 30
0
 70
128
 71
14
 72
13
 73
17
 74
17
 0
VERTEX
 8
MESH_306_F0
 10
0
 20
0
 30
0
 70
128
 71
15
 72
14
 73
16
 74
16
 0
VERTEX
 8
MESH_306_F0
 10
0
 20
0
 30
0
 70
128
 71
14
 72
17
 73
16
 74
16
 0
VERTEX
 8
MESH_306_F0
 10
0
 20
0
 30
0
 70
128
 71
13
 72
18
 73
17
 74
17
 0
VERTEX
 8
MESH_306_F0
 10
0
 20
0
 30
0
 70
128
 71
12
 72
19
 73
18
 74
18
 0
VERTEX
 8
MESH_306_F0
 10
0
 20
0
 30
0
 70
128
 71
11
 72
20
 73
19
 74
19
 0
VERTEX
 8
MESH_306_F0
 10
0
 20
0
 30
0
 70
128
 71
10
 72
21
 73
20
 74
20
 0
VERTEX
 8
MESH_306_F0
 10
0
 20
0
 30
0
 70
128
 71
9
 72
22
 73
21
 74
21
 0
VERTEX
 8
MESH_306_F0
 10
0
 20
0
 30
0
 70
128
 71
8
 72
23
 73
22
 74
22
 0
VERTEX
 8
MESH_306_F0
 10
0
 20
0
 30
0
 70
128
 71
7
 72
24
 73
23
 74
23
 0
VERTEX
 8
MESH_306_F0
 10
0
 20
0
 30
0
 70
128
 71
6
 72
25
 73
24
 74
24
 0
VERTEX
 8
MESH_306_F0
 10
0
 20
0
 30
0
 70
128
 71
5
 72
26
 73
25
 74
25
 0
VERTEX
 8
MESH_306_F0
 10
0
 20
0
 30
0
 70
128
 71
4
 72
27
 73
26
 74
26
 0
VERTEX
 8
MESH_306_F0
 10
0
 20
0
 30
0
 70
128
 71
3
 72
28
 73
27
 74
27
 0
VERTEX
 8
MESH_306_F0
 10
0
 20
0
 30
0
 70
128
 71
2
 72
29
 73
28
 74
28
 0
SEQEND
 0
POLYLINE
 8
MESH_305_F0
 66
1
 10
0.0
 20
0.0
 30
0.0
 70
64
 71
62
 72
60
 0
VERTEX
 8
MESH_305_F0
 10
-698.3192
 20
-412
 30
-244
 70
192
 0
VERTEX
 8
MESH_305_F0
 10
-698.5
 20
-415.0125
 30
-244
 70
192
 0
VERTEX
 8
MESH_305_F0
 10
-698.3164
 20
-418.0248
 30
-244
 70
192
 0
VERTEX
 8
MESH_305_F0
 10
-697.7712
 20
-420.9931
 30
-244
 70
192
 0
VERTEX
 8
MESH_305_F0
 10
-696.8723
 20
-423.874
 30
-244
 70
192
 0
VERTEX
 8
MESH_305_F0
 10
-695.6328
 20
-426.6256
 30
-244
 70
192
 0
VERTEX
 8
MESH_305_F0
 10
-694.0707
 20
-429.2079
 30
-244
 70
192
 0
VERTEX
 8
MESH_305_F0
 10
-692.2089
 20
-431.583
 30
-244
 70
192
 0
VERTEX
 8
MESH_305_F0
 10
-690.0745
 20
-433.7166
 30
-244
 70
192
 0
VERTEX
 8
MESH_305_F0
 10
-687.6984
 20
-435.5773
 30
-244
 70
192
 0
VERTEX
 8
MESH_305_F0
 10
-685.1155
 20
-437.1381
 30
-244
 70
192
 0
VERTEX
 8
MESH_305_F0
 10
-682.3633
 20
-438.3764
 30
-244
 70
192
 0
VERTEX
 8
MESH_305_F0
 10
-679.4819
 20
-439.274
 30
-244
 70
192
 0
VERTEX
 8
MESH_305_F0
 10
-676.5134
 20
-439.8178
 30
-244
 70
192
 0
VERTEX
 8
MESH_305_F0
 10
-673.501
 20
-440
 30
-244
 70
192
 0
VERTEX
 8
MESH_305_F0
 10
-26.499
 20
-440
 30
-244
 70
192
 0
VERTEX
 8
MESH_305_F0
 10
-23.4866
 20
-439.8178
 30
-244
 70
192
 0
VERTEX
 8
MESH_305_F0
 10
-20.5181
 20
-439.274
 30
-244
 70
192
 0
VERTEX
 8
MESH_305_F0
 10
-17.6367
 20
-438.3764
 30
-244
 70
192
 0
VERTEX
 8
MESH_305_F0
 10
-14.8845
 20
-437.1381
 30
-244
 70
192
 0
VERTEX
 8
MESH_305_F0
 10
-12.3016
 20
-435.5773
 30
-244
 70
192
 0
VERTEX
 8
MESH_305_F0
 10
-9.9256
 20
-433.7166
 30
-244
 70
192
 0
VERTEX
 8
MESH_305_F0
 10
-7.7911
 20
-431.583
 30
-244
 70
192
 0
VERTEX
 8
MESH_305_F0
 10
-5.9292
 20
-429.2079
 30
-244
 70
192
 0
VERTEX
 8
MESH_305_F0
 10
-4.3672
 20
-426.6256
 30
-244
 70
192
 0
VERTEX
 8
MESH_305_F0
 10
-3.1277
 20
-423.874
 30
-244
 70
192
 0
VERTEX
 8
MESH_305_F0
 10
-2.2288
 20
-420.9931
 30
-244
 70
192
 0
VERTEX
 8
MESH_305_F0
 10
-1.6836
 20
-418.0248
 30
-244
 70
192
 0
VERTEX
 8
MESH_305_F0
 10
-1.5
 20
-415.0125
 30
-244
 70
192
 0
VERTEX
 8
MESH_305_F0
 10
-1.6808
 20
-412
 30
-244
 70
192
 0
VERTEX
 8
MESH_305_F0
 10
-1
 20
-412
 30
-244
 70
192
 0
VERTEX
 8
MESH_305_F0
 10
-1
 20
-415
 30
-244
 70
192
 0
VERTEX
 8
MESH_305_F0
 10
-1.1647
 20
-417.8842
 30
-244
 70
192
 0
VERTEX
 8
MESH_305_F0
 10
-1.6456
 20
-420.7017
 30
-244
 70
192
 0
VERTEX
 8
MESH_305_F0
 10
-2.4398
 20
-423.4446
 30
-244
 70
192
 0
VERTEX
 8
MESH_305_F0
 10
-3.5376
 20
-426.0894
 30
-244
 70
192
 0
VERTEX
 8
MESH_305_F0
 10
-4.9193
 20
-428.5844
 30
-244
 70
192
 0
VERTEX
 8
MESH_305_F0
 10
-6.5704
 20
-430.9077
 30
-244
 70
192
 0
VERTEX
 8
MESH_305_F0
 10
-8.4692
 20
-433.0308
 30
-244
 70
192
 0
VERTEX
 8
MESH_305_F0
 10
-10.5922
 20
-434.9296
 30
-244
 70
192
 0
VERTEX
 8
MESH_305_F0
 10
-12.9155
 20
-436.5807
 30
-244
 70
192
 0
VERTEX
 8
MESH_305_F0
 10
-15.4106
 20
-437.9624
 30
-244
 70
192
 0
VERTEX
 8
MESH_305_F0
 10
-18.0554
 20
-439.0602
 30
-244
 70
192
 0
VERTEX
 8
MESH_305_F0
 10
-20.7983
 20
-439.8543
 30
-244
 70
192
 0
VERTEX
 8
MESH_305_F0
 10
-23.6158
 20
-440.3353
 30
-244
 70
192
 0
VERTEX
 8
MESH_305_F0
 10
-26.5
 20
-440.5
 30
-244
 70
192
 0
VERTEX
 8
MESH_305_F0
 10
-673.5
 20
-440.5
 30
-244
 70
192
 0
VERTEX
 8
MESH_305_F0
 10
-676.3842
 20
-440.3353
 30
-244
 70
192
 0
VERTEX
 8
MESH_305_F0
 10
-679.2017
 20
-439.8543
 30
-244
 70
192
 0
VERTEX
 8
MESH_305_F0
 10
-681.9446
 20
-439.0602
 30
-244
 70
192
 0
VERTEX
 8
MESH_305_F0
 10
-684.5894
 20
-437.9624
 30
-244
 70
192
 0
VERTEX
 8
MESH_305_F0
 10
-687.0845
 20
-436.5807
 30
-244
 70
192
 0
VERTEX
 8
MESH_305_F0
 10
-689.4078
 20
-434.9296
 30
-244
 70
192
 0
VERTEX
 8
MESH_305_F0
 10
-691.5308
 20
-433.0308
 30
-244
 70
192
 0
VERTEX
 8
MESH_305_F0
 10
-693.4296
 20
-430.9077
 30
-244
 70
192
 0
VERTEX
 8
MESH_305_F0
 10
-695.0807
 20
-428.5844
 30
-244
 70
192
 0
VERTEX
 8
MESH_305_F0
 10
-696.4624
 20
-426.0894
 30
-244
 70
192
 0
VERTEX
 8
MESH_305_F0
 10
-697.5602
 20
-423.4446
 30
-244
 70
192
 0
VERTEX
 8
MESH_305_F0
 10
-698.3544
 20
-420.7017
 30
-244
 70
192
 0
VERTEX
 8
MESH_305_F0
 10
-698.8353
 20
-417.8842
 30
-244
 70
192
 0
VERTEX
 8
MESH_305_F0
 10
-699
 20
-415
 30
-244
 70
192
 0
VERTEX
 8
MESH_305_F0
 10
-699
 20
-412
 30
-244
 70
192
 0
VERTEX
 8
MESH_305_F0
 10
0
 20
0
 30
0
 70
128
 71
62
 72
2
 73
1
 74
1
 0
VERTEX
 8
MESH_305_F0
 10
0
 20
0
 30
0
 70
128
 71
61
 72
2
 73
62
 74
62
 0
VERTEX
 8
MESH_305_F0
 10
0
 20
0
 30
0
 70
128
 71
60
 72
2
 73
61
 74
61
 0
VERTEX
 8
MESH_305_F0
 10
0
 20
0
 30
0
 70
128
 71
3
 72
2
 73
60
 74
60
 0
VERTEX
 8
MESH_305_F0
 10
0
 20
0
 30
0
 70
128
 71
4
 72
3
 73
59
 74
59
 0
VERTEX
 8
MESH_305_F0
 10
0
 20
0
 30
0
 70
128
 71
5
 72
4
 73
58
 74
58
 0
VERTEX
 8
MESH_305_F0
 10
0
 20
0
 30
0
 70
128
 71
6
 72
5
 73
57
 74
57
 0
VERTEX
 8
MESH_305_F0
 10
0
 20
0
 30
0
 70
128
 71
7
 72
6
 73
56
 74
56
 0
VERTEX
 8
MESH_305_F0
 10
0
 20
0
 30
0
 70
128
 71
8
 72
7
 73
55
 74
55
 0
VERTEX
 8
MESH_305_F0
 10
0
 20
0
 30
0
 70
128
 71
9
 72
8
 73
54
 74
54
 0
VERTEX
 8
MESH_305_F0
 10
0
 20
0
 30
0
 70
128
 71
10
 72
9
 73
53
 74
53
 0
VERTEX
 8
MESH_305_F0
 10
0
 20
0
 30
0
 70
128
 71
11
 72
10
 73
52
 74
52
 0
VERTEX
 8
MESH_305_F0
 10
0
 20
0
 30
0
 70
128
 71
12
 72
11
 73
51
 74
51
 0
VERTEX
 8
MESH_305_F0
 10
0
 20
0
 30
0
 70
128
 71
13
 72
12
 73
50
 74
50
 0
VERTEX
 8
MESH_305_F0
 10
0
 20
0
 30
0
 70
128
 71
14
 72
13
 73
49
 74
49
 0
VERTEX
 8
MESH_305_F0
 10
0
 20
0
 30
0
 70
128
 71
14
 72
49
 73
15
 74
15
 0
VERTEX
 8
MESH_305_F0
 10
0
 20
0
 30
0
 70
128
 71
49
 72
48
 73
15
 74
15
 0
VERTEX
 8
MESH_305_F0
 10
0
 20
0
 30
0
 70
128
 71
48
 72
47
 73
15
 74
15
 0
VERTEX
 8
MESH_305_F0
 10
0
 20
0
 30
0
 70
128
 71
47
 72
46
 73
15
 74
15
 0
VERTEX
 8
MESH_305_F0
 10
0
 20
0
 30
0
 70
128
 71
46
 72
16
 73
15
 74
15
 0
VERTEX
 8
MESH_305_F0
 10
0
 20
0
 30
0
 70
128
 71
45
 72
16
 73
46
 74
46
 0
VERTEX
 8
MESH_305_F0
 10
0
 20
0
 30
0
 70
128
 71
44
 72
16
 73
45
 74
45
 0
VERTEX
 8
MESH_305_F0
 10
0
 20
0
 30
0
 70
128
 71
17
 72
16
 73
44
 74
44
 0
VERTEX
 8
MESH_305_F0
 10
0
 20
0
 30
0
 70
128
 71
17
 72
44
 73
18
 74
18
 0
VERTEX
 8
MESH_305_F0
 10
0
 20
0
 30
0
 70
128
 71
44
 72
43
 73
18
 74
18
 0
VERTEX
 8
MESH_305_F0
 10
0
 20
0
 30
0
 70
128
 71
43
 72
19
 73
18
 74
18
 0
VERTEX
 8
MESH_305_F0
 10
0
 20
0
 30
0
 70
128
 71
42
 72
19
 73
43
 74
43
 0
VERTEX
 8
MESH_305_F0
 10
0
 20
0
 30
0
 70
128
 71
20
 72
19
 73
42
 74
42
 0
VERTEX
 8
MESH_305_F0
 10
0
 20
0
 30
0
 70
128
 71
21
 72
20
 73
41
 74
41
 0
VERTEX
 8
MESH_305_F0
 10
0
 20
0
 30
0
 70
128
 71
22
 72
21
 73
40
 74
40
 0
VERTEX
 8
MESH_305_F0
 10
0
 20
0
 30
0
 70
128
 71
23
 72
22
 73
39
 74
39
 0
VERTEX
 8
MESH_305_F0
 10
0
 20
0
 30
0
 70
128
 71
24
 72
23
 73
38
 74
38
 0
VERTEX
 8
MESH_305_F0
 10
0
 20
0
 30
0
 70
128
 71
25
 72
24
 73
37
 74
37
 0
VERTEX
 8
MESH_305_F0
 10
0
 20
0
 30
0
 70
128
 71
26
 72
25
 73
36
 74
36
 0
VERTEX
 8
MESH_305_F0
 10
0
 20
0
 30
0
 70
128
 71
27
 72
26
 73
35
 74
35
 0
VERTEX
 8
MESH_305_F0
 10
0
 20
0
 30
0
 70
128
 71
28
 72
27
 73
34
 74
34
 0
VERTEX
 8
MESH_305_F0
 10
0
 20
0
 30
0
 70
128
 71
29
 72
28
 73
33
 74
33
 0
VERTEX
 8
MESH_305_F0
 10
0
 20
0
 30
0
 70
128
 71
30
 72
29
 73
32
 74
32
 0
VERTEX
 8
MESH_305_F0
 10
0
 20
0
 30
0
 70
128
 71
30
 72
32
 73
31
 74
31
 0
VERTEX
 8
MESH_305_F0
 10
0
 20
0
 30
0
 70
128
 71
29
 72
33
 73
32
 74
32
 0
VERTEX
 8
MESH_305_F0
 10
0
 20
0
 30
0
 70
128
 71
28
 72
34
 73
33
 74
33
 0
VERTEX
 8
MESH_305_F0
 10
0
 20
0
 30
0
 70
128
 71
27
 72
35
 73
34
 74
34
 0
VERTEX
 8
MESH_305_F0
 10
0
 20
0
 30
0
 70
128
 71
26
 72
36
 73
35
 74
35
 0
VERTEX
 8
MESH_305_F0
 10
0
 20
0
 30
0
 70
128
 71
25
 72
37
 73
36
 74
36
 0
VERTEX
 8
MESH_305_F0
 10
0
 20
0
 30
0
 70
128
 71
24
 72
38
 73
37
 74
37
 0
VERTEX
 8
MESH_305_F0
 10
0
 20
0
 30
0
 70
128
 71
23
 72
39
 73
38
 74
38
 0
VERTEX
 8
MESH_305_F0
 10
0
 20
0
 30
0
 70
128
 71
22
 72
40
 73
39
 74
39
 0
VERTEX
 8
MESH_305_F0
 10
0
 20
0
 30
0
 70
128
 71
21
 72
41
 73
40
 74
40
 0
VERTEX
 8
MESH_305_F0
 10
0
 20
0
 30
0
 70
128
 71
20
 72
42
 73
41
 74
41
 0
VERTEX
 8
MESH_305_F0
 10
0
 20
0
 30
0
 70
128
 71
13
 72
50
 73
49
 74
49
 0
VERTEX
 8
MESH_305_F0
 10
0
 20
0
 30
0
 70
128
 71
12
 72
51
 73
50
 74
50
 0
VERTEX
 8
MESH_305_F0
 10
0
 20
0
 30
0
 70
128
 71
11
 72
52
 73
51
 74
51
 0
VERTEX
 8
MESH_305_F0
 10
0
 20
0
 30
0
 70
128
 71
10
 72
53
 73
52
 74
52
 0
VERTEX
 8
MESH_305_F0
 10
0
 20
0
 30
0
 70
128
 71
9
 72
54
 73
53
 74
53
 0
VERTEX
 8
MESH_305_F0
 10
0
 20
0
 30
0
 70
128
 71
8
 72
55
 73
54
 74
54
 0
VERTEX
 8
MESH_305_F0
 10
0
 20
0
 30
0
 70
128
 71
7
 72
56
 73
55
 74
55
 0
VERTEX
 8
MESH_305_F0
 10
0
 20
0
 30
0
 70
128
 71
6
 72
57
 73
56
 74
56
 0
VERTEX
 8
MESH_305_F0
 10
0
 20
0
 30
0
 70
128
 71
5
 72
58
 73
57
 74
57
 0
VERTEX
 8
MESH_305_F0
 10
0
 20
0
 30
0
 70
128
 71
4
 72
59
 73
58
 74
58
 0
VERTEX
 8
MESH_305_F0
 10
0
 20
0
 30
0
 70
128
 71
3
 72
60
 73
59
 74
59
 0
SEQEND
 0
POLYLINE
 8
MESH_304_F0
 66
1
 10
0.0
 20
0.0
 30
0.0
 70
64
 71
35
 72
33
 0
VERTEX
 8
MESH_304_F0
 10
-1.7464
 20
-411.5
 30
-456.5
 70
192
 0
VERTEX
 8
MESH_304_F0
 10
-1.7234
 20
-411.6665
 30
-456.5
 70
192
 0
VERTEX
 8
MESH_304_F0
 10
-1.7015
 20
-411.8332
 30
-456.5
 70
192
 0
VERTEX
 8
MESH_304_F0
 10
-1.6808
 20
-412
 30
-456.5
 70
192
 0
VERTEX
 8
MESH_304_F0
 10
-1.6808
 20
-412
 30
-244
 70
192
 0
VERTEX
 8
MESH_304_F0
 10
-1.5
 20
-415.0125
 30
-244
 70
192
 0
VERTEX
 8
MESH_304_F0
 10
-1.6836
 20
-418.0248
 30
-244
 70
192
 0
VERTEX
 8
MESH_304_F0
 10
-2.2288
 20
-420.9931
 30
-244
 70
192
 0
VERTEX
 8
MESH_304_F0
 10
-3.1277
 20
-423.874
 30
-244
 70
192
 0
VERTEX
 8
MESH_304_F0
 10
-4.3672
 20
-426.6256
 30
-244
 70
192
 0
VERTEX
 8
MESH_304_F0
 10
-5.9292
 20
-429.2079
 30
-244
 70
192
 0
VERTEX
 8
MESH_304_F0
 10
-7.7911
 20
-431.583
 30
-244
 70
192
 0
VERTEX
 8
MESH_304_F0
 10
-9.9256
 20
-433.7166
 30
-244
 70
192
 0
VERTEX
 8
MESH_304_F0
 10
-12.3016
 20
-435.5773
 30
-244
 70
192
 0
VERTEX
 8
MESH_304_F0
 10
-14.8845
 20
-437.1381
 30
-244
 70
192
 0
VERTEX
 8
MESH_304_F0
 10
-17.6367
 20
-438.3764
 30
-244
 70
192
 0
VERTEX
 8
MESH_304_F0
 10
-20.5181
 20
-439.274
 30
-244
 70
192
 0
VERTEX
 8
MESH_304_F0
 10
-23.4866
 20
-439.8178
 30
-244
 70
192
 0
VERTEX
 8
MESH_304_F0
 10
-26.499
 20
-440
 30
-244
 70
192
 0
VERTEX
 8
MESH_304_F0
 10
-26.499
 20
-440
 30
-474
 70
192
 0
VERTEX
 8
MESH_304_F0
 10
-23.6531
 20
-439.8375
 30
-474
 70
192
 0
VERTEX
 8
MESH_304_F0
 10
-20.8442
 20
-439.3521
 30
-474
 70
192
 0
VERTEX
 8
MESH_304_F0
 10
-18.1089
 20
-438.55
 30
-474
 70
192
 0
VERTEX
 8
MESH_304_F0
 10
-15.4826
 20
-437.4418
 30
-474
 70
192
 0
VERTEX
 8
MESH_304_F0
 10
-12.9996
 20
-436.0418
 30
-474
 70
192
 0
VERTEX
 8
MESH_304_F0
 10
-10.6921
 20
-434.3683
 30
-474
 70
192
 0
VERTEX
 8
MESH_304_F0
 10
-8.5901
 20
-432.4429
 30
-474
 70
192
 0
VERTEX
 8
MESH_304_F0
 10
-6.7209
 20
-430.2908
 30
-474
 70
192
 0
VERTEX
 8
MESH_304_F0
 10
-5.1089
 20
-427.9398
 30
-474
 70
192
 0
VERTEX
 8
MESH_304_F0
 10
-3.775
 20
-425.4207
 30
-474
 70
192
 0
VERTEX
 8
MESH_304_F0
 10
-2.7366
 20
-422.7661
 30
-474
 70
192
 0
VERTEX
 8
MESH_304_F0
 10
-2.0071
 20
-420.0105
 30
-474
 70
192
 0
VERTEX
 8
MESH_304_F0
 10
-1.596
 20
-417.1897
 30
-474
 70
192
 0
VERTEX
 8
MESH_304_F0
 10
-1.5087
 20
-414.3406
 30
-474
 70
192
 0
VERTEX
 8
MESH_304_F0
 10
-1.7464
 20
-411.5
 30
-474
 70
192
 0
VERTEX
 8
MESH_304_F0
 10
0
 20
0
 30
0
 70
128
 71
35
 72
2
 73
1
 74
1
 0
VERTEX
 8
MESH_304_F0
 10
0
 20
0
 30
0
 70
128
 71
3
 72
2
 73
35
 74
35
 0
VERTEX
 8
MESH_304_F0
 10
0
 20
0
 30
0
 70
128
 71
3
 72
35
 73
4
 74
4
 0
VERTEX
 8
MESH_304_F0
 10
0
 20
0
 30
0
 70
128
 71
35
 72
34
 73
4
 74
4
 0
VERTEX
 8
MESH_304_F0
 10
0
 20
0
 30
0
 70
128
 71
34
 72
5
 73
4
 74
4
 0
VERTEX
 8
MESH_304_F0
 10
0
 20
0
 30
0
 70
128
 71
6
 72
5
 73
34
 74
34
 0
VERTEX
 8
MESH_304_F0
 10
0
 20
0
 30
0
 70
128
 71
7
 72
6
 73
33
 74
33
 0
VERTEX
 8
MESH_304_F0
 10
0
 20
0
 30
0
 70
128
 71
8
 72
7
 73
32
 74
32
 0
VERTEX
 8
MESH_304_F0
 10
0
 20
0
 30
0
 70
128
 71
9
 72
8
 73
31
 74
31
 0
VERTEX
 8
MESH_304_F0
 10
0
 20
0
 30
0
 70
128
 71
10
 72
9
 73
30
 74
30
 0
VERTEX
 8
MESH_304_F0
 10
0
 20
0
 30
0
 70
128
 71
11
 72
10
 73
29
 74
29
 0
VERTEX
 8
MESH_304_F0
 10
0
 20
0
 30
0
 70
128
 71
12
 72
11
 73
28
 74
28
 0
VERTEX
 8
MESH_304_F0
 10
0
 20
0
 30
0
 70
128
 71
13
 72
12
 73
27
 74
27
 0
VERTEX
 8
MESH_304_F0
 10
0
 20
0
 30
0
 70
128
 71
14
 72
13
 73
26
 74
26
 0
VERTEX
 8
MESH_304_F0
 10
0
 20
0
 30
0
 70
128
 71
15
 72
14
 73
25
 74
25
 0
VERTEX
 8
MESH_304_F0
 10
0
 20
0
 30
0
 70
128
 71
16
 72
15
 73
24
 74
24
 0
VERTEX
 8
MESH_304_F0
 10
0
 20
0
 30
0
 70
128
 71
17
 72
16
 73
23
 74
23
 0
VERTEX
 8
MESH_304_F0
 10
0
 20
0
 30
0
 70
128
 71
18
 72
17
 73
22
 74
22
 0
VERTEX
 8
MESH_304_F0
 10
0
 20
0
 30
0
 70
128
 71
19
 72
18
 73
21
 74
21
 0
VERTEX
 8
MESH_304_F0
 10
0
 20
0
 30
0
 70
128
 71
19
 72
21
 73
20
 74
20
 0
VERTEX
 8
MESH_304_F0
 10
0
 20
0
 30
0
 70
128
 71
18
 72
22
 73
21
 74
21
 0
VERTEX
 8
MESH_304_F0
 10
0
 20
0
 30
0
 70
128
 71
17
 72
23
 73
22
 74
22
 0
VERTEX
 8
MESH_304_F0
 10
0
 20
0
 30
0
 70
128
 71
16
 72
24
 73
23
 74
23
 0
VERTEX
 8
MESH_304_F0
 10
0
 20
0
 30
0
 70
128
 71
15
 72
25
 73
24
 74
24
 0
VERTEX
 8
MESH_304_F0
 10
0
 20
0
 30
0
 70
128
 71
14
 72
26
 73
25
 74
25
 0
VERTEX
 8
MESH_304_F0
 10
0
 20
0
 30
0
 70
128
 71
13
 72
27
 73
26
 74
26
 0
VERTEX
 8
MESH_304_F0
 10
0
 20
0
 30
0
 70
128
 71
12
 72
28
 73
27
 74
27
 0
VERTEX
 8
MESH_304_F0
 10
0
 20
0
 30
0
 70
128
 71
11
 72
29
 73
28
 74
28
 0
VERTEX
 8
MESH_304_F0
 10
0
 20
0
 30
0
 70
128
 71
10
 72
30
 73
29
 74
29
 0
VERTEX
 8
MESH_304_F0
 10
0
 20
0
 30
0
 70
128
 71
9
 72
31
 73
30
 74
30
 0
VERTEX
 8
MESH_304_F0
 10
0
 20
0
 30
0
 70
128
 71
8
 72
32
 73
31
 74
31
 0
VERTEX
 8
MESH_304_F0
 10
0
 20
0
 30
0
 70
128
 71
7
 72
33
 73
32
 74
32
 0
VERTEX
 8
MESH_304_F0
 10
0
 20
0
 30
0
 70
128
 71
6
 72
34
 73
33
 74
33
 0
SEQEND
 0
POLYLINE
 8
MESH_303_F0
 66
1
 10
0.0
 20
0.0
 30
0.0
 70
64
 71
6
 72
4
 0
VERTEX
 8
MESH_303_F0
 10
1.5
 20
-412
 30
-456.5
 70
192
 0
VERTEX
 8
MESH_303_F0
 10
-1.6808
 20
-412
 30
-456.5
 70
192
 0
VERTEX
 8
MESH_303_F0
 10
-1.7015
 20
-411.8332
 30
-456.5
 70
192
 0
VERTEX
 8
MESH_303_F0
 10
-1.7234
 20
-411.6665
 30
-456.5
 70
192
 0
VERTEX
 8
MESH_303_F0
 10
-1.7464
 20
-411.5
 30
-456.5
 70
192
 0
VERTEX
 8
MESH_303_F0
 10
1.5
 20
-411.5
 30
-456.5
 70
192
 0
VERTEX
 8
MESH_303_F0
 10
0
 20
0
 30
0
 70
128
 71
1
 72
3
 73
2
 74
2
 0
VERTEX
 8
MESH_303_F0
 10
0
 20
0
 30
0
 70
128
 71
4
 72
3
 73
1
 74
1
 0
VERTEX
 8
MESH_303_F0
 10
0
 20
0
 30
0
 70
128
 71
5
 72
4
 73
6
 74
6
 0
VERTEX
 8
MESH_303_F0
 10
0
 20
0
 30
0
 70
128
 71
4
 72
1
 73
6
 74
6
 0
SEQEND
 0
POLYLINE
 8
MESH_302_F0
 66
1
 10
0.0
 20
0.0
 30
0.0
 70
64
 71
8
 72
6
 0
VERTEX
 8
MESH_302_F0
 10
1.5
 20
-411.5
 30
-456.5
 70
192
 0
VERTEX
 8
MESH_302_F0
 10
-1.7464
 20
-411.5
 30
-456.5
 70
192
 0
VERTEX
 8
MESH_302_F0
 10
-1.7464
 20
-411.5
 30
-474
 70
192
 0
VERTEX
 8
MESH_302_F0
 10
-682
 20
-411.5
 30
-474
 70
192
 0
VERTEX
 8
MESH_302_F0
 10
-682
 20
-411.5
 30
-474.5
 70
192
 0
VERTEX
 8
MESH_302_F0
 10
682
 20
-411.5
 30
-474.5
 70
192
 0
VERTEX
 8
MESH_302_F0
 10
682
 20
-411.5
 30
-474
 70
192
 0
VERTEX
 8
MESH_302_F0
 10
1.5
 20
-411.5
 30
-474
 70
192
 0
VERTEX
 8
MESH_302_F0
 10
0
 20
0
 30
0
 70
128
 71
8
 72
2
 73
1
 74
1
 0
VERTEX
 8
MESH_302_F0
 10
0
 20
0
 30
0
 70
128
 71
3
 72
2
 73
8
 74
8
 0
VERTEX
 8
MESH_302_F0
 10
0
 20
0
 30
0
 70
128
 71
5
 72
3
 73
6
 74
6
 0
VERTEX
 8
MESH_302_F0
 10
0
 20
0
 30
0
 70
128
 71
3
 72
8
 73
6
 74
6
 0
VERTEX
 8
MESH_302_F0
 10
0
 20
0
 30
0
 70
128
 71
8
 72
7
 73
6
 74
6
 0
VERTEX
 8
MESH_302_F0
 10
0
 20
0
 30
0
 70
128
 71
5
 72
4
 73
3
 74
3
 0
SEQEND
 0
POLYLINE
 8
MESH_301_F0
 66
1
 10
0.0
 20
0.0
 30
0.0
 70
64
 71
6
 72
4
 0
VERTEX
 8
MESH_301_F0
 10
682
 20
-411.5
 30
-474
 70
192
 0
VERTEX
 8
MESH_301_F0
 10
682
 20
-411.5
 30
-474.5
 70
192
 0
VERTEX
 8
MESH_301_F0
 10
682
 20
0
 30
-474.5
 70
192
 0
VERTEX
 8
MESH_301_F0
 10
682
 20
0
 30
-475
 70
192
 0
VERTEX
 8
MESH_301_F0
 10
682
 20
-412
 30
-475
 70
192
 0
VERTEX
 8
MESH_301_F0
 10
682
 20
-412
 30
-474
 70
192
 0
VERTEX
 8
MESH_301_F0
 10
0
 20
0
 30
0
 70
128
 71
6
 72
2
 73
1
 74
1
 0
VERTEX
 8
MESH_301_F0
 10
0
 20
0
 30
0
 70
128
 71
5
 72
2
 73
6
 74
6
 0
VERTEX
 8
MESH_301_F0
 10
0
 20
0
 30
0
 70
128
 71
3
 72
2
 73
5
 74
5
 0
VERTEX
 8
MESH_301_F0
 10
0
 20
0
 30
0
 70
128
 71
3
 72
5
 73
4
 74
4
 0
SEQEND
 0
POLYLINE
 8
MESH_300_F0
 66
1
 10
0.0
 20
0.0
 30
0.0
 70
64
 71
34
 72
32
 0
VERTEX
 8
MESH_300_F0
 10
682
 20
-411.5
 30
-474
 70
192
 0
VERTEX
 8
MESH_300_F0
 10
682
 20
-412
 30
-474
 70
192
 0
VERTEX
 8
MESH_300_F0
 10
698.5
 20
-412
 30
-474
 70
192
 0
VERTEX
 8
MESH_300_F0
 10
698.5
 20
-417
 30
-474
 70
192
 0
VERTEX
 8
MESH_300_F0
 10
698.3514
 20
-419.6014
 30
-474
 70
192
 0
VERTEX
 8
MESH_300_F0
 10
697.9177
 20
-422.1427
 30
-474
 70
192
 0
VERTEX
 8
MESH_300_F0
 10
697.2014
 20
-424.6167
 30
-474
 70
192
 0
VERTEX
 8
MESH_300_F0
 10
696.2112
 20
-427.0022
 30
-474
 70
192
 0
VERTEX
 8
MESH_300_F0
 10
694.9649
 20
-429.2526
 30
-474
 70
192
 0
VERTEX
 8
MESH_300_F0
 10
693.4757
 20
-431.3482
 30
-474
 70
192
 0
VERTEX
 8
MESH_300_F0
 10
691.7631
 20
-433.2631
 30
-474
 70
192
 0
VERTEX
 8
MESH_300_F0
 10
689.8481
 20
-434.9757
 30
-474
 70
192
 0
VERTEX
 8
MESH_300_F0
 10
687.7526
 20
-436.4649
 30
-474
 70
192
 0
VERTEX
 8
MESH_300_F0
 10
685.5022
 20
-437.7112
 30
-474
 70
192
 0
VERTEX
 8
MESH_300_F0
 10
683.1167
 20
-438.7013
 30
-474
 70
192
 0
VERTEX
 8
MESH_300_F0
 10
680.6427
 20
-439.4177
 30
-474
 70
192
 0
VERTEX
 8
MESH_300_F0
 10
678.1014
 20
-439.8514
 30
-474
 70
192
 0
VERTEX
 8
MESH_300_F0
 10
675.5
 20
-440
 30
-474
 70
192
 0
VERTEX
 8
MESH_300_F0
 10
24.5
 20
-440
 30
-474
 70
192
 0
VERTEX
 8
MESH_300_F0
 10
21.8986
 20
-439.8514
 30
-474
 70
192
 0
VERTEX
 8
MESH_300_F0
 10
19.3573
 20
-439.4177
 30
-474
 70
192
 0
VERTEX
 8
MESH_300_F0
 10
16.8833
 20
-438.7013
 30
-474
 70
192
 0
VERTEX
 8
MESH_300_F0
 10
14.4978
 20
-437.7112
 30
-474
 70
192
 0
VERTEX
 8
MESH_300_F0
 10
12.2474
 20
-436.4649
 30
-474
 70
192
 0
VERTEX
 8
MESH_300_F0
 10
10.1518
 20
-434.9757
 30
-474
 70
192
 0
VERTEX
 8
MESH_300_F0
 10
8.2369
 20
-433.2631
 30
-474
 70
192
 0
VERTEX
 8
MESH_300_F0
 10
6.5243
 20
-431.3482
 30
-474
 70
192
 0
VERTEX
 8
MESH_300_F0
 10
5.0351
 20
-429.2526
 30
-474
 70
192
 0
VERTEX
 8
MESH_300_F0
 10
3.7888
 20
-427.0022
 30
-474
 70
192
 0
VERTEX
 8
MESH_300_F0
 10
2.7987
 20
-424.6167
 30
-474
 70
192
 0
VERTEX
 8
MESH_300_F0
 10
2.0823
 20
-422.1427
 30
-474
 70
192
 0
VERTEX
 8
MESH_300_F0
 10
1.6485
 20
-419.6014
 30
-474
 70
192
 0
VERTEX
 8
MESH_300_F0
 10
1.5
 20
-417
 30
-474
 70
192
 0
VERTEX
 8
MESH_300_F0
 10
1.5
 20
-411.5
 30
-474
 70
192
 0
VERTEX
 8
MESH_300_F0
 10
0
 20
0
 30
0
 70
128
 71
34
 72
2
 73
1
 74
1
 0
VERTEX
 8
MESH_300_F0
 10
0
 20
0
 30
0
 70
128
 71
33
 72
2
 73
34
 74
34
 0
VERTEX
 8
MESH_300_F0
 10
0
 20
0
 30
0
 70
128
 71
32
 72
2
 73
33
 74
33
 0
VERTEX
 8
MESH_300_F0
 10
0
 20
0
 30
0
 70
128
 71
31
 72
2
 73
32
 74
32
 0
VERTEX
 8
MESH_300_F0
 10
0
 20
0
 30
0
 70
128
 71
8
 72
2
 73
31
 74
31
 0
VERTEX
 8
MESH_300_F0
 10
0
 20
0
 30
0
 70
128
 71
8
 72
31
 73
9
 74
9
 0
VERTEX
 8
MESH_300_F0
 10
0
 20
0
 30
0
 70
128
 71
31
 72
30
 73
9
 74
9
 0
VERTEX
 8
MESH_300_F0
 10
0
 20
0
 30
0
 70
128
 71
30
 72
29
 73
9
 74
9
 0
VERTEX
 8
MESH_300_F0
 10
0
 20
0
 30
0
 70
128
 71
29
 72
10
 73
9
 74
9
 0
VERTEX
 8
MESH_300_F0
 10
0
 20
0
 30
0
 70
128
 71
11
 72
10
 73
29
 74
29
 0
VERTEX
 8
MESH_300_F0
 10
0
 20
0
 30
0
 70
128
 71
11
 72
29
 73
12
 74
12
 0
VERTEX
 8
MESH_300_F0
 10
0
 20
0
 30
0
 70
128
 71
29
 72
13
 73
12
 74
12
 0
VERTEX
 8
MESH_300_F0
 10
0
 20
0
 30
0
 70
128
 71
14
 72
13
 73
29
 74
29
 0
VERTEX
 8
MESH_300_F0
 10
0
 20
0
 30
0
 70
128
 71
14
 72
29
 73
15
 74
15
 0
VERTEX
 8
MESH_300_F0
 10
0
 20
0
 30
0
 70
128
 71
29
 72
16
 73
15
 74
15
 0
VERTEX
 8
MESH_300_F0
 10
0
 20
0
 30
0
 70
128
 71
28
 72
16
 73
29
 74
29
 0
VERTEX
 8
MESH_300_F0
 10
0
 20
0
 30
0
 70
128
 71
27
 72
16
 73
28
 74
28
 0
VERTEX
 8
MESH_300_F0
 10
0
 20
0
 30
0
 70
128
 71
26
 72
16
 73
27
 74
27
 0
VERTEX
 8
MESH_300_F0
 10
0
 20
0
 30
0
 70
128
 71
25
 72
16
 73
26
 74
26
 0
VERTEX
 8
MESH_300_F0
 10
0
 20
0
 30
0
 70
128
 71
24
 72
16
 73
25
 74
25
 0
VERTEX
 8
MESH_300_F0
 10
0
 20
0
 30
0
 70
128
 71
23
 72
16
 73
24
 74
24
 0
VERTEX
 8
MESH_300_F0
 10
0
 20
0
 30
0
 70
128
 71
19
 72
16
 73
23
 74
23
 0
VERTEX
 8
MESH_300_F0
 10
0
 20
0
 30
0
 70
128
 71
21
 72
19
 73
22
 74
22
 0
VERTEX
 8
MESH_300_F0
 10
0
 20
0
 30
0
 70
128
 71
19
 72
23
 73
22
 74
22
 0
VERTEX
 8
MESH_300_F0
 10
0
 20
0
 30
0
 70
128
 71
2
 72
4
 73
3
 74
3
 0
VERTEX
 8
MESH_300_F0
 10
0
 20
0
 30
0
 70
128
 71
5
 72
4
 73
2
 74
2
 0
VERTEX
 8
MESH_300_F0
 10
0
 20
0
 30
0
 70
128
 71
5
 72
2
 73
6
 74
6
 0
VERTEX
 8
MESH_300_F0
 10
0
 20
0
 30
0
 70
128
 71
2
 72
7
 73
6
 74
6
 0
VERTEX
 8
MESH_300_F0
 10
0
 20
0
 30
0
 70
128
 71
8
 72
7
 73
2
 74
2
 0
VERTEX
 8
MESH_300_F0
 10
0
 20
0
 30
0
 70
128
 71
16
 72
18
 73
17
 74
17
 0
VERTEX
 8
MESH_300_F0
 10
0
 20
0
 30
0
 70
128
 71
19
 72
18
 73
16
 74
16
 0
VERTEX
 8
MESH_300_F0
 10
0
 20
0
 30
0
 70
128
 71
21
 72
20
 73
19
 74
19
 0
SEQEND
 0
POLYLINE
 8
MESH_299_F0
 66
1
 10
0.0
 20
0.0
 30
0.0
 70
64
 71
6
 72
4
 0
VERTEX
 8
MESH_299_F0
 10
1.5
 20
-411.5
 30
-474
 70
192
 0
VERTEX
 8
MESH_299_F0
 10
1.5
 20
-417
 30
-474
 70
192
 0
VERTEX
 8
MESH_299_F0
 10
1.5
 20
-417
 30
-244
 70
192
 0
VERTEX
 8
MESH_299_F0
 10
1.5
 20
-412
 30
-244
 70
192
 0
VERTEX
 8
MESH_299_F0
 10
1.5
 20
-412
 30
-456.5
 70
192
 0
VERTEX
 8
MESH_299_F0
 10
1.5
 20
-411.5
 30
-456.5
 70
192
 0
VERTEX
 8
MESH_299_F0
 10
0
 20
0
 30
0
 70
128
 71
5
 72
1
 73
6
 74
6
 0
VERTEX
 8
MESH_299_F0
 10
0
 20
0
 30
0
 70
128
 71
2
 72
1
 73
5
 74
5
 0
VERTEX
 8
MESH_299_F0
 10
0
 20
0
 30
0
 70
128
 71
3
 72
2
 73
4
 74
4
 0
VERTEX
 8
MESH_299_F0
 10
0
 20
0
 30
0
 70
128
 71
2
 72
5
 73
4
 74
4
 0
SEQEND
 0
POLYLINE
 8
MESH_298_F0
 66
1
 10
0.0
 20
0.0
 30
0.0
 70
64
 71
9
 72
7
 0
VERTEX
 8
MESH_298_F0
 10
1.5
 20
-412
 30
-244
 70
192
 0
VERTEX
 8
MESH_298_F0
 10
1.5
 20
-417
 30
-244
 70
192
 0
VERTEX
 8
MESH_298_F0
 10
1.5936
 20
-419.0724
 30
-244
 70
192
 0
VERTEX
 8
MESH_298_F0
 10
1.8735
 20
-421.128
 30
-244
 70
192
 0
VERTEX
 8
MESH_298_F0
 10
2.3375
 20
-423.1499
 30
-244
 70
192
 0
VERTEX
 8
MESH_298_F0
 10
1.5974
 20
-420.4871
 30
-244
 70
192
 0
VERTEX
 8
MESH_298_F0
 10
1.1498
 20
-417.7598
 30
-244
 70
192
 0
VERTEX
 8
MESH_298_F0
 10
1
 20
-415
 30
-244
 70
192
 0
VERTEX
 8
MESH_298_F0
 10
1
 20
-412
 30
-244
 70
192
 0
VERTEX
 8
MESH_298_F0
 10
0
 20
0
 30
0
 70
128
 71
8
 72
1
 73
9
 74
9
 0
VERTEX
 8
MESH_298_F0
 10
0
 20
0
 30
0
 70
128
 71
2
 72
1
 73
8
 74
8
 0
VERTEX
 8
MESH_298_F0
 10
0
 20
0
 30
0
 70
128
 71
3
 72
2
 73
7
 74
7
 0
VERTEX
 8
MESH_298_F0
 10
0
 20
0
 30
0
 70
128
 71
4
 72
3
 73
6
 74
6
 0
VERTEX
 8
MESH_298_F0
 10
0
 20
0
 30
0
 70
128
 71
4
 72
6
 73
5
 74
5
 0
VERTEX
 8
MESH_298_F0
 10
0
 20
0
 30
0
 70
128
 71
3
 72
7
 73
6
 74
6
 0
VERTEX
 8
MESH_298_F0
 10
0
 20
0
 30
0
 70
128
 71
2
 72
8
 73
7
 74
7
 0
SEQEND
 0
POLYLINE
 8
MESH_297_F0
 66
1
 10
0.0
 20
0.0
 30
0.0
 70
64
 71
40
 72
42
 0
VERTEX
 8
MESH_297_F0
 10
1.5
 20
-412
 30
-244
 70
192
 0
VERTEX
 8
MESH_297_F0
 10
1
 20
-412
 30
-244
 70
192
 0
VERTEX
 8
MESH_297_F0
 10
1
 20
-412
 30
-240
 70
192
 0
VERTEX
 8
MESH_297_F0
 10
699
 20
-412
 30
-240
 70
192
 0
VERTEX
 8
MESH_297_F0
 10
699
 20
-412
 30
-244
 70
192
 0
VERTEX
 8
MESH_297_F0
 10
698.5
 20
-412
 30
-244
 70
192
 0
VERTEX
 8
MESH_297_F0
 10
698.5
 20
-412
 30
-474
 70
192
 0
VERTEX
 8
MESH_297_F0
 10
682
 20
-412
 30
-474
 70
192
 0
VERTEX
 8
MESH_297_F0
 10
682
 20
-412
 30
-475
 70
192
 0
VERTEX
 8
MESH_297_F0
 10
700
 20
-412
 30
-475
 70
192
 0
VERTEX
 8
MESH_297_F0
 10
700
 20
-412
 30
0
 70
192
 0
VERTEX
 8
MESH_297_F0
 10
-700
 20
-412
 30
0
 70
192
 0
VERTEX
 8
MESH_297_F0
 10
-700
 20
-412
 30
-475
 70
192
 0
VERTEX
 8
MESH_297_F0
 10
-682
 20
-412
 30
-475
 70
192
 0
VERTEX
 8
MESH_297_F0
 10
-682
 20
-412
 30
-474
 70
192
 0
VERTEX
 8
MESH_297_F0
 10
-698.3192
 20
-412
 30
-474
 70
192
 0
VERTEX
 8
MESH_297_F0
 10
-698.3192
 20
-412
 30
-244
 70
192
 0
VERTEX
 8
MESH_297_F0
 10
-699
 20
-412
 30
-244
 70
192
 0
VERTEX
 8
MESH_297_F0
 10
-699
 20
-412
 30
-240
 70
192
 0
VERTEX
 8
MESH_297_F0
 10
-1
 20
-412
 30
-240
 70
192
 0
VERTEX
 8
MESH_297_F0
 10
-1
 20
-412
 30
-244
 70
192
 0
VERTEX
 8
MESH_297_F0
 10
-1.6808
 20
-412
 30
-244
 70
192
 0
VERTEX
 8
MESH_297_F0
 10
-1.6808
 20
-412
 30
-456.5
 70
192
 0
VERTEX
 8
MESH_297_F0
 10
1.5
 20
-412
 30
-456.5
 70
192
 0
VERTEX
 8
MESH_297_F0
 10
-1.6808
 20
-412
 30
-237
 70
192
 0
VERTEX
 8
MESH_297_F0
 10
-698.3192
 20
-412
 30
-237
 70
192
 0
VERTEX
 8
MESH_297_F0
 10
-698.3192
 20
-412
 30
-7
 70
192
 0
VERTEX
 8
MESH_297_F0
 10
-699
 20
-412
 30
-7
 70
192
 0
VERTEX
 8
MESH_297_F0
 10
-699
 20
-412
 30
-3
 70
192
 0
VERTEX
 8
MESH_297_F0
 10
-1
 20
-412
 30
-3
 70
192
 0
VERTEX
 8
MESH_297_F0
 10
-1
 20
-412
 30
-7
 70
192
 0
VERTEX
 8
MESH_297_F0
 10
-1.6808
 20
-412
 30
-7
 70
192
 0
VERTEX
 8
MESH_297_F0
 10
698.5
 20
-412
 30
-237
 70
192
 0
VERTEX
 8
MESH_297_F0
 10
1.5
 20
-412
 30
-237
 70
192
 0
VERTEX
 8
MESH_297_F0
 10
1.5
 20
-412
 30
-7
 70
192
 0
VERTEX
 8
MESH_297_F0
 10
1
 20
-412
 30
-7
 70
192
 0
VERTEX
 8
MESH_297_F0
 10
1
 20
-412
 30
-3
 70
192
 0
VERTEX
 8
MESH_297_F0
 10
699
 20
-412
 30
-3
 70
192
 0
VERTEX
 8
MESH_297_F0
 10
699
 20
-412
 30
-7
 70
192
 0
VERTEX
 8
MESH_297_F0
 10
698.5
 20
-412
 30
-7
 70
192
 0
VERTEX
 8
MESH_297_F0
 10
0
 20
0
 30
0
 70
128
 71
24
 72
2
 73
1
 74
1
 0
VERTEX
 8
MESH_297_F0
 10
0
 20
0
 30
0
 70
128
 71
21
 72
2
 73
24
 74
24
 0
VERTEX
 8
MESH_297_F0
 10
0
 20
0
 30
0
 70
128
 71
21
 72
24
 73
22
 74
22
 0
VERTEX
 8
MESH_297_F0
 10
0
 20
0
 30
0
 70
128
 71
24
 72
23
 73
22
 74
22
 0
VERTEX
 8
MESH_297_F0
 10
0
 20
0
 30
0
 70
128
 71
20
 72
2
 73
21
 74
21
 0
VERTEX
 8
MESH_297_F0
 10
0
 20
0
 30
0
 70
128
 71
3
 72
2
 73
20
 74
20
 0
VERTEX
 8
MESH_297_F0
 10
0
 20
0
 30
0
 70
128
 71
34
 72
3
 73
25
 74
25
 0
VERTEX
 8
MESH_297_F0
 10
0
 20
0
 30
0
 70
128
 71
31
 72
34
 73
32
 74
32
 0
VERTEX
 8
MESH_297_F0
 10
0
 20
0
 30
0
 70
128
 71
34
 72
25
 73
32
 74
32
 0
VERTEX
 8
MESH_297_F0
 10
0
 20
0
 30
0
 70
128
 71
34
 72
4
 73
3
 74
3
 0
VERTEX
 8
MESH_297_F0
 10
0
 20
0
 30
0
 70
128
 71
33
 72
4
 73
34
 74
34
 0
VERTEX
 8
MESH_297_F0
 10
0
 20
0
 30
0
 70
128
 71
40
 72
4
 73
33
 74
33
 0
VERTEX
 8
MESH_297_F0
 10
0
 20
0
 30
0
 70
128
 71
39
 72
4
 73
40
 74
40
 0
VERTEX
 8
MESH_297_F0
 10
0
 20
0
 30
0
 70
128
 71
11
 72
4
 73
39
 74
39
 0
VERTEX
 8
MESH_297_F0
 10
0
 20
0
 30
0
 70
128
 71
37
 72
11
 73
38
 74
38
 0
VERTEX
 8
MESH_297_F0
 10
0
 20
0
 30
0
 70
128
 71
11
 72
39
 73
38
 74
38
 0
VERTEX
 8
MESH_297_F0
 10
0
 20
0
 30
0
 70
128
 71
10
 72
4
 73
11
 74
11
 0
VERTEX
 8
MESH_297_F0
 10
0
 20
0
 30
0
 70
128
 71
5
 72
4
 73
10
 74
10
 0
VERTEX
 8
MESH_297_F0
 10
0
 20
0
 30
0
 70
128
 71
5
 72
10
 73
6
 74
6
 0
VERTEX
 8
MESH_297_F0
 10
0
 20
0
 30
0
 70
128
 71
10
 72
7
 73
6
 74
6
 0
VERTEX
 8
MESH_297_F0
 10
0
 20
0
 30
0
 70
128
 71
9
 72
7
 73
10
 74
10
 0
VERTEX
 8
MESH_297_F0
 10
0
 20
0
 30
0
 70
128
 71
8
 72
7
 73
9
 74
9
 0
VERTEX
 8
MESH_297_F0
 10
0
 20
0
 30
0
 70
128
 71
37
 72
12
 73
11
 74
11
 0
VERTEX
 8
MESH_297_F0
 10
0
 20
0
 30
0
 70
128
 71
30
 72
12
 73
37
 74
37
 0
VERTEX
 8
MESH_297_F0
 10
0
 20
0
 30
0
 70
128
 71
31
 72
30
 73
36
 74
36
 0
VERTEX
 8
MESH_297_F0
 10
0
 20
0
 30
0
 70
128
 71
31
 72
36
 73
34
 74
34
 0
VERTEX
 8
MESH_297_F0
 10
0
 20
0
 30
0
 70
128
 71
36
 72
35
 73
34
 74
34
 0
VERTEX
 8
MESH_297_F0
 10
0
 20
0
 30
0
 70
128
 71
13
 72
18
 73
16
 74
16
 0
VERTEX
 8
MESH_297_F0
 10
0
 20
0
 30
0
 70
128
 71
13
 72
16
 73
14
 74
14
 0
VERTEX
 8
MESH_297_F0
 10
0
 20
0
 30
0
 70
128
 71
16
 72
15
 73
14
 74
14
 0
VERTEX
 8
MESH_297_F0
 10
0
 20
0
 30
0
 70
128
 71
18
 72
17
 73
16
 74
16
 0
VERTEX
 8
MESH_297_F0
 10
0
 20
0
 30
0
 70
128
 71
13
 72
19
 73
18
 74
18
 0
VERTEX
 8
MESH_297_F0
 10
0
 20
0
 30
0
 70
128
 71
12
 72
19
 73
13
 74
13
 0
VERTEX
 8
MESH_297_F0
 10
0
 20
0
 30
0
 70
128
 71
28
 72
19
 73
12
 74
12
 0
VERTEX
 8
MESH_297_F0
 10
0
 20
0
 30
0
 70
128
 71
28
 72
12
 73
29
 74
29
 0
VERTEX
 8
MESH_297_F0
 10
0
 20
0
 30
0
 70
128
 71
12
 72
30
 73
29
 74
29
 0
VERTEX
 8
MESH_297_F0
 10
0
 20
0
 30
0
 70
128
 71
26
 72
19
 73
28
 74
28
 0
VERTEX
 8
MESH_297_F0
 10
0
 20
0
 30
0
 70
128
 71
26
 72
28
 73
27
 74
27
 0
VERTEX
 8
MESH_297_F0
 10
0
 20
0
 30
0
 70
128
 71
20
 72
25
 73
3
 74
3
 0
VERTEX
 8
MESH_297_F0
 10
0
 20
0
 30
0
 70
128
 71
26
 72
25
 73
20
 74
20
 0
VERTEX
 8
MESH_297_F0
 10
0
 20
0
 30
0
 70
128
 71
26
 72
20
 73
19
 74
19
 0
VERTEX
 8
MESH_297_F0
 10
0
 20
0
 30
0
 70
128
 71
30
 72
37
 73
36
 74
36
 0
SEQEND
 0
POLYLINE
 8
MESH_296_F0
 66
1
 10
0.0
 20
0.0
 30
0.0
 70
64
 71
6
 72
4
 0
VERTEX
 8
MESH_296_F0
 10
-682
 20
-412
 30
-474
 70
192
 0
VERTEX
 8
MESH_296_F0
 10
-682
 20
-412
 30
-475
 70
192
 0
VERTEX
 8
MESH_296_F0
 10
-682
 20
0
 30
-475
 70
192
 0
VERTEX
 8
MESH_296_F0
 10
-682
 20
0
 30
-474.5
 70
192
 0
VERTEX
 8
MESH_296_F0
 10
-682
 20
-411.5
 30
-474.5
 70
192
 0
VERTEX
 8
MESH_296_F0
 10
-682
 20
-411.5
 30
-474
 70
192
 0
VERTEX
 8
MESH_296_F0
 10
0
 20
0
 30
0
 70
128
 71
5
 72
1
 73
6
 74
6
 0
VERTEX
 8
MESH_296_F0
 10
0
 20
0
 30
0
 70
128
 71
2
 72
1
 73
5
 74
5
 0
VERTEX
 8
MESH_296_F0
 10
0
 20
0
 30
0
 70
128
 71
2
 72
5
 73
3
 74
3
 0
VERTEX
 8
MESH_296_F0
 10
0
 20
0
 30
0
 70
128
 71
5
 72
4
 73
3
 74
3
 0
SEQEND
 0
POLYLINE
 8
MESH_295_F0
 66
1
 10
0.0
 20
0.0
 30
0.0
 70
64
 71
12
 72
10
 0
VERTEX
 8
MESH_295_F0
 10
-682
 20
0
 30
-474.5
 70
192
 0
VERTEX
 8
MESH_295_F0
 10
-682
 20
0
 30
-475
 70
192
 0
VERTEX
 8
MESH_295_F0
 10
-700
 20
0
 30
-475
 70
192
 0
VERTEX
 8
MESH_295_F0
 10
-700
 20
0
 30
0
 70
192
 0
VERTEX
 8
MESH_295_F0
 10
-682
 20
0
 30
0
 70
192
 0
VERTEX
 8
MESH_295_F0
 10
-682
 20
0
 30
-456.5
 70
192
 0
VERTEX
 8
MESH_295_F0
 10
682
 20
0
 30
-456.5
 70
192
 0
VERTEX
 8
MESH_295_F0
 10
682
 20
0
 30
0
 70
192
 0
VERTEX
 8
MESH_295_F0
 10
700
 20
0
 30
0
 70
192
 0
VERTEX
 8
MESH_295_F0
 10
700
 20
0
 30
-475
 70
192
 0
VERTEX
 8
MESH_295_F0
 10
682
 20
0
 30
-475
 70
192
 0
VERTEX
 8
MESH_295_F0
 10
682
 20
0
 30
-474.5
 70
192
 0
VERTEX
 8
MESH_295_F0
 10
0
 20
0
 30
0
 70
128
 71
1
 72
3
 73
2
 74
2
 0
VERTEX
 8
MESH_295_F0
 10
0
 20
0
 30
0
 70
128
 71
6
 72
3
 73
1
 74
1
 0
VERTEX
 8
MESH_295_F0
 10
0
 20
0
 30
0
 70
128
 71
6
 72
1
 73
7
 74
7
 0
VERTEX
 8
MESH_295_F0
 10
0
 20
0
 30
0
 70
128
 71
1
 72
12
 73
7
 74
7
 0
VERTEX
 8
MESH_295_F0
 10
0
 20
0
 30
0
 70
128
 71
12
 72
10
 73
7
 74
7
 0
VERTEX
 8
MESH_295_F0
 10
0
 20
0
 30
0
 70
128
 71
10
 72
9
 73
7
 74
7
 0
VERTEX
 8
MESH_295_F0
 10
0
 20
0
 30
0
 70
128
 71
9
 72
8
 73
7
 74
7
 0
VERTEX
 8
MESH_295_F0
 10
0
 20
0
 30
0
 70
128
 71
3
 72
5
 73
4
 74
4
 0
VERTEX
 8
MESH_295_F0
 10
0
 20
0
 30
0
 70
128
 71
6
 72
5
 73
3
 74
3
 0
VERTEX
 8
MESH_295_F0
 10
0
 20
0
 30
0
 70
128
 71
12
 72
11
 73
10
 74
10
 0
SEQEND
 0
POLYLINE
 8
MESH_294_F0
 66
1
 10
0.0
 20
0.0
 30
0.0
 70
64
 71
4
 72
2
 0
VERTEX
 8
MESH_294_F0
 10
-700
 20
0
 30
-475
 70
192
 0
VERTEX
 8
MESH_294_F0
 10
-682
 20
0
 30
-475
 70
192
 0
VERTEX
 8
MESH_294_F0
 10
-682
 20
-412
 30
-475
 70
192
 0
VERTEX
 8
MESH_294_F0
 10
-700
 20
-412
 30
-475
 70
192
 0
VERTEX
 8
MESH_294_F0
 10
0
 20
0
 30
0
 70
128
 71
1
 72
3
 73
2
 74
2
 0
VERTEX
 8
MESH_294_F0
 10
0
 20
0
 30
0
 70
128
 71
4
 72
3
 73
1
 74
1
 0
SEQEND
 0
ENDSEC
 0
EOF
