 0
SECTION
 2
HEADER
 9
$ACADVER
 1
AC1009
 0
ENDSEC
 0
SECTION
 2
TABLES
 0
TABLE
 2
LTYPE
 70
1
 0
LTYPE
 2
CONTINUOUS
 70
64
 3
solid line
 72
65
 73
0
 40
0.0
 0
ENDTAB
 0
TABLE
 2
LAYER
 70
6
 0
LAYER
 2
0
 70
0
 62
7
 6
CONTINUOUS
 0
LAYER
 2
MESH_175_F0
 70
64
 62
7
 6
CONTINUOUS
 0
LAYER
 2
MESH_174_F0
 70
64
 62
7
 6
CONTINUOUS
 0
LAYER
 2
MESH_173_F0
 70
64
 62
7
 6
CONTINUOUS
 0
LAYER
 2
MESH_172_F0
 70
64
 62
7
 6
CONTINUOUS
 0
LAYER
 2
MESH_171_F0
 70
64
 62
7
 6
CONTINUOUS
 0
LAYER
 2
MESH_170_F0
 70
64
 62
7
 6
CONTINUOUS
 0
LAYER
 2
MESH_169_F0
 70
64
 62
7
 6
CONTINUOUS
 0
LAYER
 2
MESH_168_F0
 70
64
 62
7
 6
CONTINUOUS
 0
LAYER
 2
MESH_167_F0
 70
64
 62
7
 6
CONTINUOUS
 0
LAYER
 2
MESH_166_F0
 70
64
 62
7
 6
CONTINUOUS
 0
LAYER
 2
MESH_165_F0
 70
64
 62
7
 6
CONTINUOUS
 0
LAYER
 2
MESH_164_F0
 70
64
 62
7
 6
CONTINUOUS
 0
LAYER
 2
MESH_163_F0
 70
64
 62
7
 6
CONTINUOUS
 0
LAYER
 2
MESH_162_F0
 70
64
 62
7
 6
CONTINUOUS
 0
LAYER
 2
MESH_161_F0
 70
64
 62
7
 6
CONTINUOUS
 0
LAYER
 2
MESH_160_F0
 70
64
 62
7
 6
CONTINUOUS
 0
LAYER
 2
MESH_159_F0
 70
64
 62
7
 6
CONTINUOUS
 0
LAYER
 2
MESH_158_F0
 70
64
 62
7
 6
CONTINUOUS
 0
LAYER
 2
MESH_157_F0
 70
64
 62
7
 6
CONTINUOUS
 0
LAYER
 2
MESH_156_F0
 70
64
 62
7
 6
CONTINUOUS
 0
LAYER
 2
MESH_155_F0
 70
64
 62
7
 6
CONTINUOUS
 0
LAYER
 2
MESH_154_F0
 70
64
 62
7
 6
CONTINUOUS
 0
LAYER
 2
MESH_153_F0
 70
64
 62
7
 6
CONTINUOUS
 0
LAYER
 2
MESH_152_F0
 70
64
 62
7
 6
CONTINUOUS
 0
LAYER
 2
MESH_151_F0
 70
64
 62
7
 6
CONTINUOUS
 0
LAYER
 2
MESH_150_F0
 70
64
 62
7
 6
CONTINUOUS
 0
LAYER
 2
MESH_149_F0
 70
64
 62
7
 6
CONTINUOUS
 0
LAYER
 2
MESH_148_F0
 70
64
 62
7
 6
CONTINUOUS
 0
ENDTAB
 0
ENDSEC
 0
SECTION
 2
BLOCKS
 0
ENDSEC
 0
SECTION
 2
ENTITIES
 0
POLYLINE
 8
MESH_175_F0
 66
1
 10
0.0
 20
0.0
 30
0.0
 70
64
 71
4
 72
2
 0
VERTEX
 8
MESH_175_F0
 10
202.5
 20
0
 30
0
 70
192
 0
VERTEX
 8
MESH_175_F0
 10
202.5
 20
-202
 30
0
 70
192
 0
VERTEX
 8
MESH_175_F0
 10
202.5
 20
-202
 30
-478
 70
192
 0
VERTEX
 8
MESH_175_F0
 10
202.5
 20
0
 30
-478
 70
192
 0
VERTEX
 8
MESH_175_F0
 10
0
 20
0
 30
0
 70
128
 71
4
 72
2
 73
1
 74
1
 0
VERTEX
 8
MESH_175_F0
 10
0
 20
0
 30
0
 70
128
 71
3
 72
2
 73
4
 74
4
 0
SEQEND
 0
POLYLINE
 8
MESH_174_F0
 66
1
 10
0.0
 20
0.0
 30
0.0
 70
64
 71
6
 72
4
 0
VERTEX
 8
MESH_174_F0
 10
184.5
 20
-0.5
 30
-459.5
 70
192
 0
VERTEX
 8
MESH_174_F0
 10
184.5
 20
-0.5
 30
-337.5
 70
192
 0
VERTEX
 8
MESH_174_F0
 10
184.5
 20
-18.5
 30
-337.5
 70
192
 0
VERTEX
 8
MESH_174_F0
 10
184.5
 20
-18.5
 30
0
 70
192
 0
VERTEX
 8
MESH_174_F0
 10
184.5
 20
0
 30
0
 70
192
 0
VERTEX
 8
MESH_174_F0
 10
184.5
 20
0
 30
-459.5
 70
192
 0
VERTEX
 8
MESH_174_F0
 10
0
 20
0
 30
0
 70
128
 71
6
 72
2
 73
1
 74
1
 0
VERTEX
 8
MESH_174_F0
 10
0
 20
0
 30
0
 70
128
 71
5
 72
2
 73
6
 74
6
 0
VERTEX
 8
MESH_174_F0
 10
0
 20
0
 30
0
 70
128
 71
3
 72
2
 73
5
 74
5
 0
VERTEX
 8
MESH_174_F0
 10
0
 20
0
 30
0
 70
128
 71
3
 72
5
 73
4
 74
4
 0
SEQEND
 0
POLYLINE
 8
MESH_173_F0
 66
1
 10
0.0
 20
0.0
 30
0.0
 70
64
 71
6
 72
4
 0
VERTEX
 8
MESH_173_F0
 10
-184.5
 20
0
 30
-459.5
 70
192
 0
VERTEX
 8
MESH_173_F0
 10
-184.5
 20
0
 30
0
 70
192
 0
VERTEX
 8
MESH_173_F0
 10
-184.5
 20
-18.5
 30
0
 70
192
 0
VERTEX
 8
MESH_173_F0
 10
-184.5
 20
-18.5
 30
-337.5
 70
192
 0
VERTEX
 8
MESH_173_F0
 10
-184.5
 20
-0.5
 30
-337.5
 70
192
 0
VERTEX
 8
MESH_173_F0
 10
-184.5
 20
-0.5
 30
-459.5
 70
192
 0
VERTEX
 8
MESH_173_F0
 10
0
 20
0
 30
0
 70
128
 71
5
 72
1
 73
6
 74
6
 0
VERTEX
 8
MESH_173_F0
 10
0
 20
0
 30
0
 70
128
 71
2
 72
1
 73
5
 74
5
 0
VERTEX
 8
MESH_173_F0
 10
0
 20
0
 30
0
 70
128
 71
2
 72
5
 73
3
 74
3
 0
VERTEX
 8
MESH_173_F0
 10
0
 20
0
 30
0
 70
128
 71
5
 72
4
 73
3
 74
3
 0
SEQEND
 0
POLYLINE
 8
MESH_172_F0
 66
1
 10
0.0
 20
0.0
 30
0.0
 70
64
 71
4
 72
2
 0
VERTEX
 8
MESH_172_F0
 10
184.5
 20
0
 30
-459.5
 70
192
 0
VERTEX
 8
MESH_172_F0
 10
-184.5
 20
0
 30
-459.5
 70
192
 0
VERTEX
 8
MESH_172_F0
 10
-184.5
 20
-0.5
 30
-459.5
 70
192
 0
VERTEX
 8
MESH_172_F0
 10
184.5
 20
-0.5
 30
-459.5
 70
192
 0
VERTEX
 8
MESH_172_F0
 10
0
 20
0
 30
0
 70
128
 71
1
 72
3
 73
2
 74
2
 0
VERTEX
 8
MESH_172_F0
 10
0
 20
0
 30
0
 70
128
 71
4
 72
3
 73
1
 74
1
 0
SEQEND
 0
POLYLINE
 8
MESH_171_F0
 66
1
 10
0.0
 20
0.0
 30
0.0
 70
64
 71
4
 72
2
 0
VERTEX
 8
MESH_171_F0
 10
184.5
 20
-0.5
 30
-459.5
 70
192
 0
VERTEX
 8
MESH_171_F0
 10
-184.5
 20
-0.5
 30
-459.5
 70
192
 0
VERTEX
 8
MESH_171_F0
 10
-184.5
 20
-0.5
 30
-337.5
 70
192
 0
VERTEX
 8
MESH_171_F0
 10
184.5
 20
-0.5
 30
-337.5
 70
192
 0
VERTEX
 8
MESH_171_F0
 10
0
 20
0
 30
0
 70
128
 71
4
 72
2
 73
1
 74
1
 0
VERTEX
 8
MESH_171_F0
 10
0
 20
0
 30
0
 70
128
 71
3
 72
2
 73
4
 74
4
 0
SEQEND
 0
POLYLINE
 8
MESH_170_F0
 66
1
 10
0.0
 20
0.0
 30
0.0
 70
64
 71
4
 72
2
 0
VERTEX
 8
MESH_170_F0
 10
184.5
 20
-0.5
 30
-337.5
 70
192
 0
VERTEX
 8
MESH_170_F0
 10
-184.5
 20
-0.5
 30
-337.5
 70
192
 0
VERTEX
 8
MESH_170_F0
 10
-184.5
 20
-18.5
 30
-337.5
 70
192
 0
VERTEX
 8
MESH_170_F0
 10
184.5
 20
-18.5
 30
-337.5
 70
192
 0
VERTEX
 8
MESH_170_F0
 10
0
 20
0
 30
0
 70
128
 71
1
 72
3
 73
2
 74
2
 0
VERTEX
 8
MESH_170_F0
 10
0
 20
0
 30
0
 70
128
 71
4
 72
3
 73
1
 74
1
 0
SEQEND
 0
POLYLINE
 8
MESH_169_F0
 66
1
 10
0.0
 20
0.0
 30
0.0
 70
64
 71
4
 72
2
 0
VERTEX
 8
MESH_169_F0
 10
184.5
 20
-18.5
 30
-337.5
 70
192
 0
VERTEX
 8
MESH_169_F0
 10
-184.5
 20
-18.5
 30
-337.5
 70
192
 0
VERTEX
 8
MESH_169_F0
 10
-184.5
 20
-18.5
 30
0
 70
192
 0
VERTEX
 8
MESH_169_F0
 10
184.5
 20
-18.5
 30
0
 70
192
 0
VERTEX
 8
MESH_169_F0
 10
0
 20
0
 30
0
 70
128
 71
1
 72
3
 73
2
 74
2
 0
VERTEX
 8
MESH_169_F0
 10
0
 20
0
 30
0
 70
128
 71
4
 72
3
 73
1
 74
1
 0
SEQEND
 0
POLYLINE
 8
MESH_168_F0
 66
1
 10
0.0
 20
0.0
 30
0.0
 70
64
 71
8
 72
6
 0
VERTEX
 8
MESH_168_F0
 10
184.5
 20
-18.5
 30
0
 70
192
 0
VERTEX
 8
MESH_168_F0
 10
-184.5
 20
-18.5
 30
0
 70
192
 0
VERTEX
 8
MESH_168_F0
 10
-184.5
 20
0
 30
0
 70
192
 0
VERTEX
 8
MESH_168_F0
 10
-202.5
 20
0
 30
0
 70
192
 0
VERTEX
 8
MESH_168_F0
 10
-202.5
 20
-202
 30
0
 70
192
 0
VERTEX
 8
MESH_168_F0
 10
202.5
 20
-202
 30
0
 70
192
 0
VERTEX
 8
MESH_168_F0
 10
202.5
 20
0
 30
0
 70
192
 0
VERTEX
 8
MESH_168_F0
 10
184.5
 20
0
 30
0
 70
192
 0
VERTEX
 8
MESH_168_F0
 10
0
 20
0
 30
0
 70
128
 71
2
 72
4
 73
3
 74
3
 0
VERTEX
 8
MESH_168_F0
 10
0
 20
0
 30
0
 70
128
 71
5
 72
4
 73
2
 74
2
 0
VERTEX
 8
MESH_168_F0
 10
0
 20
0
 30
0
 70
128
 71
6
 72
5
 73
1
 74
1
 0
VERTEX
 8
MESH_168_F0
 10
0
 20
0
 30
0
 70
128
 71
6
 72
1
 73
7
 74
7
 0
VERTEX
 8
MESH_168_F0
 10
0
 20
0
 30
0
 70
128
 71
1
 72
8
 73
7
 74
7
 0
VERTEX
 8
MESH_168_F0
 10
0
 20
0
 30
0
 70
128
 71
1
 72
5
 73
2
 74
2
 0
SEQEND
 0
POLYLINE
 8
MESH_167_F0
 66
1
 10
0.0
 20
0.0
 30
0.0
 70
64
 71
4
 72
2
 0
VERTEX
 8
MESH_167_F0
 10
-202.5
 20
0
 30
-478
 70
192
 0
VERTEX
 8
MESH_167_F0
 10
-202.5
 20
-202
 30
-478
 70
192
 0
VERTEX
 8
MESH_167_F0
 10
-202.5
 20
-202
 30
0
 70
192
 0
VERTEX
 8
MESH_167_F0
 10
-202.5
 20
0
 30
0
 70
192
 0
VERTEX
 8
MESH_167_F0
 10
0
 20
0
 30
0
 70
128
 71
4
 72
2
 73
1
 74
1
 0
VERTEX
 8
MESH_167_F0
 10
0
 20
0
 30
0
 70
128
 71
3
 72
2
 73
4
 74
4
 0
SEQEND
 0
POLYLINE
 8
MESH_166_F0
 66
1
 10
0.0
 20
0.0
 30
0.0
 70
64
 71
4
 72
2
 0
VERTEX
 8
MESH_166_F0
 10
-202.5
 20
0
 30
-478
 70
192
 0
VERTEX
 8
MESH_166_F0
 10
-184.5
 20
0
 30
-478
 70
192
 0
VERTEX
 8
MESH_166_F0
 10
-184.5
 20
-202
 30
-478
 70
192
 0
VERTEX
 8
MESH_166_F0
 10
-202.5
 20
-202
 30
-478
 70
192
 0
VERTEX
 8
MESH_166_F0
 10
0
 20
0
 30
0
 70
128
 71
1
 72
3
 73
2
 74
2
 0
VERTEX
 8
MESH_166_F0
 10
0
 20
0
 30
0
 70
128
 71
4
 72
3
 73
1
 74
1
 0
SEQEND
 0
POLYLINE
 8
MESH_165_F0
 66
1
 10
0.0
 20
0.0
 30
0.0
 70
64
 71
4
 72
2
 0
VERTEX
 8
MESH_165_F0
 10
184.5
 20
-199.5
 30
-477.5
 70
192
 0
VERTEX
 8
MESH_165_F0
 10
-184.5
 20
-199.5
 30
-477.5
 70
192
 0
VERTEX
 8
MESH_165_F0
 10
-184.5
 20
0
 30
-477.5
 70
192
 0
VERTEX
 8
MESH_165_F0
 10
184.5
 20
0
 30
-477.5
 70
192
 0
VERTEX
 8
MESH_165_F0
 10
0
 20
0
 30
0
 70
128
 71
1
 72
3
 73
2
 74
2
 0
VERTEX
 8
MESH_165_F0
 10
0
 20
0
 30
0
 70
128
 71
4
 72
3
 73
1
 74
1
 0
SEQEND
 0
POLYLINE
 8
MESH_164_F0
 66
1
 10
0.0
 20
0.0
 30
0.0
 70
64
 71
12
 72
10
 0
VERTEX
 8
MESH_164_F0
 10
184.5
 20
0
 30
-477.5
 70
192
 0
VERTEX
 8
MESH_164_F0
 10
-184.5
 20
0
 30
-477.5
 70
192
 0
VERTEX
 8
MESH_164_F0
 10
-184.5
 20
0
 30
-478
 70
192
 0
VERTEX
 8
MESH_164_F0
 10
-202.5
 20
0
 30
-478
 70
192
 0
VERTEX
 8
MESH_164_F0
 10
-202.5
 20
0
 30
0
 70
192
 0
VERTEX
 8
MESH_164_F0
 10
-184.5
 20
0
 30
0
 70
192
 0
VERTEX
 8
MESH_164_F0
 10
-184.5
 20
0
 30
-459.5
 70
192
 0
VERTEX
 8
MESH_164_F0
 10
184.5
 20
0
 30
-459.5
 70
192
 0
VERTEX
 8
MESH_164_F0
 10
184.5
 20
0
 30
0
 70
192
 0
VERTEX
 8
MESH_164_F0
 10
202.5
 20
0
 30
0
 70
192
 0
VERTEX
 8
MESH_164_F0
 10
202.5
 20
0
 30
-478
 70
192
 0
VERTEX
 8
MESH_164_F0
 10
184.5
 20
0
 30
-478
 70
192
 0
VERTEX
 8
MESH_164_F0
 10
0
 20
0
 30
0
 70
128
 71
4
 72
6
 73
5
 74
5
 0
VERTEX
 8
MESH_164_F0
 10
0
 20
0
 30
0
 70
128
 71
7
 72
6
 73
4
 74
4
 0
VERTEX
 8
MESH_164_F0
 10
0
 20
0
 30
0
 70
128
 71
8
 72
7
 73
2
 74
2
 0
VERTEX
 8
MESH_164_F0
 10
0
 20
0
 30
0
 70
128
 71
11
 72
8
 73
1
 74
1
 0
VERTEX
 8
MESH_164_F0
 10
0
 20
0
 30
0
 70
128
 71
11
 72
1
 73
12
 74
12
 0
VERTEX
 8
MESH_164_F0
 10
0
 20
0
 30
0
 70
128
 71
2
 72
4
 73
3
 74
3
 0
VERTEX
 8
MESH_164_F0
 10
0
 20
0
 30
0
 70
128
 71
7
 72
4
 73
2
 74
2
 0
VERTEX
 8
MESH_164_F0
 10
0
 20
0
 30
0
 70
128
 71
8
 72
10
 73
9
 74
9
 0
VERTEX
 8
MESH_164_F0
 10
0
 20
0
 30
0
 70
128
 71
11
 72
10
 73
8
 74
8
 0
VERTEX
 8
MESH_164_F0
 10
0
 20
0
 30
0
 70
128
 71
1
 72
8
 73
2
 74
2
 0
SEQEND
 0
POLYLINE
 8
MESH_163_F0
 66
1
 10
0.0
 20
0.0
 30
0.0
 70
64
 71
4
 72
2
 0
VERTEX
 8
MESH_163_F0
 10
184.5
 20
0
 30
-478
 70
192
 0
VERTEX
 8
MESH_163_F0
 10
202.5
 20
0
 30
-478
 70
192
 0
VERTEX
 8
MESH_163_F0
 10
202.5
 20
-202
 30
-478
 70
192
 0
VERTEX
 8
MESH_163_F0
 10
184.5
 20
-202
 30
-478
 70
192
 0
VERTEX
 8
MESH_163_F0
 10
0
 20
0
 30
0
 70
128
 71
1
 72
3
 73
2
 74
2
 0
VERTEX
 8
MESH_163_F0
 10
0
 20
0
 30
0
 70
128
 71
4
 72
3
 73
1
 74
1
 0
SEQEND
 0
POLYLINE
 8
MESH_162_F0
 66
1
 10
0.0
 20
0.0
 30
0.0
 70
64
 71
34
 72
32
 0
VERTEX
 8
MESH_162_F0
 10
176
 20
-229.5
 30
-3
 70
192
 0
VERTEX
 8
MESH_162_F0
 10
176
 20
-229.5
 30
-7
 70
192
 0
VERTEX
 8
MESH_162_F0
 10
178.5143
 20
-229.3751
 30
-7
 70
192
 0
VERTEX
 8
MESH_162_F0
 10
180.9841
 20
-229.0082
 30
-7
 70
192
 0
VERTEX
 8
MESH_162_F0
 10
183.4092
 20
-228.3993
 30
-7
 70
192
 0
VERTEX
 8
MESH_162_F0
 10
185.7683
 20
-227.5548
 30
-7
 70
192
 0
VERTEX
 8
MESH_162_F0
 10
188.0289
 20
-226.4847
 30
-7
 70
192
 0
VERTEX
 8
MESH_162_F0
 10
190.1725
 20
-225.1988
 30
-7
 70
192
 0
VERTEX
 8
MESH_162_F0
 10
192.1792
 20
-223.7097
 30
-7
 70
192
 0
VERTEX
 8
MESH_162_F0
 10
194.031
 20
-222.0313
 30
-7
 70
192
 0
VERTEX
 8
MESH_162_F0
 10
195.7095
 20
-220.1795
 30
-7
 70
192
 0
VERTEX
 8
MESH_162_F0
 10
197.1986
 20
-218.1728
 30
-7
 70
192
 0
VERTEX
 8
MESH_162_F0
 10
198.4845
 20
-216.0292
 30
-7
 70
192
 0
VERTEX
 8
MESH_162_F0
 10
199.5547
 20
-213.7686
 30
-7
 70
192
 0
VERTEX
 8
MESH_162_F0
 10
200.3993
 20
-211.4094
 30
-7
 70
192
 0
VERTEX
 8
MESH_162_F0
 10
201.0081
 20
-208.9843
 30
-7
 70
192
 0
VERTEX
 8
MESH_162_F0
 10
201.3751
 20
-206.5144
 30
-7
 70
192
 0
VERTEX
 8
MESH_162_F0
 10
201.5
 20
-204
 30
-7
 70
192
 0
VERTEX
 8
MESH_162_F0
 10
201.5
 20
-204
 30
-3
 70
192
 0
VERTEX
 8
MESH_162_F0
 10
201.3751
 20
-206.5143
 30
-3
 70
192
 0
VERTEX
 8
MESH_162_F0
 10
201.0082
 20
-208.9841
 30
-3
 70
192
 0
VERTEX
 8
MESH_162_F0
 10
200.3993
 20
-211.4092
 30
-3
 70
192
 0
VERTEX
 8
MESH_162_F0
 10
199.5548
 20
-213.7683
 30
-3
 70
192
 0
VERTEX
 8
MESH_162_F0
 10
198.4847
 20
-216.0289
 30
-3
 70
192
 0
VERTEX
 8
MESH_162_F0
 10
197.1988
 20
-218.1725
 30
-3
 70
192
 0
VERTEX
 8
MESH_162_F0
 10
195.7097
 20
-220.1792
 30
-3
 70
192
 0
VERTEX
 8
MESH_162_F0
 10
194.0313
 20
-222.031
 30
-3
 70
192
 0
VERTEX
 8
MESH_162_F0
 10
192.1795
 20
-223.7095
 30
-3
 70
192
 0
VERTEX
 8
MESH_162_F0
 10
190.1728
 20
-225.1986
 30
-3
 70
192
 0
VERTEX
 8
MESH_162_F0
 10
188.0292
 20
-226.4845
 30
-3
 70
192
 0
VERTEX
 8
MESH_162_F0
 10
185.7686
 20
-227.5547
 30
-3
 70
192
 0
VERTEX
 8
MESH_162_F0
 10
183.4094
 20
-228.3993
 30
-3
 70
192
 0
VERTEX
 8
MESH_162_F0
 10
180.9843
 20
-229.0081
 30
-3
 70
192
 0
VERTEX
 8
MESH_162_F0
 10
178.5144
 20
-229.3751
 30
-3
 70
192
 0
VERTEX
 8
MESH_162_F0
 10
0
 20
0
 30
0
 70
128
 71
34
 72
2
 73
1
 74
1
 0
VERTEX
 8
MESH_162_F0
 10
0
 20
0
 30
0
 70
128
 71
3
 72
2
 73
34
 74
34
 0
VERTEX
 8
MESH_162_F0
 10
0
 20
0
 30
0
 70
128
 71
3
 72
34
 73
4
 74
4
 0
VERTEX
 8
MESH_162_F0
 10
0
 20
0
 30
0
 70
128
 71
34
 72
33
 73
4
 74
4
 0
VERTEX
 8
MESH_162_F0
 10
0
 20
0
 30
0
 70
128
 71
33
 72
5
 73
4
 74
4
 0
VERTEX
 8
MESH_162_F0
 10
0
 20
0
 30
0
 70
128
 71
32
 72
5
 73
33
 74
33
 0
VERTEX
 8
MESH_162_F0
 10
0
 20
0
 30
0
 70
128
 71
6
 72
5
 73
32
 74
32
 0
VERTEX
 8
MESH_162_F0
 10
0
 20
0
 30
0
 70
128
 71
7
 72
6
 73
31
 74
31
 0
VERTEX
 8
MESH_162_F0
 10
0
 20
0
 30
0
 70
128
 71
8
 72
7
 73
30
 74
30
 0
VERTEX
 8
MESH_162_F0
 10
0
 20
0
 30
0
 70
128
 71
9
 72
8
 73
29
 74
29
 0
VERTEX
 8
MESH_162_F0
 10
0
 20
0
 30
0
 70
128
 71
10
 72
9
 73
28
 74
28
 0
VERTEX
 8
MESH_162_F0
 10
0
 20
0
 30
0
 70
128
 71
11
 72
10
 73
27
 74
27
 0
VERTEX
 8
MESH_162_F0
 10
0
 20
0
 30
0
 70
128
 71
12
 72
11
 73
26
 74
26
 0
VERTEX
 8
MESH_162_F0
 10
0
 20
0
 30
0
 70
128
 71
13
 72
12
 73
25
 74
25
 0
VERTEX
 8
MESH_162_F0
 10
0
 20
0
 30
0
 70
128
 71
14
 72
13
 73
24
 74
24
 0
VERTEX
 8
MESH_162_F0
 10
0
 20
0
 30
0
 70
128
 71
15
 72
14
 73
23
 74
23
 0
VERTEX
 8
MESH_162_F0
 10
0
 20
0
 30
0
 70
128
 71
16
 72
15
 73
22
 74
22
 0
VERTEX
 8
MESH_162_F0
 10
0
 20
0
 30
0
 70
128
 71
17
 72
16
 73
21
 74
21
 0
VERTEX
 8
MESH_162_F0
 10
0
 20
0
 30
0
 70
128
 71
18
 72
17
 73
20
 74
20
 0
VERTEX
 8
MESH_162_F0
 10
0
 20
0
 30
0
 70
128
 71
18
 72
20
 73
19
 74
19
 0
VERTEX
 8
MESH_162_F0
 10
0
 20
0
 30
0
 70
128
 71
17
 72
21
 73
20
 74
20
 0
VERTEX
 8
MESH_162_F0
 10
0
 20
0
 30
0
 70
128
 71
16
 72
22
 73
21
 74
21
 0
VERTEX
 8
MESH_162_F0
 10
0
 20
0
 30
0
 70
128
 71
15
 72
23
 73
22
 74
22
 0
VERTEX
 8
MESH_162_F0
 10
0
 20
0
 30
0
 70
128
 71
14
 72
24
 73
23
 74
23
 0
VERTEX
 8
MESH_162_F0
 10
0
 20
0
 30
0
 70
128
 71
13
 72
25
 73
24
 74
24
 0
VERTEX
 8
MESH_162_F0
 10
0
 20
0
 30
0
 70
128
 71
12
 72
26
 73
25
 74
25
 0
VERTEX
 8
MESH_162_F0
 10
0
 20
0
 30
0
 70
128
 71
11
 72
27
 73
26
 74
26
 0
VERTEX
 8
MESH_162_F0
 10
0
 20
0
 30
0
 70
128
 71
10
 72
28
 73
27
 74
27
 0
VERTEX
 8
MESH_162_F0
 10
0
 20
0
 30
0
 70
128
 71
9
 72
29
 73
28
 74
28
 0
VERTEX
 8
MESH_162_F0
 10
0
 20
0
 30
0
 70
128
 71
8
 72
30
 73
29
 74
29
 0
VERTEX
 8
MESH_162_F0
 10
0
 20
0
 30
0
 70
128
 71
7
 72
31
 73
30
 74
30
 0
VERTEX
 8
MESH_162_F0
 10
0
 20
0
 30
0
 70
128
 71
6
 72
32
 73
31
 74
31
 0
SEQEND
 0
POLYLINE
 8
MESH_161_F0
 66
1
 10
0.0
 20
0.0
 30
0.0
 70
64
 71
4
 72
2
 0
VERTEX
 8
MESH_161_F0
 10
176
 20
-229.5
 30
-7
 70
192
 0
VERTEX
 8
MESH_161_F0
 10
176
 20
-229.5
 30
-3
 70
192
 0
VERTEX
 8
MESH_161_F0
 10
-176
 20
-229.5
 30
-3
 70
192
 0
VERTEX
 8
MESH_161_F0
 10
-176
 20
-229.5
 30
-7
 70
192
 0
VERTEX
 8
MESH_161_F0
 10
0
 20
0
 30
0
 70
128
 71
1
 72
3
 73
2
 74
2
 0
VERTEX
 8
MESH_161_F0
 10
0
 20
0
 30
0
 70
128
 71
4
 72
3
 73
1
 74
1
 0
SEQEND
 0
POLYLINE
 8
MESH_160_F0
 66
1
 10
0.0
 20
0.0
 30
0.0
 70
64
 71
34
 72
32
 0
VERTEX
 8
MESH_160_F0
 10
-201.5
 20
-204
 30
-3
 70
192
 0
VERTEX
 8
MESH_160_F0
 10
-201.5
 20
-204
 30
-7
 70
192
 0
VERTEX
 8
MESH_160_F0
 10
-201.3751
 20
-206.5143
 30
-7
 70
192
 0
VERTEX
 8
MESH_160_F0
 10
-201.0082
 20
-208.9841
 30
-7
 70
192
 0
VERTEX
 8
MESH_160_F0
 10
-200.3993
 20
-211.4092
 30
-7
 70
192
 0
VERTEX
 8
MESH_160_F0
 10
-199.5548
 20
-213.7683
 30
-7
 70
192
 0
VERTEX
 8
MESH_160_F0
 10
-198.4847
 20
-216.0289
 30
-7
 70
192
 0
VERTEX
 8
MESH_160_F0
 10
-197.1988
 20
-218.1725
 30
-7
 70
192
 0
VERTEX
 8
MESH_160_F0
 10
-195.7097
 20
-220.1792
 30
-7
 70
192
 0
VERTEX
 8
MESH_160_F0
 10
-194.0313
 20
-222.031
 30
-7
 70
192
 0
VERTEX
 8
MESH_160_F0
 10
-192.1795
 20
-223.7095
 30
-7
 70
192
 0
VERTEX
 8
MESH_160_F0
 10
-190.1728
 20
-225.1986
 30
-7
 70
192
 0
VERTEX
 8
MESH_160_F0
 10
-188.0292
 20
-226.4845
 30
-7
 70
192
 0
VERTEX
 8
MESH_160_F0
 10
-185.7686
 20
-227.5547
 30
-7
 70
192
 0
VERTEX
 8
MESH_160_F0
 10
-183.4094
 20
-228.3993
 30
-7
 70
192
 0
VERTEX
 8
MESH_160_F0
 10
-180.9843
 20
-229.0081
 30
-7
 70
192
 0
VERTEX
 8
MESH_160_F0
 10
-178.5144
 20
-229.3751
 30
-7
 70
192
 0
VERTEX
 8
MESH_160_F0
 10
-176
 20
-229.5
 30
-7
 70
192
 0
VERTEX
 8
MESH_160_F0
 10
-176
 20
-229.5
 30
-3
 70
192
 0
VERTEX
 8
MESH_160_F0
 10
-178.5143
 20
-229.3751
 30
-3
 70
192
 0
VERTEX
 8
MESH_160_F0
 10
-180.9841
 20
-229.0082
 30
-3
 70
192
 0
VERTEX
 8
MESH_160_F0
 10
-183.4092
 20
-228.3993
 30
-3
 70
192
 0
VERTEX
 8
MESH_160_F0
 10
-185.7683
 20
-227.5548
 30
-3
 70
192
 0
VERTEX
 8
MESH_160_F0
 10
-188.0289
 20
-226.4847
 30
-3
 70
192
 0
VERTEX
 8
MESH_160_F0
 10
-190.1725
 20
-225.1988
 30
-3
 70
192
 0
VERTEX
 8
MESH_160_F0
 10
-192.1792
 20
-223.7097
 30
-3
 70
192
 0
VERTEX
 8
MESH_160_F0
 10
-194.031
 20
-222.0313
 30
-3
 70
192
 0
VERTEX
 8
MESH_160_F0
 10
-195.7095
 20
-220.1795
 30
-3
 70
192
 0
VERTEX
 8
MESH_160_F0
 10
-197.1986
 20
-218.1728
 30
-3
 70
192
 0
VERTEX
 8
MESH_160_F0
 10
-198.4845
 20
-216.0292
 30
-3
 70
192
 0
VERTEX
 8
MESH_160_F0
 10
-199.5547
 20
-213.7686
 30
-3
 70
192
 0
VERTEX
 8
MESH_160_F0
 10
-200.3993
 20
-211.4094
 30
-3
 70
192
 0
VERTEX
 8
MESH_160_F0
 10
-201.0081
 20
-208.9843
 30
-3
 70
192
 0
VERTEX
 8
MESH_160_F0
 10
-201.3751
 20
-206.5144
 30
-3
 70
192
 0
VERTEX
 8
MESH_160_F0
 10
0
 20
0
 30
0
 70
128
 71
34
 72
2
 73
1
 74
1
 0
VERTEX
 8
MESH_160_F0
 10
0
 20
0
 30
0
 70
128
 71
3
 72
2
 73
34
 74
34
 0
VERTEX
 8
MESH_160_F0
 10
0
 20
0
 30
0
 70
128
 71
3
 72
34
 73
4
 74
4
 0
VERTEX
 8
MESH_160_F0
 10
0
 20
0
 30
0
 70
128
 71
34
 72
33
 73
4
 74
4
 0
VERTEX
 8
MESH_160_F0
 10
0
 20
0
 30
0
 70
128
 71
33
 72
5
 73
4
 74
4
 0
VERTEX
 8
MESH_160_F0
 10
0
 20
0
 30
0
 70
128
 71
32
 72
5
 73
33
 74
33
 0
VERTEX
 8
MESH_160_F0
 10
0
 20
0
 30
0
 70
128
 71
6
 72
5
 73
32
 74
32
 0
VERTEX
 8
MESH_160_F0
 10
0
 20
0
 30
0
 70
128
 71
7
 72
6
 73
31
 74
31
 0
VERTEX
 8
MESH_160_F0
 10
0
 20
0
 30
0
 70
128
 71
8
 72
7
 73
30
 74
30
 0
VERTEX
 8
MESH_160_F0
 10
0
 20
0
 30
0
 70
128
 71
9
 72
8
 73
29
 74
29
 0
VERTEX
 8
MESH_160_F0
 10
0
 20
0
 30
0
 70
128
 71
10
 72
9
 73
28
 74
28
 0
VERTEX
 8
MESH_160_F0
 10
0
 20
0
 30
0
 70
128
 71
11
 72
10
 73
27
 74
27
 0
VERTEX
 8
MESH_160_F0
 10
0
 20
0
 30
0
 70
128
 71
12
 72
11
 73
26
 74
26
 0
VERTEX
 8
MESH_160_F0
 10
0
 20
0
 30
0
 70
128
 71
13
 72
12
 73
25
 74
25
 0
VERTEX
 8
MESH_160_F0
 10
0
 20
0
 30
0
 70
128
 71
14
 72
13
 73
24
 74
24
 0
VERTEX
 8
MESH_160_F0
 10
0
 20
0
 30
0
 70
128
 71
15
 72
14
 73
23
 74
23
 0
VERTEX
 8
MESH_160_F0
 10
0
 20
0
 30
0
 70
128
 71
16
 72
15
 73
22
 74
22
 0
VERTEX
 8
MESH_160_F0
 10
0
 20
0
 30
0
 70
128
 71
17
 72
16
 73
21
 74
21
 0
VERTEX
 8
MESH_160_F0
 10
0
 20
0
 30
0
 70
128
 71
18
 72
17
 73
20
 74
20
 0
VERTEX
 8
MESH_160_F0
 10
0
 20
0
 30
0
 70
128
 71
18
 72
20
 73
19
 74
19
 0
VERTEX
 8
MESH_160_F0
 10
0
 20
0
 30
0
 70
128
 71
17
 72
21
 73
20
 74
20
 0
VERTEX
 8
MESH_160_F0
 10
0
 20
0
 30
0
 70
128
 71
16
 72
22
 73
21
 74
21
 0
VERTEX
 8
MESH_160_F0
 10
0
 20
0
 30
0
 70
128
 71
15
 72
23
 73
22
 74
22
 0
VERTEX
 8
MESH_160_F0
 10
0
 20
0
 30
0
 70
128
 71
14
 72
24
 73
23
 74
23
 0
VERTEX
 8
MESH_160_F0
 10
0
 20
0
 30
0
 70
128
 71
13
 72
25
 73
24
 74
24
 0
VERTEX
 8
MESH_160_F0
 10
0
 20
0
 30
0
 70
128
 71
12
 72
26
 73
25
 74
25
 0
VERTEX
 8
MESH_160_F0
 10
0
 20
0
 30
0
 70
128
 71
11
 72
27
 73
26
 74
26
 0
VERTEX
 8
MESH_160_F0
 10
0
 20
0
 30
0
 70
128
 71
10
 72
28
 73
27
 74
27
 0
VERTEX
 8
MESH_160_F0
 10
0
 20
0
 30
0
 70
128
 71
9
 72
29
 73
28
 74
28
 0
VERTEX
 8
MESH_160_F0
 10
0
 20
0
 30
0
 70
128
 71
8
 72
30
 73
29
 74
29
 0
VERTEX
 8
MESH_160_F0
 10
0
 20
0
 30
0
 70
128
 71
7
 72
31
 73
30
 74
30
 0
VERTEX
 8
MESH_160_F0
 10
0
 20
0
 30
0
 70
128
 71
6
 72
32
 73
31
 74
31
 0
SEQEND
 0
POLYLINE
 8
MESH_159_F0
 66
1
 10
0.0
 20
0.0
 30
0.0
 70
64
 71
4
 72
2
 0
VERTEX
 8
MESH_159_F0
 10
-201.5
 20
-202
 30
-7
 70
192
 0
VERTEX
 8
MESH_159_F0
 10
-201.5
 20
-204
 30
-7
 70
192
 0
VERTEX
 8
MESH_159_F0
 10
-201.5
 20
-204
 30
-3
 70
192
 0
VERTEX
 8
MESH_159_F0
 10
-201.5
 20
-202
 30
-3
 70
192
 0
VERTEX
 8
MESH_159_F0
 10
0
 20
0
 30
0
 70
128
 71
4
 72
2
 73
1
 74
1
 0
VERTEX
 8
MESH_159_F0
 10
0
 20
0
 30
0
 70
128
 71
3
 72
2
 73
4
 74
4
 0
SEQEND
 0
POLYLINE
 8
MESH_158_F0
 66
1
 10
0.0
 20
0.0
 30
0.0
 70
64
 71
36
 72
34
 0
VERTEX
 8
MESH_158_F0
 10
-201.5
 20
-202
 30
-3
 70
192
 0
VERTEX
 8
MESH_158_F0
 10
-201.5
 20
-204
 30
-3
 70
192
 0
VERTEX
 8
MESH_158_F0
 10
-201.3751
 20
-206.5144
 30
-3
 70
192
 0
VERTEX
 8
MESH_158_F0
 10
-201.0081
 20
-208.9843
 30
-3
 70
192
 0
VERTEX
 8
MESH_158_F0
 10
-200.3993
 20
-211.4094
 30
-3
 70
192
 0
VERTEX
 8
MESH_158_F0
 10
-199.5547
 20
-213.7686
 30
-3
 70
192
 0
VERTEX
 8
MESH_158_F0
 10
-198.4845
 20
-216.0292
 30
-3
 70
192
 0
VERTEX
 8
MESH_158_F0
 10
-197.1986
 20
-218.1728
 30
-3
 70
192
 0
VERTEX
 8
MESH_158_F0
 10
-195.7095
 20
-220.1795
 30
-3
 70
192
 0
VERTEX
 8
MESH_158_F0
 10
-194.031
 20
-222.0313
 30
-3
 70
192
 0
VERTEX
 8
MESH_158_F0
 10
-192.1792
 20
-223.7097
 30
-3
 70
192
 0
VERTEX
 8
MESH_158_F0
 10
-190.1725
 20
-225.1988
 30
-3
 70
192
 0
VERTEX
 8
MESH_158_F0
 10
-188.0289
 20
-226.4847
 30
-3
 70
192
 0
VERTEX
 8
MESH_158_F0
 10
-185.7683
 20
-227.5548
 30
-3
 70
192
 0
VERTEX
 8
MESH_158_F0
 10
-183.4092
 20
-228.3993
 30
-3
 70
192
 0
VERTEX
 8
MESH_158_F0
 10
-180.9841
 20
-229.0082
 30
-3
 70
192
 0
VERTEX
 8
MESH_158_F0
 10
-178.5143
 20
-229.3751
 30
-3
 70
192
 0
VERTEX
 8
MESH_158_F0
 10
-176
 20
-229.5
 30
-3
 70
192
 0
VERTEX
 8
MESH_158_F0
 10
176
 20
-229.5
 30
-3
 70
192
 0
VERTEX
 8
MESH_158_F0
 10
178.5144
 20
-229.3751
 30
-3
 70
192
 0
VERTEX
 8
MESH_158_F0
 10
180.9843
 20
-229.0081
 30
-3
 70
192
 0
VERTEX
 8
MESH_158_F0
 10
183.4094
 20
-228.3993
 30
-3
 70
192
 0
VERTEX
 8
MESH_158_F0
 10
185.7686
 20
-227.5547
 30
-3
 70
192
 0
VERTEX
 8
MESH_158_F0
 10
188.0292
 20
-226.4845
 30
-3
 70
192
 0
VERTEX
 8
MESH_158_F0
 10
190.1728
 20
-225.1986
 30
-3
 70
192
 0
VERTEX
 8
MESH_158_F0
 10
192.1795
 20
-223.7095
 30
-3
 70
192
 0
VERTEX
 8
MESH_158_F0
 10
194.0313
 20
-222.031
 30
-3
 70
192
 0
VERTEX
 8
MESH_158_F0
 10
195.7097
 20
-220.1792
 30
-3
 70
192
 0
VERTEX
 8
MESH_158_F0
 10
197.1988
 20
-218.1725
 30
-3
 70
192
 0
VERTEX
 8
MESH_158_F0
 10
198.4847
 20
-216.0289
 30
-3
 70
192
 0
VERTEX
 8
MESH_158_F0
 10
199.5548
 20
-213.7683
 30
-3
 70
192
 0
VERTEX
 8
MESH_158_F0
 10
200.3993
 20
-211.4092
 30
-3
 70
192
 0
VERTEX
 8
MESH_158_F0
 10
201.0082
 20
-208.9841
 30
-3
 70
192
 0
VERTEX
 8
MESH_158_F0
 10
201.3751
 20
-206.5143
 30
-3
 70
192
 0
VERTEX
 8
MESH_158_F0
 10
201.5
 20
-204
 30
-3
 70
192
 0
VERTEX
 8
MESH_158_F0
 10
201.5
 20
-202
 30
-3
 70
192
 0
VERTEX
 8
MESH_158_F0
 10
0
 20
0
 30
0
 70
128
 71
1
 72
33
 73
2
 74
2
 0
VERTEX
 8
MESH_158_F0
 10
0
 20
0
 30
0
 70
128
 71
33
 72
3
 73
2
 74
2
 0
VERTEX
 8
MESH_158_F0
 10
0
 20
0
 30
0
 70
128
 71
4
 72
3
 73
33
 74
33
 0
VERTEX
 8
MESH_158_F0
 10
0
 20
0
 30
0
 70
128
 71
4
 72
33
 73
5
 74
5
 0
VERTEX
 8
MESH_158_F0
 10
0
 20
0
 30
0
 70
128
 71
33
 72
6
 73
5
 74
5
 0
VERTEX
 8
MESH_158_F0
 10
0
 20
0
 30
0
 70
128
 71
32
 72
6
 73
33
 74
33
 0
VERTEX
 8
MESH_158_F0
 10
0
 20
0
 30
0
 70
128
 71
7
 72
6
 73
32
 74
32
 0
VERTEX
 8
MESH_158_F0
 10
0
 20
0
 30
0
 70
128
 71
7
 72
32
 73
8
 74
8
 0
VERTEX
 8
MESH_158_F0
 10
0
 20
0
 30
0
 70
128
 71
32
 72
9
 73
8
 74
8
 0
VERTEX
 8
MESH_158_F0
 10
0
 20
0
 30
0
 70
128
 71
31
 72
9
 73
32
 74
32
 0
VERTEX
 8
MESH_158_F0
 10
0
 20
0
 30
0
 70
128
 71
10
 72
9
 73
31
 74
31
 0
VERTEX
 8
MESH_158_F0
 10
0
 20
0
 30
0
 70
128
 71
10
 72
31
 73
11
 74
11
 0
VERTEX
 8
MESH_158_F0
 10
0
 20
0
 30
0
 70
128
 71
31
 72
12
 73
11
 74
11
 0
VERTEX
 8
MESH_158_F0
 10
0
 20
0
 30
0
 70
128
 71
30
 72
12
 73
31
 74
31
 0
VERTEX
 8
MESH_158_F0
 10
0
 20
0
 30
0
 70
128
 71
13
 72
12
 73
30
 74
30
 0
VERTEX
 8
MESH_158_F0
 10
0
 20
0
 30
0
 70
128
 71
28
 72
13
 73
29
 74
29
 0
VERTEX
 8
MESH_158_F0
 10
0
 20
0
 30
0
 70
128
 71
13
 72
30
 73
29
 74
29
 0
VERTEX
 8
MESH_158_F0
 10
0
 20
0
 30
0
 70
128
 71
18
 72
13
 73
28
 74
28
 0
VERTEX
 8
MESH_158_F0
 10
0
 20
0
 30
0
 70
128
 71
26
 72
18
 73
27
 74
27
 0
VERTEX
 8
MESH_158_F0
 10
0
 20
0
 30
0
 70
128
 71
18
 72
28
 73
27
 74
27
 0
VERTEX
 8
MESH_158_F0
 10
0
 20
0
 30
0
 70
128
 71
18
 72
14
 73
13
 74
13
 0
VERTEX
 8
MESH_158_F0
 10
0
 20
0
 30
0
 70
128
 71
15
 72
14
 73
18
 74
18
 0
VERTEX
 8
MESH_158_F0
 10
0
 20
0
 30
0
 70
128
 71
15
 72
18
 73
16
 74
16
 0
VERTEX
 8
MESH_158_F0
 10
0
 20
0
 30
0
 70
128
 71
18
 72
17
 73
16
 74
16
 0
VERTEX
 8
MESH_158_F0
 10
0
 20
0
 30
0
 70
128
 71
19
 72
23
 73
22
 74
22
 0
VERTEX
 8
MESH_158_F0
 10
0
 20
0
 30
0
 70
128
 71
20
 72
19
 73
21
 74
21
 0
VERTEX
 8
MESH_158_F0
 10
0
 20
0
 30
0
 70
128
 71
19
 72
22
 73
21
 74
21
 0
VERTEX
 8
MESH_158_F0
 10
0
 20
0
 30
0
 70
128
 71
19
 72
24
 73
23
 74
23
 0
VERTEX
 8
MESH_158_F0
 10
0
 20
0
 30
0
 70
128
 71
18
 72
24
 73
19
 74
19
 0
VERTEX
 8
MESH_158_F0
 10
0
 20
0
 30
0
 70
128
 71
25
 72
24
 73
18
 74
18
 0
VERTEX
 8
MESH_158_F0
 10
0
 20
0
 30
0
 70
128
 71
25
 72
18
 73
26
 74
26
 0
VERTEX
 8
MESH_158_F0
 10
0
 20
0
 30
0
 70
128
 71
1
 72
34
 73
33
 74
33
 0
VERTEX
 8
MESH_158_F0
 10
0
 20
0
 30
0
 70
128
 71
35
 72
34
 73
1
 74
1
 0
VERTEX
 8
MESH_158_F0
 10
0
 20
0
 30
0
 70
128
 71
35
 72
1
 73
36
 74
36
 0
SEQEND
 0
POLYLINE
 8
MESH_157_F0
 66
1
 10
0.0
 20
0.0
 30
0.0
 70
64
 71
4
 72
2
 0
VERTEX
 8
MESH_157_F0
 10
201.5
 20
-202
 30
-3
 70
192
 0
VERTEX
 8
MESH_157_F0
 10
201.5
 20
-204
 30
-3
 70
192
 0
VERTEX
 8
MESH_157_F0
 10
201.5
 20
-204
 30
-7
 70
192
 0
VERTEX
 8
MESH_157_F0
 10
201.5
 20
-202
 30
-7
 70
192
 0
VERTEX
 8
MESH_157_F0
 10
0
 20
0
 30
0
 70
128
 71
4
 72
2
 73
1
 74
1
 0
VERTEX
 8
MESH_157_F0
 10
0
 20
0
 30
0
 70
128
 71
3
 72
2
 73
4
 74
4
 0
SEQEND
 0
POLYLINE
 8
MESH_156_F0
 66
1
 10
0.0
 20
0.0
 30
0.0
 70
64
 71
4
 72
2
 0
VERTEX
 8
MESH_156_F0
 10
-176.001
 20
-229
 30
-7
 70
192
 0
VERTEX
 8
MESH_156_F0
 10
-176.001
 20
-229
 30
-475
 70
192
 0
VERTEX
 8
MESH_156_F0
 10
176.001
 20
-229
 30
-475
 70
192
 0
VERTEX
 8
MESH_156_F0
 10
176.001
 20
-229
 30
-7
 70
192
 0
VERTEX
 8
MESH_156_F0
 10
0
 20
0
 30
0
 70
128
 71
1
 72
3
 73
2
 74
2
 0
VERTEX
 8
MESH_156_F0
 10
0
 20
0
 30
0
 70
128
 71
4
 72
3
 73
1
 74
1
 0
SEQEND
 0
POLYLINE
 8
MESH_155_F0
 66
1
 10
0.0
 20
0.0
 30
0.0
 70
64
 71
66
 72
64
 0
VERTEX
 8
MESH_155_F0
 10
-200.9198
 20
-202
 30
-7
 70
192
 0
VERTEX
 8
MESH_155_F0
 10
-200.9821
 20
-204.9456
 30
-7
 70
192
 0
VERTEX
 8
MESH_155_F0
 10
-200.6975
 20
-207.8781
 30
-7
 70
192
 0
VERTEX
 8
MESH_155_F0
 10
-200.0699
 20
-210.7567
 30
-7
 70
192
 0
VERTEX
 8
MESH_155_F0
 10
-199.1079
 20
-213.5415
 30
-7
 70
192
 0
VERTEX
 8
MESH_155_F0
 10
-197.825
 20
-216.1938
 30
-7
 70
192
 0
VERTEX
 8
MESH_155_F0
 10
-196.239
 20
-218.6767
 30
-7
 70
192
 0
VERTEX
 8
MESH_155_F0
 10
-194.3718
 20
-220.9557
 30
-7
 70
192
 0
VERTEX
 8
MESH_155_F0
 10
-192.2495
 20
-222.9993
 30
-7
 70
192
 0
VERTEX
 8
MESH_155_F0
 10
-189.9015
 20
-224.779
 30
-7
 70
192
 0
VERTEX
 8
MESH_155_F0
 10
-187.3604
 20
-226.2701
 30
-7
 70
192
 0
VERTEX
 8
MESH_155_F0
 10
-184.6616
 20
-227.4519
 30
-7
 70
192
 0
VERTEX
 8
MESH_155_F0
 10
-181.8424
 20
-228.3079
 30
-7
 70
192
 0
VERTEX
 8
MESH_155_F0
 10
-178.9421
 20
-228.8264
 30
-7
 70
192
 0
VERTEX
 8
MESH_155_F0
 10
-176.001
 20
-229
 30
-7
 70
192
 0
VERTEX
 8
MESH_155_F0
 10
176.001
 20
-229
 30
-7
 70
192
 0
VERTEX
 8
MESH_155_F0
 10
178.9421
 20
-228.8264
 30
-7
 70
192
 0
VERTEX
 8
MESH_155_F0
 10
181.8424
 20
-228.3079
 30
-7
 70
192
 0
VERTEX
 8
MESH_155_F0
 10
184.6616
 20
-227.4519
 30
-7
 70
192
 0
VERTEX
 8
MESH_155_F0
 10
187.3604
 20
-226.2701
 30
-7
 70
192
 0
VERTEX
 8
MESH_155_F0
 10
189.9015
 20
-224.779
 30
-7
 70
192
 0
VERTEX
 8
MESH_155_F0
 10
192.2495
 20
-222.9993
 30
-7
 70
192
 0
VERTEX
 8
MESH_155_F0
 10
194.3718
 20
-220.9557
 30
-7
 70
192
 0
VERTEX
 8
MESH_155_F0
 10
196.239
 20
-218.6767
 30
-7
 70
192
 0
VERTEX
 8
MESH_155_F0
 10
197.825
 20
-216.1938
 30
-7
 70
192
 0
VERTEX
 8
MESH_155_F0
 10
199.1079
 20
-213.5415
 30
-7
 70
192
 0
VERTEX
 8
MESH_155_F0
 10
200.0699
 20
-210.7567
 30
-7
 70
192
 0
VERTEX
 8
MESH_155_F0
 10
200.6975
 20
-207.8781
 30
-7
 70
192
 0
VERTEX
 8
MESH_155_F0
 10
200.9821
 20
-204.9456
 30
-7
 70
192
 0
VERTEX
 8
MESH_155_F0
 10
200.9198
 20
-202
 30
-7
 70
192
 0
VERTEX
 8
MESH_155_F0
 10
201.5
 20
-202
 30
-7
 70
192
 0
VERTEX
 8
MESH_155_F0
 10
201.5
 20
-204
 30
-7
 70
192
 0
VERTEX
 8
MESH_155_F0
 10
201.3751
 20
-206.5144
 30
-7
 70
192
 0
VERTEX
 8
MESH_155_F0
 10
201.0081
 20
-208.9843
 30
-7
 70
192
 0
VERTEX
 8
MESH_155_F0
 10
200.3993
 20
-211.4094
 30
-7
 70
192
 0
VERTEX
 8
MESH_155_F0
 10
199.5547
 20
-213.7686
 30
-7
 70
192
 0
VERTEX
 8
MESH_155_F0
 10
198.4845
 20
-216.0292
 30
-7
 70
192
 0
VERTEX
 8
MESH_155_F0
 10
197.1986
 20
-218.1728
 30
-7
 70
192
 0
VERTEX
 8
MESH_155_F0
 10
195.7095
 20
-220.1795
 30
-7
 70
192
 0
VERTEX
 8
MESH_155_F0
 10
194.031
 20
-222.0313
 30
-7
 70
192
 0
VERTEX
 8
MESH_155_F0
 10
192.1792
 20
-223.7097
 30
-7
 70
192
 0
VERTEX
 8
MESH_155_F0
 10
190.1725
 20
-225.1988
 30
-7
 70
192
 0
VERTEX
 8
MESH_155_F0
 10
188.0289
 20
-226.4847
 30
-7
 70
192
 0
VERTEX
 8
MESH_155_F0
 10
185.7683
 20
-227.5548
 30
-7
 70
192
 0
VERTEX
 8
MESH_155_F0
 10
183.4092
 20
-228.3993
 30
-7
 70
192
 0
VERTEX
 8
MESH_155_F0
 10
180.9841
 20
-229.0082
 30
-7
 70
192
 0
VERTEX
 8
MESH_155_F0
 10
178.5143
 20
-229.3751
 30
-7
 70
192
 0
VERTEX
 8
MESH_155_F0
 10
176
 20
-229.5
 30
-7
 70
192
 0
VERTEX
 8
MESH_155_F0
 10
-176
 20
-229.5
 30
-7
 70
192
 0
VERTEX
 8
MESH_155_F0
 10
-178.5144
 20
-229.3751
 30
-7
 70
192
 0
VERTEX
 8
MESH_155_F0
 10
-180.9843
 20
-229.0081
 30
-7
 70
192
 0
VERTEX
 8
MESH_155_F0
 10
-183.4094
 20
-228.3993
 30
-7
 70
192
 0
VERTEX
 8
MESH_155_F0
 10
-185.7686
 20
-227.5547
 30
-7
 70
192
 0
VERTEX
 8
MESH_155_F0
 10
-188.0292
 20
-226.4845
 30
-7
 70
192
 0
VERTEX
 8
MESH_155_F0
 10
-190.1728
 20
-225.1986
 30
-7
 70
192
 0
VERTEX
 8
MESH_155_F0
 10
-192.1795
 20
-223.7095
 30
-7
 70
192
 0
VERTEX
 8
MESH_155_F0
 10
-194.0313
 20
-222.031
 30
-7
 70
192
 0
VERTEX
 8
MESH_155_F0
 10
-195.7097
 20
-220.1792
 30
-7
 70
192
 0
VERTEX
 8
MESH_155_F0
 10
-197.1988
 20
-218.1725
 30
-7
 70
192
 0
VERTEX
 8
MESH_155_F0
 10
-198.4847
 20
-216.0289
 30
-7
 70
192
 0
VERTEX
 8
MESH_155_F0
 10
-199.5548
 20
-213.7683
 30
-7
 70
192
 0
VERTEX
 8
MESH_155_F0
 10
-200.3993
 20
-211.4092
 30
-7
 70
192
 0
VERTEX
 8
MESH_155_F0
 10
-201.0082
 20
-208.9841
 30
-7
 70
192
 0
VERTEX
 8
MESH_155_F0
 10
-201.3751
 20
-206.5143
 30
-7
 70
192
 0
VERTEX
 8
MESH_155_F0
 10
-201.5
 20
-204
 30
-7
 70
192
 0
VERTEX
 8
MESH_155_F0
 10
-201.5
 20
-202
 30
-7
 70
192
 0
VERTEX
 8
MESH_155_F0
 10
0
 20
0
 30
0
 70
128
 71
65
 72
1
 73
66
 74
66
 0
VERTEX
 8
MESH_155_F0
 10
0
 20
0
 30
0
 70
128
 71
2
 72
1
 73
65
 74
65
 0
VERTEX
 8
MESH_155_F0
 10
0
 20
0
 30
0
 70
128
 71
3
 72
2
 73
64
 74
64
 0
VERTEX
 8
MESH_155_F0
 10
0
 20
0
 30
0
 70
128
 71
4
 72
3
 73
63
 74
63
 0
VERTEX
 8
MESH_155_F0
 10
0
 20
0
 30
0
 70
128
 71
5
 72
4
 73
62
 74
62
 0
VERTEX
 8
MESH_155_F0
 10
0
 20
0
 30
0
 70
128
 71
60
 72
5
 73
61
 74
61
 0
VERTEX
 8
MESH_155_F0
 10
0
 20
0
 30
0
 70
128
 71
5
 72
62
 73
61
 74
61
 0
VERTEX
 8
MESH_155_F0
 10
0
 20
0
 30
0
 70
128
 71
60
 72
6
 73
5
 74
5
 0
VERTEX
 8
MESH_155_F0
 10
0
 20
0
 30
0
 70
128
 71
59
 72
6
 73
60
 74
60
 0
VERTEX
 8
MESH_155_F0
 10
0
 20
0
 30
0
 70
128
 71
7
 72
6
 73
59
 74
59
 0
VERTEX
 8
MESH_155_F0
 10
0
 20
0
 30
0
 70
128
 71
8
 72
7
 73
58
 74
58
 0
VERTEX
 8
MESH_155_F0
 10
0
 20
0
 30
0
 70
128
 71
9
 72
8
 73
57
 74
57
 0
VERTEX
 8
MESH_155_F0
 10
0
 20
0
 30
0
 70
128
 71
10
 72
9
 73
56
 74
56
 0
VERTEX
 8
MESH_155_F0
 10
0
 20
0
 30
0
 70
128
 71
11
 72
10
 73
55
 74
55
 0
VERTEX
 8
MESH_155_F0
 10
0
 20
0
 30
0
 70
128
 71
12
 72
11
 73
54
 74
54
 0
VERTEX
 8
MESH_155_F0
 10
0
 20
0
 30
0
 70
128
 71
13
 72
12
 73
53
 74
53
 0
VERTEX
 8
MESH_155_F0
 10
0
 20
0
 30
0
 70
128
 71
14
 72
13
 73
52
 74
52
 0
VERTEX
 8
MESH_155_F0
 10
0
 20
0
 30
0
 70
128
 71
15
 72
14
 73
51
 74
51
 0
VERTEX
 8
MESH_155_F0
 10
0
 20
0
 30
0
 70
128
 71
49
 72
15
 73
50
 74
50
 0
VERTEX
 8
MESH_155_F0
 10
0
 20
0
 30
0
 70
128
 71
15
 72
51
 73
50
 74
50
 0
VERTEX
 8
MESH_155_F0
 10
0
 20
0
 30
0
 70
128
 71
48
 72
15
 73
49
 74
49
 0
VERTEX
 8
MESH_155_F0
 10
0
 20
0
 30
0
 70
128
 71
16
 72
15
 73
48
 74
48
 0
VERTEX
 8
MESH_155_F0
 10
0
 20
0
 30
0
 70
128
 71
46
 72
16
 73
47
 74
47
 0
VERTEX
 8
MESH_155_F0
 10
0
 20
0
 30
0
 70
128
 71
16
 72
48
 73
47
 74
47
 0
VERTEX
 8
MESH_155_F0
 10
0
 20
0
 30
0
 70
128
 71
46
 72
17
 73
16
 74
16
 0
VERTEX
 8
MESH_155_F0
 10
0
 20
0
 30
0
 70
128
 71
45
 72
17
 73
46
 74
46
 0
VERTEX
 8
MESH_155_F0
 10
0
 20
0
 30
0
 70
128
 71
18
 72
17
 73
45
 74
45
 0
VERTEX
 8
MESH_155_F0
 10
0
 20
0
 30
0
 70
128
 71
19
 72
18
 73
44
 74
44
 0
VERTEX
 8
MESH_155_F0
 10
0
 20
0
 30
0
 70
128
 71
20
 72
19
 73
43
 74
43
 0
VERTEX
 8
MESH_155_F0
 10
0
 20
0
 30
0
 70
128
 71
21
 72
20
 73
42
 74
42
 0
VERTEX
 8
MESH_155_F0
 10
0
 20
0
 30
0
 70
128
 71
22
 72
21
 73
41
 74
41
 0
VERTEX
 8
MESH_155_F0
 10
0
 20
0
 30
0
 70
128
 71
23
 72
22
 73
40
 74
40
 0
VERTEX
 8
MESH_155_F0
 10
0
 20
0
 30
0
 70
128
 71
24
 72
23
 73
39
 74
39
 0
VERTEX
 8
MESH_155_F0
 10
0
 20
0
 30
0
 70
128
 71
25
 72
24
 73
38
 74
38
 0
VERTEX
 8
MESH_155_F0
 10
0
 20
0
 30
0
 70
128
 71
26
 72
25
 73
37
 74
37
 0
VERTEX
 8
MESH_155_F0
 10
0
 20
0
 30
0
 70
128
 71
35
 72
26
 73
36
 74
36
 0
VERTEX
 8
MESH_155_F0
 10
0
 20
0
 30
0
 70
128
 71
26
 72
37
 73
36
 74
36
 0
VERTEX
 8
MESH_155_F0
 10
0
 20
0
 30
0
 70
128
 71
35
 72
27
 73
26
 74
26
 0
VERTEX
 8
MESH_155_F0
 10
0
 20
0
 30
0
 70
128
 71
34
 72
27
 73
35
 74
35
 0
VERTEX
 8
MESH_155_F0
 10
0
 20
0
 30
0
 70
128
 71
28
 72
27
 73
34
 74
34
 0
VERTEX
 8
MESH_155_F0
 10
0
 20
0
 30
0
 70
128
 71
29
 72
28
 73
33
 74
33
 0
VERTEX
 8
MESH_155_F0
 10
0
 20
0
 30
0
 70
128
 71
30
 72
29
 73
32
 74
32
 0
VERTEX
 8
MESH_155_F0
 10
0
 20
0
 30
0
 70
128
 71
30
 72
32
 73
31
 74
31
 0
VERTEX
 8
MESH_155_F0
 10
0
 20
0
 30
0
 70
128
 71
29
 72
33
 73
32
 74
32
 0
VERTEX
 8
MESH_155_F0
 10
0
 20
0
 30
0
 70
128
 71
28
 72
34
 73
33
 74
33
 0
VERTEX
 8
MESH_155_F0
 10
0
 20
0
 30
0
 70
128
 71
25
 72
38
 73
37
 74
37
 0
VERTEX
 8
MESH_155_F0
 10
0
 20
0
 30
0
 70
128
 71
24
 72
39
 73
38
 74
38
 0
VERTEX
 8
MESH_155_F0
 10
0
 20
0
 30
0
 70
128
 71
23
 72
40
 73
39
 74
39
 0
VERTEX
 8
MESH_155_F0
 10
0
 20
0
 30
0
 70
128
 71
22
 72
41
 73
40
 74
40
 0
VERTEX
 8
MESH_155_F0
 10
0
 20
0
 30
0
 70
128
 71
21
 72
42
 73
41
 74
41
 0
VERTEX
 8
MESH_155_F0
 10
0
 20
0
 30
0
 70
128
 71
20
 72
43
 73
42
 74
42
 0
VERTEX
 8
MESH_155_F0
 10
0
 20
0
 30
0
 70
128
 71
19
 72
44
 73
43
 74
43
 0
VERTEX
 8
MESH_155_F0
 10
0
 20
0
 30
0
 70
128
 71
18
 72
45
 73
44
 74
44
 0
VERTEX
 8
MESH_155_F0
 10
0
 20
0
 30
0
 70
128
 71
14
 72
52
 73
51
 74
51
 0
VERTEX
 8
MESH_155_F0
 10
0
 20
0
 30
0
 70
128
 71
13
 72
53
 73
52
 74
52
 0
VERTEX
 8
MESH_155_F0
 10
0
 20
0
 30
0
 70
128
 71
12
 72
54
 73
53
 74
53
 0
VERTEX
 8
MESH_155_F0
 10
0
 20
0
 30
0
 70
128
 71
11
 72
55
 73
54
 74
54
 0
VERTEX
 8
MESH_155_F0
 10
0
 20
0
 30
0
 70
128
 71
10
 72
56
 73
55
 74
55
 0
VERTEX
 8
MESH_155_F0
 10
0
 20
0
 30
0
 70
128
 71
9
 72
57
 73
56
 74
56
 0
VERTEX
 8
MESH_155_F0
 10
0
 20
0
 30
0
 70
128
 71
8
 72
58
 73
57
 74
57
 0
VERTEX
 8
MESH_155_F0
 10
0
 20
0
 30
0
 70
128
 71
7
 72
59
 73
58
 74
58
 0
VERTEX
 8
MESH_155_F0
 10
0
 20
0
 30
0
 70
128
 71
4
 72
63
 73
62
 74
62
 0
VERTEX
 8
MESH_155_F0
 10
0
 20
0
 30
0
 70
128
 71
3
 72
64
 73
63
 74
63
 0
VERTEX
 8
MESH_155_F0
 10
0
 20
0
 30
0
 70
128
 71
2
 72
65
 73
64
 74
64
 0
SEQEND
 0
POLYLINE
 8
MESH_154_F0
 66
1
 10
0.0
 20
0.0
 30
0.0
 70
64
 71
30
 72
28
 0
VERTEX
 8
MESH_154_F0
 10
200.9198
 20
-202
 30
-7
 70
192
 0
VERTEX
 8
MESH_154_F0
 10
200.9821
 20
-204.9456
 30
-7
 70
192
 0
VERTEX
 8
MESH_154_F0
 10
200.6975
 20
-207.8781
 30
-7
 70
192
 0
VERTEX
 8
MESH_154_F0
 10
200.0699
 20
-210.7567
 30
-7
 70
192
 0
VERTEX
 8
MESH_154_F0
 10
199.1079
 20
-213.5415
 30
-7
 70
192
 0
VERTEX
 8
MESH_154_F0
 10
197.825
 20
-216.1938
 30
-7
 70
192
 0
VERTEX
 8
MESH_154_F0
 10
196.239
 20
-218.6767
 30
-7
 70
192
 0
VERTEX
 8
MESH_154_F0
 10
194.3718
 20
-220.9557
 30
-7
 70
192
 0
VERTEX
 8
MESH_154_F0
 10
192.2495
 20
-222.9993
 30
-7
 70
192
 0
VERTEX
 8
MESH_154_F0
 10
189.9015
 20
-224.779
 30
-7
 70
192
 0
VERTEX
 8
MESH_154_F0
 10
187.3604
 20
-226.2701
 30
-7
 70
192
 0
VERTEX
 8
MESH_154_F0
 10
184.6616
 20
-227.4519
 30
-7
 70
192
 0
VERTEX
 8
MESH_154_F0
 10
181.8424
 20
-228.3079
 30
-7
 70
192
 0
VERTEX
 8
MESH_154_F0
 10
178.9421
 20
-228.8264
 30
-7
 70
192
 0
VERTEX
 8
MESH_154_F0
 10
176.001
 20
-229
 30
-7
 70
192
 0
VERTEX
 8
MESH_154_F0
 10
176.001
 20
-229
 30
-475
 70
192
 0
VERTEX
 8
MESH_154_F0
 10
178.9421
 20
-228.8264
 30
-475
 70
192
 0
VERTEX
 8
MESH_154_F0
 10
181.8424
 20
-228.3079
 30
-475
 70
192
 0
VERTEX
 8
MESH_154_F0
 10
184.6616
 20
-227.4519
 30
-475
 70
192
 0
VERTEX
 8
MESH_154_F0
 10
187.3604
 20
-226.2701
 30
-475
 70
192
 0
VERTEX
 8
MESH_154_F0
 10
189.9015
 20
-224.779
 30
-475
 70
192
 0
VERTEX
 8
MESH_154_F0
 10
192.2495
 20
-222.9993
 30
-475
 70
192
 0
VERTEX
 8
MESH_154_F0
 10
194.3718
 20
-220.9557
 30
-475
 70
192
 0
VERTEX
 8
MESH_154_F0
 10
196.239
 20
-218.6767
 30
-475
 70
192
 0
VERTEX
 8
MESH_154_F0
 10
197.825
 20
-216.1938
 30
-475
 70
192
 0
VERTEX
 8
MESH_154_F0
 10
199.1079
 20
-213.5415
 30
-475
 70
192
 0
VERTEX
 8
MESH_154_F0
 10
200.0699
 20
-210.7567
 30
-475
 70
192
 0
VERTEX
 8
MESH_154_F0
 10
200.6975
 20
-207.8781
 30
-475
 70
192
 0
VERTEX
 8
MESH_154_F0
 10
200.9821
 20
-204.9456
 30
-475
 70
192
 0
VERTEX
 8
MESH_154_F0
 10
200.9198
 20
-202
 30
-475
 70
192
 0
VERTEX
 8
MESH_154_F0
 10
0
 20
0
 30
0
 70
128
 71
29
 72
1
 73
30
 74
30
 0
VERTEX
 8
MESH_154_F0
 10
0
 20
0
 30
0
 70
128
 71
2
 72
1
 73
29
 74
29
 0
VERTEX
 8
MESH_154_F0
 10
0
 20
0
 30
0
 70
128
 71
3
 72
2
 73
28
 74
28
 0
VERTEX
 8
MESH_154_F0
 10
0
 20
0
 30
0
 70
128
 71
4
 72
3
 73
27
 74
27
 0
VERTEX
 8
MESH_154_F0
 10
0
 20
0
 30
0
 70
128
 71
5
 72
4
 73
26
 74
26
 0
VERTEX
 8
MESH_154_F0
 10
0
 20
0
 30
0
 70
128
 71
6
 72
5
 73
25
 74
25
 0
VERTEX
 8
MESH_154_F0
 10
0
 20
0
 30
0
 70
128
 71
7
 72
6
 73
24
 74
24
 0
VERTEX
 8
MESH_154_F0
 10
0
 20
0
 30
0
 70
128
 71
8
 72
7
 73
23
 74
23
 0
VERTEX
 8
MESH_154_F0
 10
0
 20
0
 30
0
 70
128
 71
9
 72
8
 73
22
 74
22
 0
VERTEX
 8
MESH_154_F0
 10
0
 20
0
 30
0
 70
128
 71
10
 72
9
 73
21
 74
21
 0
VERTEX
 8
MESH_154_F0
 10
0
 20
0
 30
0
 70
128
 71
11
 72
10
 73
20
 74
20
 0
VERTEX
 8
MESH_154_F0
 10
0
 20
0
 30
0
 70
128
 71
12
 72
11
 73
19
 74
19
 0
VERTEX
 8
MESH_154_F0
 10
0
 20
0
 30
0
 70
128
 71
13
 72
12
 73
18
 74
18
 0
VERTEX
 8
MESH_154_F0
 10
0
 20
0
 30
0
 70
128
 71
14
 72
13
 73
17
 74
17
 0
VERTEX
 8
MESH_154_F0
 10
0
 20
0
 30
0
 70
128
 71
15
 72
14
 73
16
 74
16
 0
VERTEX
 8
MESH_154_F0
 10
0
 20
0
 30
0
 70
128
 71
14
 72
17
 73
16
 74
16
 0
VERTEX
 8
MESH_154_F0
 10
0
 20
0
 30
0
 70
128
 71
13
 72
18
 73
17
 74
17
 0
VERTEX
 8
MESH_154_F0
 10
0
 20
0
 30
0
 70
128
 71
12
 72
19
 73
18
 74
18
 0
VERTEX
 8
MESH_154_F0
 10
0
 20
0
 30
0
 70
128
 71
11
 72
20
 73
19
 74
19
 0
VERTEX
 8
MESH_154_F0
 10
0
 20
0
 30
0
 70
128
 71
10
 72
21
 73
20
 74
20
 0
VERTEX
 8
MESH_154_F0
 10
0
 20
0
 30
0
 70
128
 71
9
 72
22
 73
21
 74
21
 0
VERTEX
 8
MESH_154_F0
 10
0
 20
0
 30
0
 70
128
 71
8
 72
23
 73
22
 74
22
 0
VERTEX
 8
MESH_154_F0
 10
0
 20
0
 30
0
 70
128
 71
7
 72
24
 73
23
 74
23
 0
VERTEX
 8
MESH_154_F0
 10
0
 20
0
 30
0
 70
128
 71
6
 72
25
 73
24
 74
24
 0
VERTEX
 8
MESH_154_F0
 10
0
 20
0
 30
0
 70
128
 71
5
 72
26
 73
25
 74
25
 0
VERTEX
 8
MESH_154_F0
 10
0
 20
0
 30
0
 70
128
 71
4
 72
27
 73
26
 74
26
 0
VERTEX
 8
MESH_154_F0
 10
0
 20
0
 30
0
 70
128
 71
3
 72
28
 73
27
 74
27
 0
VERTEX
 8
MESH_154_F0
 10
0
 20
0
 30
0
 70
128
 71
2
 72
29
 73
28
 74
28
 0
SEQEND
 0
POLYLINE
 8
MESH_153_F0
 66
1
 10
0.0
 20
0.0
 30
0.0
 70
64
 71
34
 72
32
 0
VERTEX
 8
MESH_153_F0
 10
184.5
 20
-202
 30
-475
 70
192
 0
VERTEX
 8
MESH_153_F0
 10
200.9198
 20
-202
 30
-475
 70
192
 0
VERTEX
 8
MESH_153_F0
 10
200.9821
 20
-204.9456
 30
-475
 70
192
 0
VERTEX
 8
MESH_153_F0
 10
200.6975
 20
-207.8781
 30
-475
 70
192
 0
VERTEX
 8
MESH_153_F0
 10
200.0699
 20
-210.7567
 30
-475
 70
192
 0
VERTEX
 8
MESH_153_F0
 10
199.1079
 20
-213.5415
 30
-475
 70
192
 0
VERTEX
 8
MESH_153_F0
 10
197.825
 20
-216.1938
 30
-475
 70
192
 0
VERTEX
 8
MESH_153_F0
 10
196.239
 20
-218.6767
 30
-475
 70
192
 0
VERTEX
 8
MESH_153_F0
 10
194.3718
 20
-220.9557
 30
-475
 70
192
 0
VERTEX
 8
MESH_153_F0
 10
192.2495
 20
-222.9993
 30
-475
 70
192
 0
VERTEX
 8
MESH_153_F0
 10
189.9015
 20
-224.779
 30
-475
 70
192
 0
VERTEX
 8
MESH_153_F0
 10
187.3604
 20
-226.2701
 30
-475
 70
192
 0
VERTEX
 8
MESH_153_F0
 10
184.6616
 20
-227.4519
 30
-475
 70
192
 0
VERTEX
 8
MESH_153_F0
 10
181.8424
 20
-228.3079
 30
-475
 70
192
 0
VERTEX
 8
MESH_153_F0
 10
178.9421
 20
-228.8264
 30
-475
 70
192
 0
VERTEX
 8
MESH_153_F0
 10
176.001
 20
-229
 30
-475
 70
192
 0
VERTEX
 8
MESH_153_F0
 10
-176.001
 20
-229
 30
-475
 70
192
 0
VERTEX
 8
MESH_153_F0
 10
-178.9421
 20
-228.8264
 30
-475
 70
192
 0
VERTEX
 8
MESH_153_F0
 10
-181.8424
 20
-228.3079
 30
-475
 70
192
 0
VERTEX
 8
MESH_153_F0
 10
-184.6616
 20
-227.4519
 30
-475
 70
192
 0
VERTEX
 8
MESH_153_F0
 10
-187.3604
 20
-226.2701
 30
-475
 70
192
 0
VERTEX
 8
MESH_153_F0
 10
-189.9015
 20
-224.779
 30
-475
 70
192
 0
VERTEX
 8
MESH_153_F0
 10
-192.2495
 20
-222.9993
 30
-475
 70
192
 0
VERTEX
 8
MESH_153_F0
 10
-194.3718
 20
-220.9557
 30
-475
 70
192
 0
VERTEX
 8
MESH_153_F0
 10
-196.239
 20
-218.6767
 30
-475
 70
192
 0
VERTEX
 8
MESH_153_F0
 10
-197.825
 20
-216.1938
 30
-475
 70
192
 0
VERTEX
 8
MESH_153_F0
 10
-199.1079
 20
-213.5415
 30
-475
 70
192
 0
VERTEX
 8
MESH_153_F0
 10
-200.0699
 20
-210.7567
 30
-475
 70
192
 0
VERTEX
 8
MESH_153_F0
 10
-200.6975
 20
-207.8781
 30
-475
 70
192
 0
VERTEX
 8
MESH_153_F0
 10
-200.9821
 20
-204.9456
 30
-475
 70
192
 0
VERTEX
 8
MESH_153_F0
 10
-200.9198
 20
-202
 30
-475
 70
192
 0
VERTEX
 8
MESH_153_F0
 10
-184.5
 20
-202
 30
-475
 70
192
 0
VERTEX
 8
MESH_153_F0
 10
-184.5
 20
-199.5
 30
-475
 70
192
 0
VERTEX
 8
MESH_153_F0
 10
184.5
 20
-199.5
 30
-475
 70
192
 0
VERTEX
 8
MESH_153_F0
 10
0
 20
0
 30
0
 70
128
 71
1
 72
3
 73
2
 74
2
 0
VERTEX
 8
MESH_153_F0
 10
0
 20
0
 30
0
 70
128
 71
4
 72
3
 73
1
 74
1
 0
VERTEX
 8
MESH_153_F0
 10
0
 20
0
 30
0
 70
128
 71
4
 72
1
 73
5
 74
5
 0
VERTEX
 8
MESH_153_F0
 10
0
 20
0
 30
0
 70
128
 71
1
 72
6
 73
5
 74
5
 0
VERTEX
 8
MESH_153_F0
 10
0
 20
0
 30
0
 70
128
 71
7
 72
6
 73
1
 74
1
 0
VERTEX
 8
MESH_153_F0
 10
0
 20
0
 30
0
 70
128
 71
7
 72
1
 73
8
 74
8
 0
VERTEX
 8
MESH_153_F0
 10
0
 20
0
 30
0
 70
128
 71
1
 72
27
 73
8
 74
8
 0
VERTEX
 8
MESH_153_F0
 10
0
 20
0
 30
0
 70
128
 71
27
 72
26
 73
8
 74
8
 0
VERTEX
 8
MESH_153_F0
 10
0
 20
0
 30
0
 70
128
 71
26
 72
9
 73
8
 74
8
 0
VERTEX
 8
MESH_153_F0
 10
0
 20
0
 30
0
 70
128
 71
10
 72
9
 73
26
 74
26
 0
VERTEX
 8
MESH_153_F0
 10
0
 20
0
 30
0
 70
128
 71
10
 72
26
 73
11
 74
11
 0
VERTEX
 8
MESH_153_F0
 10
0
 20
0
 30
0
 70
128
 71
26
 72
12
 73
11
 74
11
 0
VERTEX
 8
MESH_153_F0
 10
0
 20
0
 30
0
 70
128
 71
13
 72
12
 73
26
 74
26
 0
VERTEX
 8
MESH_153_F0
 10
0
 20
0
 30
0
 70
128
 71
13
 72
26
 73
14
 74
14
 0
VERTEX
 8
MESH_153_F0
 10
0
 20
0
 30
0
 70
128
 71
26
 72
25
 73
14
 74
14
 0
VERTEX
 8
MESH_153_F0
 10
0
 20
0
 30
0
 70
128
 71
25
 72
24
 73
14
 74
14
 0
VERTEX
 8
MESH_153_F0
 10
0
 20
0
 30
0
 70
128
 71
24
 72
23
 73
14
 74
14
 0
VERTEX
 8
MESH_153_F0
 10
0
 20
0
 30
0
 70
128
 71
23
 72
22
 73
14
 74
14
 0
VERTEX
 8
MESH_153_F0
 10
0
 20
0
 30
0
 70
128
 71
22
 72
21
 73
14
 74
14
 0
VERTEX
 8
MESH_153_F0
 10
0
 20
0
 30
0
 70
128
 71
21
 72
17
 73
14
 74
14
 0
VERTEX
 8
MESH_153_F0
 10
0
 20
0
 30
0
 70
128
 71
17
 72
16
 73
14
 74
14
 0
VERTEX
 8
MESH_153_F0
 10
0
 20
0
 30
0
 70
128
 71
16
 72
15
 73
14
 74
14
 0
VERTEX
 8
MESH_153_F0
 10
0
 20
0
 30
0
 70
128
 71
17
 72
19
 73
18
 74
18
 0
VERTEX
 8
MESH_153_F0
 10
0
 20
0
 30
0
 70
128
 71
20
 72
19
 73
17
 74
17
 0
VERTEX
 8
MESH_153_F0
 10
0
 20
0
 30
0
 70
128
 71
20
 72
17
 73
21
 74
21
 0
VERTEX
 8
MESH_153_F0
 10
0
 20
0
 30
0
 70
128
 71
1
 72
28
 73
27
 74
27
 0
VERTEX
 8
MESH_153_F0
 10
0
 20
0
 30
0
 70
128
 71
29
 72
28
 73
1
 74
1
 0
VERTEX
 8
MESH_153_F0
 10
0
 20
0
 30
0
 70
128
 71
30
 72
29
 73
32
 74
32
 0
VERTEX
 8
MESH_153_F0
 10
0
 20
0
 30
0
 70
128
 71
30
 72
32
 73
31
 74
31
 0
VERTEX
 8
MESH_153_F0
 10
0
 20
0
 30
0
 70
128
 71
1
 72
32
 73
29
 74
29
 0
VERTEX
 8
MESH_153_F0
 10
0
 20
0
 30
0
 70
128
 71
33
 72
32
 73
1
 74
1
 0
VERTEX
 8
MESH_153_F0
 10
0
 20
0
 30
0
 70
128
 71
33
 72
1
 73
34
 74
34
 0
SEQEND
 0
POLYLINE
 8
MESH_152_F0
 66
1
 10
0.0
 20
0.0
 30
0.0
 70
64
 71
30
 72
28
 0
VERTEX
 8
MESH_152_F0
 10
-200.9198
 20
-202
 30
-475
 70
192
 0
VERTEX
 8
MESH_152_F0
 10
-200.9821
 20
-204.9456
 30
-475
 70
192
 0
VERTEX
 8
MESH_152_F0
 10
-200.6975
 20
-207.8781
 30
-475
 70
192
 0
VERTEX
 8
MESH_152_F0
 10
-200.0699
 20
-210.7567
 30
-475
 70
192
 0
VERTEX
 8
MESH_152_F0
 10
-199.1079
 20
-213.5415
 30
-475
 70
192
 0
VERTEX
 8
MESH_152_F0
 10
-197.825
 20
-216.1938
 30
-475
 70
192
 0
VERTEX
 8
MESH_152_F0
 10
-196.239
 20
-218.6767
 30
-475
 70
192
 0
VERTEX
 8
MESH_152_F0
 10
-194.3718
 20
-220.9557
 30
-475
 70
192
 0
VERTEX
 8
MESH_152_F0
 10
-192.2495
 20
-222.9993
 30
-475
 70
192
 0
VERTEX
 8
MESH_152_F0
 10
-189.9015
 20
-224.779
 30
-475
 70
192
 0
VERTEX
 8
MESH_152_F0
 10
-187.3604
 20
-226.2701
 30
-475
 70
192
 0
VERTEX
 8
MESH_152_F0
 10
-184.6616
 20
-227.4519
 30
-475
 70
192
 0
VERTEX
 8
MESH_152_F0
 10
-181.8424
 20
-228.3079
 30
-475
 70
192
 0
VERTEX
 8
MESH_152_F0
 10
-178.9421
 20
-228.8264
 30
-475
 70
192
 0
VERTEX
 8
MESH_152_F0
 10
-176.001
 20
-229
 30
-475
 70
192
 0
VERTEX
 8
MESH_152_F0
 10
-176.001
 20
-229
 30
-7
 70
192
 0
VERTEX
 8
MESH_152_F0
 10
-178.9421
 20
-228.8264
 30
-7
 70
192
 0
VERTEX
 8
MESH_152_F0
 10
-181.8424
 20
-228.3079
 30
-7
 70
192
 0
VERTEX
 8
MESH_152_F0
 10
-184.6616
 20
-227.4519
 30
-7
 70
192
 0
VERTEX
 8
MESH_152_F0
 10
-187.3604
 20
-226.2701
 30
-7
 70
192
 0
VERTEX
 8
MESH_152_F0
 10
-189.9015
 20
-224.779
 30
-7
 70
192
 0
VERTEX
 8
MESH_152_F0
 10
-192.2495
 20
-222.9993
 30
-7
 70
192
 0
VERTEX
 8
MESH_152_F0
 10
-194.3718
 20
-220.9557
 30
-7
 70
192
 0
VERTEX
 8
MESH_152_F0
 10
-196.239
 20
-218.6767
 30
-7
 70
192
 0
VERTEX
 8
MESH_152_F0
 10
-197.825
 20
-216.1938
 30
-7
 70
192
 0
VERTEX
 8
MESH_152_F0
 10
-199.1079
 20
-213.5415
 30
-7
 70
192
 0
VERTEX
 8
MESH_152_F0
 10
-200.0699
 20
-210.7567
 30
-7
 70
192
 0
VERTEX
 8
MESH_152_F0
 10
-200.6975
 20
-207.8781
 30
-7
 70
192
 0
VERTEX
 8
MESH_152_F0
 10
-200.9821
 20
-204.9456
 30
-7
 70
192
 0
VERTEX
 8
MESH_152_F0
 10
-200.9198
 20
-202
 30
-7
 70
192
 0
VERTEX
 8
MESH_152_F0
 10
0
 20
0
 30
0
 70
128
 71
29
 72
1
 73
30
 74
30
 0
VERTEX
 8
MESH_152_F0
 10
0
 20
0
 30
0
 70
128
 71
2
 72
1
 73
29
 74
29
 0
VERTEX
 8
MESH_152_F0
 10
0
 20
0
 30
0
 70
128
 71
3
 72
2
 73
28
 74
28
 0
VERTEX
 8
MESH_152_F0
 10
0
 20
0
 30
0
 70
128
 71
4
 72
3
 73
27
 74
27
 0
VERTEX
 8
MESH_152_F0
 10
0
 20
0
 30
0
 70
128
 71
5
 72
4
 73
26
 74
26
 0
VERTEX
 8
MESH_152_F0
 10
0
 20
0
 30
0
 70
128
 71
6
 72
5
 73
25
 74
25
 0
VERTEX
 8
MESH_152_F0
 10
0
 20
0
 30
0
 70
128
 71
7
 72
6
 73
24
 74
24
 0
VERTEX
 8
MESH_152_F0
 10
0
 20
0
 30
0
 70
128
 71
8
 72
7
 73
23
 74
23
 0
VERTEX
 8
MESH_152_F0
 10
0
 20
0
 30
0
 70
128
 71
9
 72
8
 73
22
 74
22
 0
VERTEX
 8
MESH_152_F0
 10
0
 20
0
 30
0
 70
128
 71
10
 72
9
 73
21
 74
21
 0
VERTEX
 8
MESH_152_F0
 10
0
 20
0
 30
0
 70
128
 71
11
 72
10
 73
20
 74
20
 0
VERTEX
 8
MESH_152_F0
 10
0
 20
0
 30
0
 70
128
 71
12
 72
11
 73
19
 74
19
 0
VERTEX
 8
MESH_152_F0
 10
0
 20
0
 30
0
 70
128
 71
13
 72
12
 73
18
 74
18
 0
VERTEX
 8
MESH_152_F0
 10
0
 20
0
 30
0
 70
128
 71
14
 72
13
 73
17
 74
17
 0
VERTEX
 8
MESH_152_F0
 10
0
 20
0
 30
0
 70
128
 71
15
 72
14
 73
16
 74
16
 0
VERTEX
 8
MESH_152_F0
 10
0
 20
0
 30
0
 70
128
 71
14
 72
17
 73
16
 74
16
 0
VERTEX
 8
MESH_152_F0
 10
0
 20
0
 30
0
 70
128
 71
13
 72
18
 73
17
 74
17
 0
VERTEX
 8
MESH_152_F0
 10
0
 20
0
 30
0
 70
128
 71
12
 72
19
 73
18
 74
18
 0
VERTEX
 8
MESH_152_F0
 10
0
 20
0
 30
0
 70
128
 71
11
 72
20
 73
19
 74
19
 0
VERTEX
 8
MESH_152_F0
 10
0
 20
0
 30
0
 70
128
 71
10
 72
21
 73
20
 74
20
 0
VERTEX
 8
MESH_152_F0
 10
0
 20
0
 30
0
 70
128
 71
9
 72
22
 73
21
 74
21
 0
VERTEX
 8
MESH_152_F0
 10
0
 20
0
 30
0
 70
128
 71
8
 72
23
 73
22
 74
22
 0
VERTEX
 8
MESH_152_F0
 10
0
 20
0
 30
0
 70
128
 71
7
 72
24
 73
23
 74
23
 0
VERTEX
 8
MESH_152_F0
 10
0
 20
0
 30
0
 70
128
 71
6
 72
25
 73
24
 74
24
 0
VERTEX
 8
MESH_152_F0
 10
0
 20
0
 30
0
 70
128
 71
5
 72
26
 73
25
 74
25
 0
VERTEX
 8
MESH_152_F0
 10
0
 20
0
 30
0
 70
128
 71
4
 72
27
 73
26
 74
26
 0
VERTEX
 8
MESH_152_F0
 10
0
 20
0
 30
0
 70
128
 71
3
 72
28
 73
27
 74
27
 0
VERTEX
 8
MESH_152_F0
 10
0
 20
0
 30
0
 70
128
 71
2
 72
29
 73
28
 74
28
 0
SEQEND
 0
POLYLINE
 8
MESH_151_F0
 66
1
 10
0.0
 20
0.0
 30
0.0
 70
64
 71
16
 72
14
 0
VERTEX
 8
MESH_151_F0
 10
-200.9198
 20
-202
 30
-475
 70
192
 0
VERTEX
 8
MESH_151_F0
 10
-200.9198
 20
-202
 30
-7
 70
192
 0
VERTEX
 8
MESH_151_F0
 10
-201.5
 20
-202
 30
-7
 70
192
 0
VERTEX
 8
MESH_151_F0
 10
-201.5
 20
-202
 30
-3
 70
192
 0
VERTEX
 8
MESH_151_F0
 10
201.5
 20
-202
 30
-3
 70
192
 0
VERTEX
 8
MESH_151_F0
 10
201.5
 20
-202
 30
-7
 70
192
 0
VERTEX
 8
MESH_151_F0
 10
200.9198
 20
-202
 30
-7
 70
192
 0
VERTEX
 8
MESH_151_F0
 10
200.9198
 20
-202
 30
-475
 70
192
 0
VERTEX
 8
MESH_151_F0
 10
184.5
 20
-202
 30
-475
 70
192
 0
VERTEX
 8
MESH_151_F0
 10
184.5
 20
-202
 30
-478
 70
192
 0
VERTEX
 8
MESH_151_F0
 10
202.5
 20
-202
 30
-478
 70
192
 0
VERTEX
 8
MESH_151_F0
 10
202.5
 20
-202
 30
0
 70
192
 0
VERTEX
 8
MESH_151_F0
 10
-202.5
 20
-202
 30
0
 70
192
 0
VERTEX
 8
MESH_151_F0
 10
-202.5
 20
-202
 30
-478
 70
192
 0
VERTEX
 8
MESH_151_F0
 10
-184.5
 20
-202
 30
-478
 70
192
 0
VERTEX
 8
MESH_151_F0
 10
-184.5
 20
-202
 30
-475
 70
192
 0
VERTEX
 8
MESH_151_F0
 10
0
 20
0
 30
0
 70
128
 71
1
 72
3
 73
2
 74
2
 0
VERTEX
 8
MESH_151_F0
 10
0
 20
0
 30
0
 70
128
 71
14
 72
3
 73
1
 74
1
 0
VERTEX
 8
MESH_151_F0
 10
0
 20
0
 30
0
 70
128
 71
14
 72
1
 73
15
 74
15
 0
VERTEX
 8
MESH_151_F0
 10
0
 20
0
 30
0
 70
128
 71
1
 72
16
 73
15
 74
15
 0
VERTEX
 8
MESH_151_F0
 10
0
 20
0
 30
0
 70
128
 71
13
 72
3
 73
14
 74
14
 0
VERTEX
 8
MESH_151_F0
 10
0
 20
0
 30
0
 70
128
 71
4
 72
3
 73
13
 74
13
 0
VERTEX
 8
MESH_151_F0
 10
0
 20
0
 30
0
 70
128
 71
4
 72
13
 73
5
 74
5
 0
VERTEX
 8
MESH_151_F0
 10
0
 20
0
 30
0
 70
128
 71
13
 72
12
 73
5
 74
5
 0
VERTEX
 8
MESH_151_F0
 10
0
 20
0
 30
0
 70
128
 71
12
 72
6
 73
5
 74
5
 0
VERTEX
 8
MESH_151_F0
 10
0
 20
0
 30
0
 70
128
 71
11
 72
6
 73
12
 74
12
 0
VERTEX
 8
MESH_151_F0
 10
0
 20
0
 30
0
 70
128
 71
7
 72
6
 73
11
 74
11
 0
VERTEX
 8
MESH_151_F0
 10
0
 20
0
 30
0
 70
128
 71
7
 72
11
 73
8
 74
8
 0
VERTEX
 8
MESH_151_F0
 10
0
 20
0
 30
0
 70
128
 71
11
 72
10
 73
8
 74
8
 0
VERTEX
 8
MESH_151_F0
 10
0
 20
0
 30
0
 70
128
 71
10
 72
9
 73
8
 74
8
 0
SEQEND
 0
POLYLINE
 8
MESH_150_F0
 66
1
 10
0.0
 20
0.0
 30
0.0
 70
64
 71
6
 72
4
 0
VERTEX
 8
MESH_150_F0
 10
-184.5
 20
-202
 30
-475
 70
192
 0
VERTEX
 8
MESH_150_F0
 10
-184.5
 20
-202
 30
-478
 70
192
 0
VERTEX
 8
MESH_150_F0
 10
-184.5
 20
0
 30
-478
 70
192
 0
VERTEX
 8
MESH_150_F0
 10
-184.5
 20
0
 30
-477.5
 70
192
 0
VERTEX
 8
MESH_150_F0
 10
-184.5
 20
-199.5
 30
-477.5
 70
192
 0
VERTEX
 8
MESH_150_F0
 10
-184.5
 20
-199.5
 30
-475
 70
192
 0
VERTEX
 8
MESH_150_F0
 10
0
 20
0
 30
0
 70
128
 71
5
 72
1
 73
6
 74
6
 0
VERTEX
 8
MESH_150_F0
 10
0
 20
0
 30
0
 70
128
 71
2
 72
1
 73
5
 74
5
 0
VERTEX
 8
MESH_150_F0
 10
0
 20
0
 30
0
 70
128
 71
2
 72
5
 73
3
 74
3
 0
VERTEX
 8
MESH_150_F0
 10
0
 20
0
 30
0
 70
128
 71
5
 72
4
 73
3
 74
3
 0
SEQEND
 0
POLYLINE
 8
MESH_149_F0
 66
1
 10
0.0
 20
0.0
 30
0.0
 70
64
 71
4
 72
2
 0
VERTEX
 8
MESH_149_F0
 10
-184.5
 20
-199.5
 30
-475
 70
192
 0
VERTEX
 8
MESH_149_F0
 10
-184.5
 20
-199.5
 30
-477.5
 70
192
 0
VERTEX
 8
MESH_149_F0
 10
184.5
 20
-199.5
 30
-477.5
 70
192
 0
VERTEX
 8
MESH_149_F0
 10
184.5
 20
-199.5
 30
-475
 70
192
 0
VERTEX
 8
MESH_149_F0
 10
0
 20
0
 30
0
 70
128
 71
1
 72
3
 73
2
 74
2
 0
VERTEX
 8
MESH_149_F0
 10
0
 20
0
 30
0
 70
128
 71
4
 72
3
 73
1
 74
1
 0
SEQEND
 0
POLYLINE
 8
MESH_148_F0
 66
1
 10
0.0
 20
0.0
 30
0.0
 70
64
 71
6
 72
4
 0
VERTEX
 8
MESH_148_F0
 10
184.5
 20
-199.5
 30
-475
 70
192
 0
VERTEX
 8
MESH_148_F0
 10
184.5
 20
-199.5
 30
-477.5
 70
192
 0
VERTEX
 8
MESH_148_F0
 10
184.5
 20
0
 30
-477.5
 70
192
 0
VERTEX
 8
MESH_148_F0
 10
184.5
 20
0
 30
-478
 70
192
 0
VERTEX
 8
MESH_148_F0
 10
184.5
 20
-202
 30
-478
 70
192
 0
VERTEX
 8
MESH_148_F0
 10
184.5
 20
-202
 30
-475
 70
192
 0
VERTEX
 8
MESH_148_F0
 10
0
 20
0
 30
0
 70
128
 71
6
 72
2
 73
1
 74
1
 0
VERTEX
 8
MESH_148_F0
 10
0
 20
0
 30
0
 70
128
 71
5
 72
2
 73
6
 74
6
 0
VERTEX
 8
MESH_148_F0
 10
0
 20
0
 30
0
 70
128
 71
3
 72
2
 73
5
 74
5
 0
VERTEX
 8
MESH_148_F0
 10
0
 20
0
 30
0
 70
128
 71
3
 72
5
 73
4
 74
4
 0
SEQEND
 0
ENDSEC
 0
EOF
