 0
SECTION
 2
HEADER
 9
$ACADVER
 1
AC1009
 0
ENDSEC
 0
SECTION
 2
TABLES
 0
TABLE
 2
LTYPE
 70
1
 0
LTYPE
 2
CONTINUOUS
 70
64
 3
solid line
 72
65
 73
0
 40
0.0
 0
ENDTAB
 0
TABLE
 2
LAYER
 70
6
 0
LAYER
 2
0
 70
0
 62
7
 6
CONTINUOUS
 0
LAYER
 2
MESH_142_F0
 70
64
 62
7
 6
CONTINUOUS
 0
LAYER
 2
MESH_141_F0
 70
64
 62
7
 6
CONTINUOUS
 0
LAYER
 2
MESH_140_F0
 70
64
 62
7
 6
CONTINUOUS
 0
LAYER
 2
MESH_139_F0
 70
64
 62
7
 6
CONTINUOUS
 0
LAYER
 2
MESH_138_F0
 70
64
 62
7
 6
CONTINUOUS
 0
LAYER
 2
MESH_137_F0
 70
64
 62
7
 6
CONTINUOUS
 0
LAYER
 2
MESH_136_F0
 70
64
 62
7
 6
CONTINUOUS
 0
LAYER
 2
MESH_135_F0
 70
64
 62
7
 6
CONTINUOUS
 0
LAYER
 2
MESH_134_F0
 70
64
 62
7
 6
CONTINUOUS
 0
LAYER
 2
MESH_133_F0
 70
64
 62
7
 6
CONTINUOUS
 0
LAYER
 2
MESH_132_F0
 70
64
 62
7
 6
CONTINUOUS
 0
LAYER
 2
MESH_131_F0
 70
64
 62
7
 6
CONTINUOUS
 0
LAYER
 2
MESH_130_F0
 70
64
 62
7
 6
CONTINUOUS
 0
LAYER
 2
MESH_129_F0
 70
64
 62
7
 6
CONTINUOUS
 0
LAYER
 2
MESH_128_F0
 70
64
 62
7
 6
CONTINUOUS
 0
LAYER
 2
MESH_127_F0
 70
64
 62
7
 6
CONTINUOUS
 0
ENDTAB
 0
ENDSEC
 0
SECTION
 2
BLOCKS
 0
ENDSEC
 0
SECTION
 2
ENTITIES
 0
POLYLINE
 8
MESH_142_F0
 66
1
 10
0.0
 20
0.0
 30
0.0
 70
64
 71
4
 72
2
 0
VERTEX
 8
MESH_142_F0
 10
300
 20
0
 30
0
 70
192
 0
VERTEX
 8
MESH_142_F0
 10
300
 20
0
 30
-25
 70
192
 0
VERTEX
 8
MESH_142_F0
 10
-300
 20
0
 30
-25
 70
192
 0
VERTEX
 8
MESH_142_F0
 10
-300
 20
0
 30
0
 70
192
 0
VERTEX
 8
MESH_142_F0
 10
0
 20
0
 30
0
 70
128
 71
1
 72
3
 73
2
 74
2
 0
VERTEX
 8
MESH_142_F0
 10
0
 20
0
 30
0
 70
128
 71
4
 72
3
 73
1
 74
1
 0
SEQEND
 0
POLYLINE
 8
MESH_141_F0
 66
1
 10
0.0
 20
0.0
 30
0.0
 70
64
 71
4
 72
2
 0
VERTEX
 8
MESH_141_F0
 10
-300
 20
0
 30
0
 70
192
 0
VERTEX
 8
MESH_141_F0
 10
-300
 20
0
 30
-25
 70
192
 0
VERTEX
 8
MESH_141_F0
 10
-300
 20
-417
 30
-25
 70
192
 0
VERTEX
 8
MESH_141_F0
 10
-300
 20
-417
 30
0
 70
192
 0
VERTEX
 8
MESH_141_F0
 10
0
 20
0
 30
0
 70
128
 71
1
 72
3
 73
2
 74
2
 0
VERTEX
 8
MESH_141_F0
 10
0
 20
0
 30
0
 70
128
 71
4
 72
3
 73
1
 74
1
 0
SEQEND
 0
POLYLINE
 8
MESH_140_F0
 66
1
 10
0.0
 20
0.0
 30
0.0
 70
64
 71
30
 72
28
 0
VERTEX
 8
MESH_140_F0
 10
-300
 20
-417
 30
0
 70
192
 0
VERTEX
 8
MESH_140_F0
 10
-300
 20
-417
 30
-25
 70
192
 0
VERTEX
 8
MESH_140_F0
 10
-299.8515
 20
-419.6014
 30
-25
 70
192
 0
VERTEX
 8
MESH_140_F0
 10
-299.4177
 20
-422.1427
 30
-25
 70
192
 0
VERTEX
 8
MESH_140_F0
 10
-298.7013
 20
-424.6167
 30
-25
 70
192
 0
VERTEX
 8
MESH_140_F0
 10
-297.7112
 20
-427.0022
 30
-25
 70
192
 0
VERTEX
 8
MESH_140_F0
 10
-296.4649
 20
-429.2526
 30
-25
 70
192
 0
VERTEX
 8
MESH_140_F0
 10
-294.9757
 20
-431.3482
 30
-25
 70
192
 0
VERTEX
 8
MESH_140_F0
 10
-293.2631
 20
-433.2631
 30
-25
 70
192
 0
VERTEX
 8
MESH_140_F0
 10
-291.3482
 20
-434.9757
 30
-25
 70
192
 0
VERTEX
 8
MESH_140_F0
 10
-289.2527
 20
-436.4649
 30
-25
 70
192
 0
VERTEX
 8
MESH_140_F0
 10
-287.0022
 20
-437.7112
 30
-25
 70
192
 0
VERTEX
 8
MESH_140_F0
 10
-284.6167
 20
-438.7013
 30
-25
 70
192
 0
VERTEX
 8
MESH_140_F0
 10
-282.1427
 20
-439.4177
 30
-25
 70
192
 0
VERTEX
 8
MESH_140_F0
 10
-279.6014
 20
-439.8514
 30
-25
 70
192
 0
VERTEX
 8
MESH_140_F0
 10
-277
 20
-440
 30
-25
 70
192
 0
VERTEX
 8
MESH_140_F0
 10
-277
 20
-440
 30
0
 70
192
 0
VERTEX
 8
MESH_140_F0
 10
-279.6014
 20
-439.8514
 30
0
 70
192
 0
VERTEX
 8
MESH_140_F0
 10
-282.1427
 20
-439.4177
 30
0
 70
192
 0
VERTEX
 8
MESH_140_F0
 10
-284.6167
 20
-438.7013
 30
0
 70
192
 0
VERTEX
 8
MESH_140_F0
 10
-287.0022
 20
-437.7112
 30
0
 70
192
 0
VERTEX
 8
MESH_140_F0
 10
-289.2527
 20
-436.4649
 30
0
 70
192
 0
VERTEX
 8
MESH_140_F0
 10
-291.3482
 20
-434.9757
 30
0
 70
192
 0
VERTEX
 8
MESH_140_F0
 10
-293.2631
 20
-433.2631
 30
0
 70
192
 0
VERTEX
 8
MESH_140_F0
 10
-294.9757
 20
-431.3482
 30
0
 70
192
 0
VERTEX
 8
MESH_140_F0
 10
-296.4649
 20
-429.2526
 30
0
 70
192
 0
VERTEX
 8
MESH_140_F0
 10
-297.7112
 20
-427.0022
 30
0
 70
192
 0
VERTEX
 8
MESH_140_F0
 10
-298.7013
 20
-424.6167
 30
0
 70
192
 0
VERTEX
 8
MESH_140_F0
 10
-299.4177
 20
-422.1427
 30
0
 70
192
 0
VERTEX
 8
MESH_140_F0
 10
-299.8515
 20
-419.6014
 30
0
 70
192
 0
VERTEX
 8
MESH_140_F0
 10
0
 20
0
 30
0
 70
128
 71
30
 72
2
 73
1
 74
1
 0
VERTEX
 8
MESH_140_F0
 10
0
 20
0
 30
0
 70
128
 71
3
 72
2
 73
30
 74
30
 0
VERTEX
 8
MESH_140_F0
 10
0
 20
0
 30
0
 70
128
 71
3
 72
30
 73
4
 74
4
 0
VERTEX
 8
MESH_140_F0
 10
0
 20
0
 30
0
 70
128
 71
30
 72
29
 73
4
 74
4
 0
VERTEX
 8
MESH_140_F0
 10
0
 20
0
 30
0
 70
128
 71
29
 72
5
 73
4
 74
4
 0
VERTEX
 8
MESH_140_F0
 10
0
 20
0
 30
0
 70
128
 71
28
 72
5
 73
29
 74
29
 0
VERTEX
 8
MESH_140_F0
 10
0
 20
0
 30
0
 70
128
 71
6
 72
5
 73
28
 74
28
 0
VERTEX
 8
MESH_140_F0
 10
0
 20
0
 30
0
 70
128
 71
7
 72
6
 73
27
 74
27
 0
VERTEX
 8
MESH_140_F0
 10
0
 20
0
 30
0
 70
128
 71
8
 72
7
 73
26
 74
26
 0
VERTEX
 8
MESH_140_F0
 10
0
 20
0
 30
0
 70
128
 71
9
 72
8
 73
25
 74
25
 0
VERTEX
 8
MESH_140_F0
 10
0
 20
0
 30
0
 70
128
 71
10
 72
9
 73
24
 74
24
 0
VERTEX
 8
MESH_140_F0
 10
0
 20
0
 30
0
 70
128
 71
11
 72
10
 73
23
 74
23
 0
VERTEX
 8
MESH_140_F0
 10
0
 20
0
 30
0
 70
128
 71
12
 72
11
 73
22
 74
22
 0
VERTEX
 8
MESH_140_F0
 10
0
 20
0
 30
0
 70
128
 71
13
 72
12
 73
21
 74
21
 0
VERTEX
 8
MESH_140_F0
 10
0
 20
0
 30
0
 70
128
 71
14
 72
13
 73
20
 74
20
 0
VERTEX
 8
MESH_140_F0
 10
0
 20
0
 30
0
 70
128
 71
15
 72
14
 73
19
 74
19
 0
VERTEX
 8
MESH_140_F0
 10
0
 20
0
 30
0
 70
128
 71
17
 72
15
 73
18
 74
18
 0
VERTEX
 8
MESH_140_F0
 10
0
 20
0
 30
0
 70
128
 71
15
 72
19
 73
18
 74
18
 0
VERTEX
 8
MESH_140_F0
 10
0
 20
0
 30
0
 70
128
 71
17
 72
16
 73
15
 74
15
 0
VERTEX
 8
MESH_140_F0
 10
0
 20
0
 30
0
 70
128
 71
14
 72
20
 73
19
 74
19
 0
VERTEX
 8
MESH_140_F0
 10
0
 20
0
 30
0
 70
128
 71
13
 72
21
 73
20
 74
20
 0
VERTEX
 8
MESH_140_F0
 10
0
 20
0
 30
0
 70
128
 71
12
 72
22
 73
21
 74
21
 0
VERTEX
 8
MESH_140_F0
 10
0
 20
0
 30
0
 70
128
 71
11
 72
23
 73
22
 74
22
 0
VERTEX
 8
MESH_140_F0
 10
0
 20
0
 30
0
 70
128
 71
10
 72
24
 73
23
 74
23
 0
VERTEX
 8
MESH_140_F0
 10
0
 20
0
 30
0
 70
128
 71
9
 72
25
 73
24
 74
24
 0
VERTEX
 8
MESH_140_F0
 10
0
 20
0
 30
0
 70
128
 71
8
 72
26
 73
25
 74
25
 0
VERTEX
 8
MESH_140_F0
 10
0
 20
0
 30
0
 70
128
 71
7
 72
27
 73
26
 74
26
 0
VERTEX
 8
MESH_140_F0
 10
0
 20
0
 30
0
 70
128
 71
6
 72
28
 73
27
 74
27
 0
SEQEND
 0
POLYLINE
 8
MESH_139_F0
 66
1
 10
0.0
 20
0.0
 30
0.0
 70
64
 71
4
 72
2
 0
VERTEX
 8
MESH_139_F0
 10
-277
 20
-440
 30
0
 70
192
 0
VERTEX
 8
MESH_139_F0
 10
-277
 20
-440
 30
-25
 70
192
 0
VERTEX
 8
MESH_139_F0
 10
277
 20
-440
 30
-25
 70
192
 0
VERTEX
 8
MESH_139_F0
 10
277
 20
-440
 30
0
 70
192
 0
VERTEX
 8
MESH_139_F0
 10
0
 20
0
 30
0
 70
128
 71
1
 72
3
 73
2
 74
2
 0
VERTEX
 8
MESH_139_F0
 10
0
 20
0
 30
0
 70
128
 71
4
 72
3
 73
1
 74
1
 0
SEQEND
 0
POLYLINE
 8
MESH_138_F0
 66
1
 10
0.0
 20
0.0
 30
0.0
 70
64
 71
30
 72
28
 0
VERTEX
 8
MESH_138_F0
 10
277
 20
-440
 30
0
 70
192
 0
VERTEX
 8
MESH_138_F0
 10
277
 20
-440
 30
-25
 70
192
 0
VERTEX
 8
MESH_138_F0
 10
279.6014
 20
-439.8514
 30
-25
 70
192
 0
VERTEX
 8
MESH_138_F0
 10
282.1427
 20
-439.4177
 30
-25
 70
192
 0
VERTEX
 8
MESH_138_F0
 10
284.6167
 20
-438.7013
 30
-25
 70
192
 0
VERTEX
 8
MESH_138_F0
 10
287.0022
 20
-437.7112
 30
-25
 70
192
 0
VERTEX
 8
MESH_138_F0
 10
289.2527
 20
-436.4649
 30
-25
 70
192
 0
VERTEX
 8
MESH_138_F0
 10
291.3482
 20
-434.9757
 30
-25
 70
192
 0
VERTEX
 8
MESH_138_F0
 10
293.2631
 20
-433.2631
 30
-25
 70
192
 0
VERTEX
 8
MESH_138_F0
 10
294.9757
 20
-431.3482
 30
-25
 70
192
 0
VERTEX
 8
MESH_138_F0
 10
296.4649
 20
-429.2526
 30
-25
 70
192
 0
VERTEX
 8
MESH_138_F0
 10
297.7112
 20
-427.0022
 30
-25
 70
192
 0
VERTEX
 8
MESH_138_F0
 10
298.7013
 20
-424.6167
 30
-25
 70
192
 0
VERTEX
 8
MESH_138_F0
 10
299.4177
 20
-422.1427
 30
-25
 70
192
 0
VERTEX
 8
MESH_138_F0
 10
299.8515
 20
-419.6014
 30
-25
 70
192
 0
VERTEX
 8
MESH_138_F0
 10
300
 20
-417
 30
-25
 70
192
 0
VERTEX
 8
MESH_138_F0
 10
300
 20
-417
 30
0
 70
192
 0
VERTEX
 8
MESH_138_F0
 10
299.8515
 20
-419.6014
 30
0
 70
192
 0
VERTEX
 8
MESH_138_F0
 10
299.4177
 20
-422.1427
 30
0
 70
192
 0
VERTEX
 8
MESH_138_F0
 10
298.7013
 20
-424.6167
 30
0
 70
192
 0
VERTEX
 8
MESH_138_F0
 10
297.7112
 20
-427.0022
 30
0
 70
192
 0
VERTEX
 8
MESH_138_F0
 10
296.4649
 20
-429.2526
 30
0
 70
192
 0
VERTEX
 8
MESH_138_F0
 10
294.9757
 20
-431.3482
 30
0
 70
192
 0
VERTEX
 8
MESH_138_F0
 10
293.2631
 20
-433.2631
 30
0
 70
192
 0
VERTEX
 8
MESH_138_F0
 10
291.3482
 20
-434.9757
 30
0
 70
192
 0
VERTEX
 8
MESH_138_F0
 10
289.2527
 20
-436.4649
 30
0
 70
192
 0
VERTEX
 8
MESH_138_F0
 10
287.0022
 20
-437.7112
 30
0
 70
192
 0
VERTEX
 8
MESH_138_F0
 10
284.6167
 20
-438.7013
 30
0
 70
192
 0
VERTEX
 8
MESH_138_F0
 10
282.1427
 20
-439.4177
 30
0
 70
192
 0
VERTEX
 8
MESH_138_F0
 10
279.6014
 20
-439.8514
 30
0
 70
192
 0
VERTEX
 8
MESH_138_F0
 10
0
 20
0
 30
0
 70
128
 71
30
 72
2
 73
1
 74
1
 0
VERTEX
 8
MESH_138_F0
 10
0
 20
0
 30
0
 70
128
 71
3
 72
2
 73
30
 74
30
 0
VERTEX
 8
MESH_138_F0
 10
0
 20
0
 30
0
 70
128
 71
3
 72
30
 73
4
 74
4
 0
VERTEX
 8
MESH_138_F0
 10
0
 20
0
 30
0
 70
128
 71
30
 72
29
 73
4
 74
4
 0
VERTEX
 8
MESH_138_F0
 10
0
 20
0
 30
0
 70
128
 71
29
 72
5
 73
4
 74
4
 0
VERTEX
 8
MESH_138_F0
 10
0
 20
0
 30
0
 70
128
 71
28
 72
5
 73
29
 74
29
 0
VERTEX
 8
MESH_138_F0
 10
0
 20
0
 30
0
 70
128
 71
6
 72
5
 73
28
 74
28
 0
VERTEX
 8
MESH_138_F0
 10
0
 20
0
 30
0
 70
128
 71
7
 72
6
 73
27
 74
27
 0
VERTEX
 8
MESH_138_F0
 10
0
 20
0
 30
0
 70
128
 71
8
 72
7
 73
26
 74
26
 0
VERTEX
 8
MESH_138_F0
 10
0
 20
0
 30
0
 70
128
 71
9
 72
8
 73
25
 74
25
 0
VERTEX
 8
MESH_138_F0
 10
0
 20
0
 30
0
 70
128
 71
10
 72
9
 73
24
 74
24
 0
VERTEX
 8
MESH_138_F0
 10
0
 20
0
 30
0
 70
128
 71
11
 72
10
 73
23
 74
23
 0
VERTEX
 8
MESH_138_F0
 10
0
 20
0
 30
0
 70
128
 71
12
 72
11
 73
22
 74
22
 0
VERTEX
 8
MESH_138_F0
 10
0
 20
0
 30
0
 70
128
 71
13
 72
12
 73
21
 74
21
 0
VERTEX
 8
MESH_138_F0
 10
0
 20
0
 30
0
 70
128
 71
14
 72
13
 73
20
 74
20
 0
VERTEX
 8
MESH_138_F0
 10
0
 20
0
 30
0
 70
128
 71
15
 72
14
 73
19
 74
19
 0
VERTEX
 8
MESH_138_F0
 10
0
 20
0
 30
0
 70
128
 71
17
 72
15
 73
18
 74
18
 0
VERTEX
 8
MESH_138_F0
 10
0
 20
0
 30
0
 70
128
 71
15
 72
19
 73
18
 74
18
 0
VERTEX
 8
MESH_138_F0
 10
0
 20
0
 30
0
 70
128
 71
17
 72
16
 73
15
 74
15
 0
VERTEX
 8
MESH_138_F0
 10
0
 20
0
 30
0
 70
128
 71
14
 72
20
 73
19
 74
19
 0
VERTEX
 8
MESH_138_F0
 10
0
 20
0
 30
0
 70
128
 71
13
 72
21
 73
20
 74
20
 0
VERTEX
 8
MESH_138_F0
 10
0
 20
0
 30
0
 70
128
 71
12
 72
22
 73
21
 74
21
 0
VERTEX
 8
MESH_138_F0
 10
0
 20
0
 30
0
 70
128
 71
11
 72
23
 73
22
 74
22
 0
VERTEX
 8
MESH_138_F0
 10
0
 20
0
 30
0
 70
128
 71
10
 72
24
 73
23
 74
23
 0
VERTEX
 8
MESH_138_F0
 10
0
 20
0
 30
0
 70
128
 71
9
 72
25
 73
24
 74
24
 0
VERTEX
 8
MESH_138_F0
 10
0
 20
0
 30
0
 70
128
 71
8
 72
26
 73
25
 74
25
 0
VERTEX
 8
MESH_138_F0
 10
0
 20
0
 30
0
 70
128
 71
7
 72
27
 73
26
 74
26
 0
VERTEX
 8
MESH_138_F0
 10
0
 20
0
 30
0
 70
128
 71
6
 72
28
 73
27
 74
27
 0
SEQEND
 0
POLYLINE
 8
MESH_137_F0
 66
1
 10
0.0
 20
0.0
 30
0.0
 70
64
 71
4
 72
2
 0
VERTEX
 8
MESH_137_F0
 10
300
 20
-417
 30
0
 70
192
 0
VERTEX
 8
MESH_137_F0
 10
300
 20
-417
 30
-25
 70
192
 0
VERTEX
 8
MESH_137_F0
 10
300
 20
0
 30
-25
 70
192
 0
VERTEX
 8
MESH_137_F0
 10
300
 20
0
 30
0
 70
192
 0
VERTEX
 8
MESH_137_F0
 10
0
 20
0
 30
0
 70
128
 71
1
 72
3
 73
2
 74
2
 0
VERTEX
 8
MESH_137_F0
 10
0
 20
0
 30
0
 70
128
 71
4
 72
3
 73
1
 74
1
 0
SEQEND
 0
POLYLINE
 8
MESH_136_F0
 66
1
 10
0.0
 20
0.0
 30
0.0
 70
64
 71
100
 72
100
 0
VERTEX
 8
MESH_136_F0
 10
-65
 20
-323
 30
-25
 70
192
 0
VERTEX
 8
MESH_136_F0
 10
-64.7062
 20
-328.9159
 30
-25
 70
192
 0
VERTEX
 8
MESH_136_F0
 10
-63.8427
 20
-334.7273
 30
-25
 70
192
 0
VERTEX
 8
MESH_136_F0
 10
-62.4102
 20
-340.4334
 30
-25
 70
192
 0
VERTEX
 8
MESH_136_F0
 10
-60.4231
 20
-345.9843
 30
-25
 70
192
 0
VERTEX
 8
MESH_136_F0
 10
-57.9051
 20
-351.3033
 30
-25
 70
192
 0
VERTEX
 8
MESH_136_F0
 10
-54.8796
 20
-356.347
 30
-25
 70
192
 0
VERTEX
 8
MESH_136_F0
 10
-51.3758
 20
-361.0687
 30
-25
 70
192
 0
VERTEX
 8
MESH_136_F0
 10
-47.4267
 20
-365.426
 30
-25
 70
192
 0
VERTEX
 8
MESH_136_F0
 10
-43.0694
 20
-369.3752
 30
-25
 70
192
 0
VERTEX
 8
MESH_136_F0
 10
-38.3477
 20
-372.8791
 30
-25
 70
192
 0
VERTEX
 8
MESH_136_F0
 10
-33.304
 20
-375.9047
 30
-25
 70
192
 0
VERTEX
 8
MESH_136_F0
 10
-27.985
 20
-378.4228
 30
-25
 70
192
 0
VERTEX
 8
MESH_136_F0
 10
-22.4339
 20
-380.41
 30
-25
 70
192
 0
VERTEX
 8
MESH_136_F0
 10
-16.7277
 20
-381.8427
 30
-25
 70
192
 0
VERTEX
 8
MESH_136_F0
 10
-10.9161
 20
-382.7062
 30
-25
 70
192
 0
VERTEX
 8
MESH_136_F0
 10
-5
 20
-383
 30
-25
 70
192
 0
VERTEX
 8
MESH_136_F0
 10
5
 20
-383
 30
-25
 70
192
 0
VERTEX
 8
MESH_136_F0
 10
10.9159
 20
-382.7062
 30
-25
 70
192
 0
VERTEX
 8
MESH_136_F0
 10
16.7273
 20
-381.8427
 30
-25
 70
192
 0
VERTEX
 8
MESH_136_F0
 10
22.4334
 20
-380.4102
 30
-25
 70
192
 0
VERTEX
 8
MESH_136_F0
 10
27.9843
 20
-378.4231
 30
-25
 70
192
 0
VERTEX
 8
MESH_136_F0
 10
33.3033
 20
-375.9052
 30
-25
 70
192
 0
VERTEX
 8
MESH_136_F0
 10
38.3469
 20
-372.8795
 30
-25
 70
192
 0
VERTEX
 8
MESH_136_F0
 10
43.0687
 20
-369.3758
 30
-25
 70
192
 0
VERTEX
 8
MESH_136_F0
 10
47.426
 20
-365.4267
 30
-25
 70
192
 0
VERTEX
 8
MESH_136_F0
 10
51.3752
 20
-361.0694
 30
-25
 70
192
 0
VERTEX
 8
MESH_136_F0
 10
54.8791
 20
-356.3477
 30
-25
 70
192
 0
VERTEX
 8
MESH_136_F0
 10
57.9048
 20
-351.304
 30
-25
 70
192
 0
VERTEX
 8
MESH_136_F0
 10
60.4228
 20
-345.985
 30
-25
 70
192
 0
VERTEX
 8
MESH_136_F0
 10
62.41
 20
-340.4339
 30
-25
 70
192
 0
VERTEX
 8
MESH_136_F0
 10
63.8427
 20
-334.7277
 30
-25
 70
192
 0
VERTEX
 8
MESH_136_F0
 10
64.7062
 20
-328.9161
 30
-25
 70
192
 0
VERTEX
 8
MESH_136_F0
 10
65
 20
-323
 30
-25
 70
192
 0
VERTEX
 8
MESH_136_F0
 10
65
 20
-78
 30
-25
 70
192
 0
VERTEX
 8
MESH_136_F0
 10
64.7062
 20
-72.0841
 30
-25
 70
192
 0
VERTEX
 8
MESH_136_F0
 10
63.8427
 20
-66.2727
 30
-25
 70
192
 0
VERTEX
 8
MESH_136_F0
 10
62.4102
 20
-60.5666
 30
-25
 70
192
 0
VERTEX
 8
MESH_136_F0
 10
60.4231
 20
-55.0157
 30
-25
 70
192
 0
VERTEX
 8
MESH_136_F0
 10
57.9051
 20
-49.6967
 30
-25
 70
192
 0
VERTEX
 8
MESH_136_F0
 10
54.8796
 20
-44.653
 30
-25
 70
192
 0
VERTEX
 8
MESH_136_F0
 10
51.3758
 20
-39.9313
 30
-25
 70
192
 0
VERTEX
 8
MESH_136_F0
 10
47.4267
 20
-35.574
 30
-25
 70
192
 0
VERTEX
 8
MESH_136_F0
 10
43.0694
 20
-31.6248
 30
-25
 70
192
 0
VERTEX
 8
MESH_136_F0
 10
38.3477
 20
-28.121
 30
-25
 70
192
 0
VERTEX
 8
MESH_136_F0
 10
33.304
 20
-25.0952
 30
-25
 70
192
 0
VERTEX
 8
MESH_136_F0
 10
27.985
 20
-22.5772
 30
-25
 70
192
 0
VERTEX
 8
MESH_136_F0
 10
22.4339
 20
-20.59
 30
-25
 70
192
 0
VERTEX
 8
MESH_136_F0
 10
16.7277
 20
-19.1573
 30
-25
 70
192
 0
VERTEX
 8
MESH_136_F0
 10
10.9161
 20
-18.2938
 30
-25
 70
192
 0
VERTEX
 8
MESH_136_F0
 10
5
 20
-18
 30
-25
 70
192
 0
VERTEX
 8
MESH_136_F0
 10
-5
 20
-18
 30
-25
 70
192
 0
VERTEX
 8
MESH_136_F0
 10
-10.9159
 20
-18.2938
 30
-25
 70
192
 0
VERTEX
 8
MESH_136_F0
 10
-16.7273
 20
-19.1573
 30
-25
 70
192
 0
VERTEX
 8
MESH_136_F0
 10
-22.4334
 20
-20.5898
 30
-25
 70
192
 0
VERTEX
 8
MESH_136_F0
 10
-27.9843
 20
-22.5769
 30
-25
 70
192
 0
VERTEX
 8
MESH_136_F0
 10
-33.3033
 20
-25.0949
 30
-25
 70
192
 0
VERTEX
 8
MESH_136_F0
 10
-38.3469
 20
-28.1204
 30
-25
 70
192
 0
VERTEX
 8
MESH_136_F0
 10
-43.0687
 20
-31.6242
 30
-25
 70
192
 0
VERTEX
 8
MESH_136_F0
 10
-47.426
 20
-35.5733
 30
-25
 70
192
 0
VERTEX
 8
MESH_136_F0
 10
-51.3752
 20
-39.9306
 30
-25
 70
192
 0
VERTEX
 8
MESH_136_F0
 10
-54.8791
 20
-44.6523
 30
-25
 70
192
 0
VERTEX
 8
MESH_136_F0
 10
-57.9048
 20
-49.696
 30
-25
 70
192
 0
VERTEX
 8
MESH_136_F0
 10
-60.4228
 20
-55.015
 30
-25
 70
192
 0
VERTEX
 8
MESH_136_F0
 10
-62.41
 20
-60.5661
 30
-25
 70
192
 0
VERTEX
 8
MESH_136_F0
 10
-63.8427
 20
-66.2723
 30
-25
 70
192
 0
VERTEX
 8
MESH_136_F0
 10
-64.7062
 20
-72.0839
 30
-25
 70
192
 0
VERTEX
 8
MESH_136_F0
 10
-65
 20
-78
 30
-25
 70
192
 0
VERTEX
 8
MESH_136_F0
 10
300
 20
0
 30
-25
 70
192
 0
VERTEX
 8
MESH_136_F0
 10
300
 20
-417
 30
-25
 70
192
 0
VERTEX
 8
MESH_136_F0
 10
299.8515
 20
-419.6014
 30
-25
 70
192
 0
VERTEX
 8
MESH_136_F0
 10
299.4177
 20
-422.1427
 30
-25
 70
192
 0
VERTEX
 8
MESH_136_F0
 10
298.7013
 20
-424.6167
 30
-25
 70
192
 0
VERTEX
 8
MESH_136_F0
 10
297.7112
 20
-427.0022
 30
-25
 70
192
 0
VERTEX
 8
MESH_136_F0
 10
296.4649
 20
-429.2526
 30
-25
 70
192
 0
VERTEX
 8
MESH_136_F0
 10
294.9757
 20
-431.3482
 30
-25
 70
192
 0
VERTEX
 8
MESH_136_F0
 10
293.2631
 20
-433.2631
 30
-25
 70
192
 0
VERTEX
 8
MESH_136_F0
 10
291.3482
 20
-434.9757
 30
-25
 70
192
 0
VERTEX
 8
MESH_136_F0
 10
289.2527
 20
-436.4649
 30
-25
 70
192
 0
VERTEX
 8
MESH_136_F0
 10
287.0022
 20
-437.7112
 30
-25
 70
192
 0
VERTEX
 8
MESH_136_F0
 10
284.6167
 20
-438.7013
 30
-25
 70
192
 0
VERTEX
 8
MESH_136_F0
 10
282.1427
 20
-439.4177
 30
-25
 70
192
 0
VERTEX
 8
MESH_136_F0
 10
279.6014
 20
-439.8514
 30
-25
 70
192
 0
VERTEX
 8
MESH_136_F0
 10
277
 20
-440
 30
-25
 70
192
 0
VERTEX
 8
MESH_136_F0
 10
-277
 20
-440
 30
-25
 70
192
 0
VERTEX
 8
MESH_136_F0
 10
-279.6014
 20
-439.8514
 30
-25
 70
192
 0
VERTEX
 8
MESH_136_F0
 10
-282.1427
 20
-439.4177
 30
-25
 70
192
 0
VERTEX
 8
MESH_136_F0
 10
-284.6167
 20
-438.7013
 30
-25
 70
192
 0
VERTEX
 8
MESH_136_F0
 10
-287.0022
 20
-437.7112
 30
-25
 70
192
 0
VERTEX
 8
MESH_136_F0
 10
-289.2527
 20
-436.4649
 30
-25
 70
192
 0
VERTEX
 8
MESH_136_F0
 10
-291.3482
 20
-434.9757
 30
-25
 70
192
 0
VERTEX
 8
MESH_136_F0
 10
-293.2631
 20
-433.2631
 30
-25
 70
192
 0
VERTEX
 8
MESH_136_F0
 10
-294.9757
 20
-431.3482
 30
-25
 70
192
 0
VERTEX
 8
MESH_136_F0
 10
-296.4649
 20
-429.2526
 30
-25
 70
192
 0
VERTEX
 8
MESH_136_F0
 10
-297.7112
 20
-427.0022
 30
-25
 70
192
 0
VERTEX
 8
MESH_136_F0
 10
-298.7013
 20
-424.6167
 30
-25
 70
192
 0
VERTEX
 8
MESH_136_F0
 10
-299.4177
 20
-422.1427
 30
-25
 70
192
 0
VERTEX
 8
MESH_136_F0
 10
-299.8515
 20
-419.6014
 30
-25
 70
192
 0
VERTEX
 8
MESH_136_F0
 10
-300
 20
-417
 30
-25
 70
192
 0
VERTEX
 8
MESH_136_F0
 10
-300
 20
0
 30
-25
 70
192
 0
VERTEX
 8
MESH_136_F0
 10
0
 20
0
 30
0
 70
128
 71
1
 72
99
 73
2
 74
2
 0
VERTEX
 8
MESH_136_F0
 10
0
 20
0
 30
0
 70
128
 71
99
 72
3
 73
2
 74
2
 0
VERTEX
 8
MESH_136_F0
 10
0
 20
0
 30
0
 70
128
 71
85
 72
3
 73
99
 74
99
 0
VERTEX
 8
MESH_136_F0
 10
0
 20
0
 30
0
 70
128
 71
85
 72
99
 73
86
 74
86
 0
VERTEX
 8
MESH_136_F0
 10
0
 20
0
 30
0
 70
128
 71
99
 72
87
 73
86
 74
86
 0
VERTEX
 8
MESH_136_F0
 10
0
 20
0
 30
0
 70
128
 71
88
 72
87
 73
99
 74
99
 0
VERTEX
 8
MESH_136_F0
 10
0
 20
0
 30
0
 70
128
 71
88
 72
99
 73
89
 74
89
 0
VERTEX
 8
MESH_136_F0
 10
0
 20
0
 30
0
 70
128
 71
99
 72
90
 73
89
 74
89
 0
VERTEX
 8
MESH_136_F0
 10
0
 20
0
 30
0
 70
128
 71
91
 72
90
 73
99
 74
99
 0
VERTEX
 8
MESH_136_F0
 10
0
 20
0
 30
0
 70
128
 71
91
 72
99
 73
92
 74
92
 0
VERTEX
 8
MESH_136_F0
 10
0
 20
0
 30
0
 70
128
 71
99
 72
93
 73
92
 74
92
 0
VERTEX
 8
MESH_136_F0
 10
0
 20
0
 30
0
 70
128
 71
94
 72
93
 73
99
 74
99
 0
VERTEX
 8
MESH_136_F0
 10
0
 20
0
 30
0
 70
128
 71
94
 72
99
 73
95
 74
95
 0
VERTEX
 8
MESH_136_F0
 10
0
 20
0
 30
0
 70
128
 71
99
 72
96
 73
95
 74
95
 0
VERTEX
 8
MESH_136_F0
 10
0
 20
0
 30
0
 70
128
 71
97
 72
96
 73
99
 74
99
 0
VERTEX
 8
MESH_136_F0
 10
0
 20
0
 30
0
 70
128
 71
97
 72
99
 73
98
 74
98
 0
VERTEX
 8
MESH_136_F0
 10
0
 20
0
 30
0
 70
128
 71
85
 72
4
 73
3
 74
3
 0
VERTEX
 8
MESH_136_F0
 10
0
 20
0
 30
0
 70
128
 71
5
 72
4
 73
85
 74
85
 0
VERTEX
 8
MESH_136_F0
 10
0
 20
0
 30
0
 70
128
 71
5
 72
85
 73
6
 74
6
 0
VERTEX
 8
MESH_136_F0
 10
0
 20
0
 30
0
 70
128
 71
85
 72
7
 73
6
 74
6
 0
VERTEX
 8
MESH_136_F0
 10
0
 20
0
 30
0
 70
128
 71
8
 72
7
 73
85
 74
85
 0
VERTEX
 8
MESH_136_F0
 10
0
 20
0
 30
0
 70
128
 71
8
 72
85
 73
9
 74
9
 0
VERTEX
 8
MESH_136_F0
 10
0
 20
0
 30
0
 70
128
 71
85
 72
10
 73
9
 74
9
 0
VERTEX
 8
MESH_136_F0
 10
0
 20
0
 30
0
 70
128
 71
11
 72
10
 73
85
 74
85
 0
VERTEX
 8
MESH_136_F0
 10
0
 20
0
 30
0
 70
128
 71
11
 72
85
 73
12
 74
12
 0
VERTEX
 8
MESH_136_F0
 10
0
 20
0
 30
0
 70
128
 71
85
 72
13
 73
12
 74
12
 0
VERTEX
 8
MESH_136_F0
 10
0
 20
0
 30
0
 70
128
 71
14
 72
13
 73
85
 74
85
 0
VERTEX
 8
MESH_136_F0
 10
0
 20
0
 30
0
 70
128
 71
14
 72
85
 73
15
 74
15
 0
VERTEX
 8
MESH_136_F0
 10
0
 20
0
 30
0
 70
128
 71
85
 72
16
 73
15
 74
15
 0
VERTEX
 8
MESH_136_F0
 10
0
 20
0
 30
0
 70
128
 71
17
 72
16
 73
85
 74
85
 0
VERTEX
 8
MESH_136_F0
 10
0
 20
0
 30
0
 70
128
 71
18
 72
17
 73
84
 74
84
 0
VERTEX
 8
MESH_136_F0
 10
0
 20
0
 30
0
 70
128
 71
18
 72
84
 73
19
 74
19
 0
VERTEX
 8
MESH_136_F0
 10
0
 20
0
 30
0
 70
128
 71
84
 72
20
 73
19
 74
19
 0
VERTEX
 8
MESH_136_F0
 10
0
 20
0
 30
0
 70
128
 71
21
 72
20
 73
84
 74
84
 0
VERTEX
 8
MESH_136_F0
 10
0
 20
0
 30
0
 70
128
 71
21
 72
84
 73
22
 74
22
 0
VERTEX
 8
MESH_136_F0
 10
0
 20
0
 30
0
 70
128
 71
84
 72
23
 73
22
 74
22
 0
VERTEX
 8
MESH_136_F0
 10
0
 20
0
 30
0
 70
128
 71
24
 72
23
 73
84
 74
84
 0
VERTEX
 8
MESH_136_F0
 10
0
 20
0
 30
0
 70
128
 71
24
 72
84
 73
25
 74
25
 0
VERTEX
 8
MESH_136_F0
 10
0
 20
0
 30
0
 70
128
 71
84
 72
26
 73
25
 74
25
 0
VERTEX
 8
MESH_136_F0
 10
0
 20
0
 30
0
 70
128
 71
27
 72
26
 73
84
 74
84
 0
VERTEX
 8
MESH_136_F0
 10
0
 20
0
 30
0
 70
128
 71
27
 72
84
 73
28
 74
28
 0
VERTEX
 8
MESH_136_F0
 10
0
 20
0
 30
0
 70
128
 71
84
 72
29
 73
28
 74
28
 0
VERTEX
 8
MESH_136_F0
 10
0
 20
0
 30
0
 70
128
 71
30
 72
29
 73
84
 74
84
 0
VERTEX
 8
MESH_136_F0
 10
0
 20
0
 30
0
 70
128
 71
30
 72
84
 73
31
 74
31
 0
VERTEX
 8
MESH_136_F0
 10
0
 20
0
 30
0
 70
128
 71
84
 72
32
 73
31
 74
31
 0
VERTEX
 8
MESH_136_F0
 10
0
 20
0
 30
0
 70
128
 71
70
 72
32
 73
84
 74
84
 0
VERTEX
 8
MESH_136_F0
 10
0
 20
0
 30
0
 70
128
 71
70
 72
84
 73
71
 74
71
 0
VERTEX
 8
MESH_136_F0
 10
0
 20
0
 30
0
 70
128
 71
84
 72
72
 73
71
 74
71
 0
VERTEX
 8
MESH_136_F0
 10
0
 20
0
 30
0
 70
128
 71
73
 72
72
 73
84
 74
84
 0
VERTEX
 8
MESH_136_F0
 10
0
 20
0
 30
0
 70
128
 71
73
 72
84
 73
74
 74
74
 0
VERTEX
 8
MESH_136_F0
 10
0
 20
0
 30
0
 70
128
 71
84
 72
75
 73
74
 74
74
 0
VERTEX
 8
MESH_136_F0
 10
0
 20
0
 30
0
 70
128
 71
76
 72
75
 73
84
 74
84
 0
VERTEX
 8
MESH_136_F0
 10
0
 20
0
 30
0
 70
128
 71
76
 72
84
 73
77
 74
77
 0
VERTEX
 8
MESH_136_F0
 10
0
 20
0
 30
0
 70
128
 71
84
 72
78
 73
77
 74
77
 0
VERTEX
 8
MESH_136_F0
 10
0
 20
0
 30
0
 70
128
 71
79
 72
78
 73
84
 74
84
 0
VERTEX
 8
MESH_136_F0
 10
0
 20
0
 30
0
 70
128
 71
79
 72
84
 73
80
 74
80
 0
VERTEX
 8
MESH_136_F0
 10
0
 20
0
 30
0
 70
128
 71
84
 72
81
 73
80
 74
80
 0
VERTEX
 8
MESH_136_F0
 10
0
 20
0
 30
0
 70
128
 71
82
 72
81
 73
84
 74
84
 0
VERTEX
 8
MESH_136_F0
 10
0
 20
0
 30
0
 70
128
 71
82
 72
84
 73
83
 74
83
 0
VERTEX
 8
MESH_136_F0
 10
0
 20
0
 30
0
 70
128
 71
70
 72
33
 73
32
 74
32
 0
VERTEX
 8
MESH_136_F0
 10
0
 20
0
 30
0
 70
128
 71
34
 72
33
 73
70
 74
70
 0
VERTEX
 8
MESH_136_F0
 10
0
 20
0
 30
0
 70
128
 71
35
 72
34
 73
69
 74
69
 0
VERTEX
 8
MESH_136_F0
 10
0
 20
0
 30
0
 70
128
 71
35
 72
69
 73
36
 74
36
 0
VERTEX
 8
MESH_136_F0
 10
0
 20
0
 30
0
 70
128
 71
69
 72
37
 73
36
 74
36
 0
VERTEX
 8
MESH_136_F0
 10
0
 20
0
 30
0
 70
128
 71
38
 72
37
 73
69
 74
69
 0
VERTEX
 8
MESH_136_F0
 10
0
 20
0
 30
0
 70
128
 71
38
 72
69
 73
39
 74
39
 0
VERTEX
 8
MESH_136_F0
 10
0
 20
0
 30
0
 70
128
 71
69
 72
40
 73
39
 74
39
 0
VERTEX
 8
MESH_136_F0
 10
0
 20
0
 30
0
 70
128
 71
41
 72
40
 73
69
 74
69
 0
VERTEX
 8
MESH_136_F0
 10
0
 20
0
 30
0
 70
128
 71
41
 72
69
 73
42
 74
42
 0
VERTEX
 8
MESH_136_F0
 10
0
 20
0
 30
0
 70
128
 71
69
 72
43
 73
42
 74
42
 0
VERTEX
 8
MESH_136_F0
 10
0
 20
0
 30
0
 70
128
 71
44
 72
43
 73
69
 74
69
 0
VERTEX
 8
MESH_136_F0
 10
0
 20
0
 30
0
 70
128
 71
44
 72
69
 73
45
 74
45
 0
VERTEX
 8
MESH_136_F0
 10
0
 20
0
 30
0
 70
128
 71
69
 72
46
 73
45
 74
45
 0
VERTEX
 8
MESH_136_F0
 10
0
 20
0
 30
0
 70
128
 71
47
 72
46
 73
69
 74
69
 0
VERTEX
 8
MESH_136_F0
 10
0
 20
0
 30
0
 70
128
 71
47
 72
69
 73
48
 74
48
 0
VERTEX
 8
MESH_136_F0
 10
0
 20
0
 30
0
 70
128
 71
69
 72
49
 73
48
 74
48
 0
VERTEX
 8
MESH_136_F0
 10
0
 20
0
 30
0
 70
128
 71
50
 72
49
 73
69
 74
69
 0
VERTEX
 8
MESH_136_F0
 10
0
 20
0
 30
0
 70
128
 71
50
 72
69
 73
51
 74
51
 0
VERTEX
 8
MESH_136_F0
 10
0
 20
0
 30
0
 70
128
 71
69
 72
52
 73
51
 74
51
 0
VERTEX
 8
MESH_136_F0
 10
0
 20
0
 30
0
 70
128
 71
100
 72
52
 73
69
 74
69
 0
VERTEX
 8
MESH_136_F0
 10
0
 20
0
 30
0
 70
128
 71
53
 72
52
 73
100
 74
100
 0
VERTEX
 8
MESH_136_F0
 10
0
 20
0
 30
0
 70
128
 71
53
 72
100
 73
54
 74
54
 0
VERTEX
 8
MESH_136_F0
 10
0
 20
0
 30
0
 70
128
 71
100
 72
55
 73
54
 74
54
 0
VERTEX
 8
MESH_136_F0
 10
0
 20
0
 30
0
 70
128
 71
56
 72
55
 73
100
 74
100
 0
VERTEX
 8
MESH_136_F0
 10
0
 20
0
 30
0
 70
128
 71
56
 72
100
 73
57
 74
57
 0
VERTEX
 8
MESH_136_F0
 10
0
 20
0
 30
0
 70
128
 71
100
 72
58
 73
57
 74
57
 0
VERTEX
 8
MESH_136_F0
 10
0
 20
0
 30
0
 70
128
 71
59
 72
58
 73
100
 74
100
 0
VERTEX
 8
MESH_136_F0
 10
0
 20
0
 30
0
 70
128
 71
59
 72
100
 73
60
 74
60
 0
VERTEX
 8
MESH_136_F0
 10
0
 20
0
 30
0
 70
128
 71
100
 72
61
 73
60
 74
60
 0
VERTEX
 8
MESH_136_F0
 10
0
 20
0
 30
0
 70
128
 71
62
 72
61
 73
100
 74
100
 0
VERTEX
 8
MESH_136_F0
 10
0
 20
0
 30
0
 70
128
 71
62
 72
100
 73
63
 74
63
 0
VERTEX
 8
MESH_136_F0
 10
0
 20
0
 30
0
 70
128
 71
100
 72
64
 73
63
 74
63
 0
VERTEX
 8
MESH_136_F0
 10
0
 20
0
 30
0
 70
128
 71
65
 72
64
 73
100
 74
100
 0
VERTEX
 8
MESH_136_F0
 10
0
 20
0
 30
0
 70
128
 71
65
 72
100
 73
66
 74
66
 0
VERTEX
 8
MESH_136_F0
 10
0
 20
0
 30
0
 70
128
 71
100
 72
67
 73
66
 74
66
 0
VERTEX
 8
MESH_136_F0
 10
0
 20
0
 30
0
 70
128
 71
68
 72
67
 73
100
 74
100
 0
VERTEX
 8
MESH_136_F0
 10
0
 20
0
 30
0
 70
128
 71
68
 72
100
 73
1
 74
1
 0
VERTEX
 8
MESH_136_F0
 10
0
 20
0
 30
0
 70
128
 71
100
 72
99
 73
1
 74
1
 0
VERTEX
 8
MESH_136_F0
 10
0
 20
0
 30
0
 70
128
 71
34
 72
70
 73
69
 74
69
 0
VERTEX
 8
MESH_136_F0
 10
0
 20
0
 30
0
 70
128
 71
17
 72
85
 73
84
 74
84
 0
SEQEND
 0
POLYLINE
 8
MESH_135_F0
 66
1
 10
0.0
 20
0.0
 30
0.0
 70
64
 71
4
 72
2
 0
VERTEX
 8
MESH_135_F0
 10
-5
 20
-18
 30
0
 70
192
 0
VERTEX
 8
MESH_135_F0
 10
-5
 20
-18
 30
-25
 70
192
 0
VERTEX
 8
MESH_135_F0
 10
5
 20
-18
 30
-25
 70
192
 0
VERTEX
 8
MESH_135_F0
 10
5
 20
-18
 30
0
 70
192
 0
VERTEX
 8
MESH_135_F0
 10
0
 20
0
 30
0
 70
128
 71
1
 72
3
 73
2
 74
2
 0
VERTEX
 8
MESH_135_F0
 10
0
 20
0
 30
0
 70
128
 71
4
 72
3
 73
1
 74
1
 0
SEQEND
 0
POLYLINE
 8
MESH_134_F0
 66
1
 10
0.0
 20
0.0
 30
0.0
 70
64
 71
34
 72
32
 0
VERTEX
 8
MESH_134_F0
 10
5
 20
-18
 30
0
 70
192
 0
VERTEX
 8
MESH_134_F0
 10
5
 20
-18
 30
-25
 70
192
 0
VERTEX
 8
MESH_134_F0
 10
10.9161
 20
-18.2938
 30
-25
 70
192
 0
VERTEX
 8
MESH_134_F0
 10
16.7277
 20
-19.1573
 30
-25
 70
192
 0
VERTEX
 8
MESH_134_F0
 10
22.4339
 20
-20.59
 30
-25
 70
192
 0
VERTEX
 8
MESH_134_F0
 10
27.985
 20
-22.5772
 30
-25
 70
192
 0
VERTEX
 8
MESH_134_F0
 10
33.304
 20
-25.0952
 30
-25
 70
192
 0
VERTEX
 8
MESH_134_F0
 10
38.3477
 20
-28.121
 30
-25
 70
192
 0
VERTEX
 8
MESH_134_F0
 10
43.0694
 20
-31.6248
 30
-25
 70
192
 0
VERTEX
 8
MESH_134_F0
 10
47.4267
 20
-35.574
 30
-25
 70
192
 0
VERTEX
 8
MESH_134_F0
 10
51.3758
 20
-39.9313
 30
-25
 70
192
 0
VERTEX
 8
MESH_134_F0
 10
54.8796
 20
-44.653
 30
-25
 70
192
 0
VERTEX
 8
MESH_134_F0
 10
57.9051
 20
-49.6967
 30
-25
 70
192
 0
VERTEX
 8
MESH_134_F0
 10
60.4231
 20
-55.0157
 30
-25
 70
192
 0
VERTEX
 8
MESH_134_F0
 10
62.4102
 20
-60.5666
 30
-25
 70
192
 0
VERTEX
 8
MESH_134_F0
 10
63.8427
 20
-66.2727
 30
-25
 70
192
 0
VERTEX
 8
MESH_134_F0
 10
64.7062
 20
-72.0841
 30
-25
 70
192
 0
VERTEX
 8
MESH_134_F0
 10
65
 20
-78
 30
-25
 70
192
 0
VERTEX
 8
MESH_134_F0
 10
65
 20
-78
 30
0
 70
192
 0
VERTEX
 8
MESH_134_F0
 10
64.7062
 20
-72.0839
 30
0
 70
192
 0
VERTEX
 8
MESH_134_F0
 10
63.8427
 20
-66.2723
 30
0
 70
192
 0
VERTEX
 8
MESH_134_F0
 10
62.41
 20
-60.5661
 30
0
 70
192
 0
VERTEX
 8
MESH_134_F0
 10
60.4228
 20
-55.015
 30
0
 70
192
 0
VERTEX
 8
MESH_134_F0
 10
57.9048
 20
-49.696
 30
0
 70
192
 0
VERTEX
 8
MESH_134_F0
 10
54.8791
 20
-44.6523
 30
0
 70
192
 0
VERTEX
 8
MESH_134_F0
 10
51.3752
 20
-39.9306
 30
0
 70
192
 0
VERTEX
 8
MESH_134_F0
 10
47.426
 20
-35.5733
 30
0
 70
192
 0
VERTEX
 8
MESH_134_F0
 10
43.0687
 20
-31.6242
 30
0
 70
192
 0
VERTEX
 8
MESH_134_F0
 10
38.3469
 20
-28.1204
 30
0
 70
192
 0
VERTEX
 8
MESH_134_F0
 10
33.3033
 20
-25.0949
 30
0
 70
192
 0
VERTEX
 8
MESH_134_F0
 10
27.9843
 20
-22.5769
 30
0
 70
192
 0
VERTEX
 8
MESH_134_F0
 10
22.4334
 20
-20.5898
 30
0
 70
192
 0
VERTEX
 8
MESH_134_F0
 10
16.7273
 20
-19.1573
 30
0
 70
192
 0
VERTEX
 8
MESH_134_F0
 10
10.9159
 20
-18.2938
 30
0
 70
192
 0
VERTEX
 8
MESH_134_F0
 10
0
 20
0
 30
0
 70
128
 71
34
 72
2
 73
1
 74
1
 0
VERTEX
 8
MESH_134_F0
 10
0
 20
0
 30
0
 70
128
 71
3
 72
2
 73
34
 74
34
 0
VERTEX
 8
MESH_134_F0
 10
0
 20
0
 30
0
 70
128
 71
3
 72
34
 73
4
 74
4
 0
VERTEX
 8
MESH_134_F0
 10
0
 20
0
 30
0
 70
128
 71
34
 72
33
 73
4
 74
4
 0
VERTEX
 8
MESH_134_F0
 10
0
 20
0
 30
0
 70
128
 71
33
 72
5
 73
4
 74
4
 0
VERTEX
 8
MESH_134_F0
 10
0
 20
0
 30
0
 70
128
 71
32
 72
5
 73
33
 74
33
 0
VERTEX
 8
MESH_134_F0
 10
0
 20
0
 30
0
 70
128
 71
6
 72
5
 73
32
 74
32
 0
VERTEX
 8
MESH_134_F0
 10
0
 20
0
 30
0
 70
128
 71
7
 72
6
 73
31
 74
31
 0
VERTEX
 8
MESH_134_F0
 10
0
 20
0
 30
0
 70
128
 71
29
 72
7
 73
30
 74
30
 0
VERTEX
 8
MESH_134_F0
 10
0
 20
0
 30
0
 70
128
 71
7
 72
31
 73
30
 74
30
 0
VERTEX
 8
MESH_134_F0
 10
0
 20
0
 30
0
 70
128
 71
29
 72
8
 73
7
 74
7
 0
VERTEX
 8
MESH_134_F0
 10
0
 20
0
 30
0
 70
128
 71
9
 72
8
 73
29
 74
29
 0
VERTEX
 8
MESH_134_F0
 10
0
 20
0
 30
0
 70
128
 71
10
 72
9
 73
28
 74
28
 0
VERTEX
 8
MESH_134_F0
 10
0
 20
0
 30
0
 70
128
 71
11
 72
10
 73
27
 74
27
 0
VERTEX
 8
MESH_134_F0
 10
0
 20
0
 30
0
 70
128
 71
12
 72
11
 73
26
 74
26
 0
VERTEX
 8
MESH_134_F0
 10
0
 20
0
 30
0
 70
128
 71
24
 72
12
 73
25
 74
25
 0
VERTEX
 8
MESH_134_F0
 10
0
 20
0
 30
0
 70
128
 71
12
 72
26
 73
25
 74
25
 0
VERTEX
 8
MESH_134_F0
 10
0
 20
0
 30
0
 70
128
 71
24
 72
13
 73
12
 74
12
 0
VERTEX
 8
MESH_134_F0
 10
0
 20
0
 30
0
 70
128
 71
14
 72
13
 73
24
 74
24
 0
VERTEX
 8
MESH_134_F0
 10
0
 20
0
 30
0
 70
128
 71
15
 72
14
 73
23
 74
23
 0
VERTEX
 8
MESH_134_F0
 10
0
 20
0
 30
0
 70
128
 71
16
 72
15
 73
22
 74
22
 0
VERTEX
 8
MESH_134_F0
 10
0
 20
0
 30
0
 70
128
 71
17
 72
16
 73
21
 74
21
 0
VERTEX
 8
MESH_134_F0
 10
0
 20
0
 30
0
 70
128
 71
19
 72
17
 73
20
 74
20
 0
VERTEX
 8
MESH_134_F0
 10
0
 20
0
 30
0
 70
128
 71
17
 72
21
 73
20
 74
20
 0
VERTEX
 8
MESH_134_F0
 10
0
 20
0
 30
0
 70
128
 71
19
 72
18
 73
17
 74
17
 0
VERTEX
 8
MESH_134_F0
 10
0
 20
0
 30
0
 70
128
 71
16
 72
22
 73
21
 74
21
 0
VERTEX
 8
MESH_134_F0
 10
0
 20
0
 30
0
 70
128
 71
15
 72
23
 73
22
 74
22
 0
VERTEX
 8
MESH_134_F0
 10
0
 20
0
 30
0
 70
128
 71
14
 72
24
 73
23
 74
23
 0
VERTEX
 8
MESH_134_F0
 10
0
 20
0
 30
0
 70
128
 71
11
 72
27
 73
26
 74
26
 0
VERTEX
 8
MESH_134_F0
 10
0
 20
0
 30
0
 70
128
 71
10
 72
28
 73
27
 74
27
 0
VERTEX
 8
MESH_134_F0
 10
0
 20
0
 30
0
 70
128
 71
9
 72
29
 73
28
 74
28
 0
VERTEX
 8
MESH_134_F0
 10
0
 20
0
 30
0
 70
128
 71
6
 72
32
 73
31
 74
31
 0
SEQEND
 0
POLYLINE
 8
MESH_133_F0
 66
1
 10
0.0
 20
0.0
 30
0.0
 70
64
 71
4
 72
2
 0
VERTEX
 8
MESH_133_F0
 10
65
 20
-78
 30
0
 70
192
 0
VERTEX
 8
MESH_133_F0
 10
65
 20
-78
 30
-25
 70
192
 0
VERTEX
 8
MESH_133_F0
 10
65
 20
-323
 30
-25
 70
192
 0
VERTEX
 8
MESH_133_F0
 10
65
 20
-323
 30
0
 70
192
 0
VERTEX
 8
MESH_133_F0
 10
0
 20
0
 30
0
 70
128
 71
1
 72
3
 73
2
 74
2
 0
VERTEX
 8
MESH_133_F0
 10
0
 20
0
 30
0
 70
128
 71
4
 72
3
 73
1
 74
1
 0
SEQEND
 0
POLYLINE
 8
MESH_132_F0
 66
1
 10
0.0
 20
0.0
 30
0.0
 70
64
 71
34
 72
32
 0
VERTEX
 8
MESH_132_F0
 10
65
 20
-323
 30
0
 70
192
 0
VERTEX
 8
MESH_132_F0
 10
65
 20
-323
 30
-25
 70
192
 0
VERTEX
 8
MESH_132_F0
 10
64.7062
 20
-328.9161
 30
-25
 70
192
 0
VERTEX
 8
MESH_132_F0
 10
63.8427
 20
-334.7277
 30
-25
 70
192
 0
VERTEX
 8
MESH_132_F0
 10
62.41
 20
-340.4339
 30
-25
 70
192
 0
VERTEX
 8
MESH_132_F0
 10
60.4228
 20
-345.985
 30
-25
 70
192
 0
VERTEX
 8
MESH_132_F0
 10
57.9048
 20
-351.304
 30
-25
 70
192
 0
VERTEX
 8
MESH_132_F0
 10
54.8791
 20
-356.3477
 30
-25
 70
192
 0
VERTEX
 8
MESH_132_F0
 10
51.3752
 20
-361.0694
 30
-25
 70
192
 0
VERTEX
 8
MESH_132_F0
 10
47.426
 20
-365.4267
 30
-25
 70
192
 0
VERTEX
 8
MESH_132_F0
 10
43.0687
 20
-369.3758
 30
-25
 70
192
 0
VERTEX
 8
MESH_132_F0
 10
38.3469
 20
-372.8795
 30
-25
 70
192
 0
VERTEX
 8
MESH_132_F0
 10
33.3033
 20
-375.9052
 30
-25
 70
192
 0
VERTEX
 8
MESH_132_F0
 10
27.9843
 20
-378.4231
 30
-25
 70
192
 0
VERTEX
 8
MESH_132_F0
 10
22.4334
 20
-380.4102
 30
-25
 70
192
 0
VERTEX
 8
MESH_132_F0
 10
16.7273
 20
-381.8427
 30
-25
 70
192
 0
VERTEX
 8
MESH_132_F0
 10
10.9159
 20
-382.7062
 30
-25
 70
192
 0
VERTEX
 8
MESH_132_F0
 10
5
 20
-383
 30
-25
 70
192
 0
VERTEX
 8
MESH_132_F0
 10
5
 20
-383
 30
0
 70
192
 0
VERTEX
 8
MESH_132_F0
 10
10.9161
 20
-382.7062
 30
0
 70
192
 0
VERTEX
 8
MESH_132_F0
 10
16.7277
 20
-381.8427
 30
0
 70
192
 0
VERTEX
 8
MESH_132_F0
 10
22.4339
 20
-380.41
 30
0
 70
192
 0
VERTEX
 8
MESH_132_F0
 10
27.985
 20
-378.4228
 30
0
 70
192
 0
VERTEX
 8
MESH_132_F0
 10
33.304
 20
-375.9047
 30
0
 70
192
 0
VERTEX
 8
MESH_132_F0
 10
38.3477
 20
-372.8791
 30
0
 70
192
 0
VERTEX
 8
MESH_132_F0
 10
43.0694
 20
-369.3752
 30
0
 70
192
 0
VERTEX
 8
MESH_132_F0
 10
47.4267
 20
-365.426
 30
0
 70
192
 0
VERTEX
 8
MESH_132_F0
 10
51.3758
 20
-361.0687
 30
0
 70
192
 0
VERTEX
 8
MESH_132_F0
 10
54.8796
 20
-356.347
 30
0
 70
192
 0
VERTEX
 8
MESH_132_F0
 10
57.9051
 20
-351.3033
 30
0
 70
192
 0
VERTEX
 8
MESH_132_F0
 10
60.4231
 20
-345.9843
 30
0
 70
192
 0
VERTEX
 8
MESH_132_F0
 10
62.4102
 20
-340.4334
 30
0
 70
192
 0
VERTEX
 8
MESH_132_F0
 10
63.8427
 20
-334.7273
 30
0
 70
192
 0
VERTEX
 8
MESH_132_F0
 10
64.7062
 20
-328.9159
 30
0
 70
192
 0
VERTEX
 8
MESH_132_F0
 10
0
 20
0
 30
0
 70
128
 71
34
 72
2
 73
1
 74
1
 0
VERTEX
 8
MESH_132_F0
 10
0
 20
0
 30
0
 70
128
 71
3
 72
2
 73
34
 74
34
 0
VERTEX
 8
MESH_132_F0
 10
0
 20
0
 30
0
 70
128
 71
3
 72
34
 73
4
 74
4
 0
VERTEX
 8
MESH_132_F0
 10
0
 20
0
 30
0
 70
128
 71
34
 72
33
 73
4
 74
4
 0
VERTEX
 8
MESH_132_F0
 10
0
 20
0
 30
0
 70
128
 71
33
 72
5
 73
4
 74
4
 0
VERTEX
 8
MESH_132_F0
 10
0
 20
0
 30
0
 70
128
 71
32
 72
5
 73
33
 74
33
 0
VERTEX
 8
MESH_132_F0
 10
0
 20
0
 30
0
 70
128
 71
6
 72
5
 73
32
 74
32
 0
VERTEX
 8
MESH_132_F0
 10
0
 20
0
 30
0
 70
128
 71
7
 72
6
 73
31
 74
31
 0
VERTEX
 8
MESH_132_F0
 10
0
 20
0
 30
0
 70
128
 71
29
 72
7
 73
30
 74
30
 0
VERTEX
 8
MESH_132_F0
 10
0
 20
0
 30
0
 70
128
 71
7
 72
31
 73
30
 74
30
 0
VERTEX
 8
MESH_132_F0
 10
0
 20
0
 30
0
 70
128
 71
29
 72
8
 73
7
 74
7
 0
VERTEX
 8
MESH_132_F0
 10
0
 20
0
 30
0
 70
128
 71
9
 72
8
 73
29
 74
29
 0
VERTEX
 8
MESH_132_F0
 10
0
 20
0
 30
0
 70
128
 71
10
 72
9
 73
28
 74
28
 0
VERTEX
 8
MESH_132_F0
 10
0
 20
0
 30
0
 70
128
 71
11
 72
10
 73
27
 74
27
 0
VERTEX
 8
MESH_132_F0
 10
0
 20
0
 30
0
 70
128
 71
12
 72
11
 73
26
 74
26
 0
VERTEX
 8
MESH_132_F0
 10
0
 20
0
 30
0
 70
128
 71
24
 72
12
 73
25
 74
25
 0
VERTEX
 8
MESH_132_F0
 10
0
 20
0
 30
0
 70
128
 71
12
 72
26
 73
25
 74
25
 0
VERTEX
 8
MESH_132_F0
 10
0
 20
0
 30
0
 70
128
 71
24
 72
13
 73
12
 74
12
 0
VERTEX
 8
MESH_132_F0
 10
0
 20
0
 30
0
 70
128
 71
14
 72
13
 73
24
 74
24
 0
VERTEX
 8
MESH_132_F0
 10
0
 20
0
 30
0
 70
128
 71
15
 72
14
 73
23
 74
23
 0
VERTEX
 8
MESH_132_F0
 10
0
 20
0
 30
0
 70
128
 71
16
 72
15
 73
22
 74
22
 0
VERTEX
 8
MESH_132_F0
 10
0
 20
0
 30
0
 70
128
 71
17
 72
16
 73
21
 74
21
 0
VERTEX
 8
MESH_132_F0
 10
0
 20
0
 30
0
 70
128
 71
19
 72
17
 73
20
 74
20
 0
VERTEX
 8
MESH_132_F0
 10
0
 20
0
 30
0
 70
128
 71
17
 72
21
 73
20
 74
20
 0
VERTEX
 8
MESH_132_F0
 10
0
 20
0
 30
0
 70
128
 71
19
 72
18
 73
17
 74
17
 0
VERTEX
 8
MESH_132_F0
 10
0
 20
0
 30
0
 70
128
 71
16
 72
22
 73
21
 74
21
 0
VERTEX
 8
MESH_132_F0
 10
0
 20
0
 30
0
 70
128
 71
15
 72
23
 73
22
 74
22
 0
VERTEX
 8
MESH_132_F0
 10
0
 20
0
 30
0
 70
128
 71
14
 72
24
 73
23
 74
23
 0
VERTEX
 8
MESH_132_F0
 10
0
 20
0
 30
0
 70
128
 71
11
 72
27
 73
26
 74
26
 0
VERTEX
 8
MESH_132_F0
 10
0
 20
0
 30
0
 70
128
 71
10
 72
28
 73
27
 74
27
 0
VERTEX
 8
MESH_132_F0
 10
0
 20
0
 30
0
 70
128
 71
9
 72
29
 73
28
 74
28
 0
VERTEX
 8
MESH_132_F0
 10
0
 20
0
 30
0
 70
128
 71
6
 72
32
 73
31
 74
31
 0
SEQEND
 0
POLYLINE
 8
MESH_131_F0
 66
1
 10
0.0
 20
0.0
 30
0.0
 70
64
 71
4
 72
2
 0
VERTEX
 8
MESH_131_F0
 10
5
 20
-383
 30
0
 70
192
 0
VERTEX
 8
MESH_131_F0
 10
5
 20
-383
 30
-25
 70
192
 0
VERTEX
 8
MESH_131_F0
 10
-5
 20
-383
 30
-25
 70
192
 0
VERTEX
 8
MESH_131_F0
 10
-5
 20
-383
 30
0
 70
192
 0
VERTEX
 8
MESH_131_F0
 10
0
 20
0
 30
0
 70
128
 71
1
 72
3
 73
2
 74
2
 0
VERTEX
 8
MESH_131_F0
 10
0
 20
0
 30
0
 70
128
 71
4
 72
3
 73
1
 74
1
 0
SEQEND
 0
POLYLINE
 8
MESH_130_F0
 66
1
 10
0.0
 20
0.0
 30
0.0
 70
64
 71
34
 72
32
 0
VERTEX
 8
MESH_130_F0
 10
-5
 20
-383
 30
0
 70
192
 0
VERTEX
 8
MESH_130_F0
 10
-5
 20
-383
 30
-25
 70
192
 0
VERTEX
 8
MESH_130_F0
 10
-10.9161
 20
-382.7062
 30
-25
 70
192
 0
VERTEX
 8
MESH_130_F0
 10
-16.7277
 20
-381.8427
 30
-25
 70
192
 0
VERTEX
 8
MESH_130_F0
 10
-22.4339
 20
-380.41
 30
-25
 70
192
 0
VERTEX
 8
MESH_130_F0
 10
-27.985
 20
-378.4228
 30
-25
 70
192
 0
VERTEX
 8
MESH_130_F0
 10
-33.304
 20
-375.9047
 30
-25
 70
192
 0
VERTEX
 8
MESH_130_F0
 10
-38.3477
 20
-372.8791
 30
-25
 70
192
 0
VERTEX
 8
MESH_130_F0
 10
-43.0694
 20
-369.3752
 30
-25
 70
192
 0
VERTEX
 8
MESH_130_F0
 10
-47.4267
 20
-365.426
 30
-25
 70
192
 0
VERTEX
 8
MESH_130_F0
 10
-51.3758
 20
-361.0687
 30
-25
 70
192
 0
VERTEX
 8
MESH_130_F0
 10
-54.8796
 20
-356.347
 30
-25
 70
192
 0
VERTEX
 8
MESH_130_F0
 10
-57.9051
 20
-351.3033
 30
-25
 70
192
 0
VERTEX
 8
MESH_130_F0
 10
-60.4231
 20
-345.9843
 30
-25
 70
192
 0
VERTEX
 8
MESH_130_F0
 10
-62.4102
 20
-340.4334
 30
-25
 70
192
 0
VERTEX
 8
MESH_130_F0
 10
-63.8427
 20
-334.7273
 30
-25
 70
192
 0
VERTEX
 8
MESH_130_F0
 10
-64.7062
 20
-328.9159
 30
-25
 70
192
 0
VERTEX
 8
MESH_130_F0
 10
-65
 20
-323
 30
-25
 70
192
 0
VERTEX
 8
MESH_130_F0
 10
-65
 20
-323
 30
0
 70
192
 0
VERTEX
 8
MESH_130_F0
 10
-64.7062
 20
-328.9161
 30
0
 70
192
 0
VERTEX
 8
MESH_130_F0
 10
-63.8427
 20
-334.7277
 30
0
 70
192
 0
VERTEX
 8
MESH_130_F0
 10
-62.41
 20
-340.4339
 30
0
 70
192
 0
VERTEX
 8
MESH_130_F0
 10
-60.4228
 20
-345.985
 30
0
 70
192
 0
VERTEX
 8
MESH_130_F0
 10
-57.9048
 20
-351.304
 30
0
 70
192
 0
VERTEX
 8
MESH_130_F0
 10
-54.8791
 20
-356.3477
 30
0
 70
192
 0
VERTEX
 8
MESH_130_F0
 10
-51.3752
 20
-361.0694
 30
0
 70
192
 0
VERTEX
 8
MESH_130_F0
 10
-47.426
 20
-365.4267
 30
0
 70
192
 0
VERTEX
 8
MESH_130_F0
 10
-43.0687
 20
-369.3758
 30
0
 70
192
 0
VERTEX
 8
MESH_130_F0
 10
-38.3469
 20
-372.8795
 30
0
 70
192
 0
VERTEX
 8
MESH_130_F0
 10
-33.3033
 20
-375.9052
 30
0
 70
192
 0
VERTEX
 8
MESH_130_F0
 10
-27.9843
 20
-378.4231
 30
0
 70
192
 0
VERTEX
 8
MESH_130_F0
 10
-22.4334
 20
-380.4102
 30
0
 70
192
 0
VERTEX
 8
MESH_130_F0
 10
-16.7273
 20
-381.8427
 30
0
 70
192
 0
VERTEX
 8
MESH_130_F0
 10
-10.9159
 20
-382.7062
 30
0
 70
192
 0
VERTEX
 8
MESH_130_F0
 10
0
 20
0
 30
0
 70
128
 71
34
 72
2
 73
1
 74
1
 0
VERTEX
 8
MESH_130_F0
 10
0
 20
0
 30
0
 70
128
 71
3
 72
2
 73
34
 74
34
 0
VERTEX
 8
MESH_130_F0
 10
0
 20
0
 30
0
 70
128
 71
3
 72
34
 73
4
 74
4
 0
VERTEX
 8
MESH_130_F0
 10
0
 20
0
 30
0
 70
128
 71
34
 72
33
 73
4
 74
4
 0
VERTEX
 8
MESH_130_F0
 10
0
 20
0
 30
0
 70
128
 71
33
 72
5
 73
4
 74
4
 0
VERTEX
 8
MESH_130_F0
 10
0
 20
0
 30
0
 70
128
 71
32
 72
5
 73
33
 74
33
 0
VERTEX
 8
MESH_130_F0
 10
0
 20
0
 30
0
 70
128
 71
6
 72
5
 73
32
 74
32
 0
VERTEX
 8
MESH_130_F0
 10
0
 20
0
 30
0
 70
128
 71
7
 72
6
 73
31
 74
31
 0
VERTEX
 8
MESH_130_F0
 10
0
 20
0
 30
0
 70
128
 71
29
 72
7
 73
30
 74
30
 0
VERTEX
 8
MESH_130_F0
 10
0
 20
0
 30
0
 70
128
 71
7
 72
31
 73
30
 74
30
 0
VERTEX
 8
MESH_130_F0
 10
0
 20
0
 30
0
 70
128
 71
29
 72
8
 73
7
 74
7
 0
VERTEX
 8
MESH_130_F0
 10
0
 20
0
 30
0
 70
128
 71
9
 72
8
 73
29
 74
29
 0
VERTEX
 8
MESH_130_F0
 10
0
 20
0
 30
0
 70
128
 71
10
 72
9
 73
28
 74
28
 0
VERTEX
 8
MESH_130_F0
 10
0
 20
0
 30
0
 70
128
 71
11
 72
10
 73
27
 74
27
 0
VERTEX
 8
MESH_130_F0
 10
0
 20
0
 30
0
 70
128
 71
12
 72
11
 73
26
 74
26
 0
VERTEX
 8
MESH_130_F0
 10
0
 20
0
 30
0
 70
128
 71
24
 72
12
 73
25
 74
25
 0
VERTEX
 8
MESH_130_F0
 10
0
 20
0
 30
0
 70
128
 71
12
 72
26
 73
25
 74
25
 0
VERTEX
 8
MESH_130_F0
 10
0
 20
0
 30
0
 70
128
 71
24
 72
13
 73
12
 74
12
 0
VERTEX
 8
MESH_130_F0
 10
0
 20
0
 30
0
 70
128
 71
14
 72
13
 73
24
 74
24
 0
VERTEX
 8
MESH_130_F0
 10
0
 20
0
 30
0
 70
128
 71
15
 72
14
 73
23
 74
23
 0
VERTEX
 8
MESH_130_F0
 10
0
 20
0
 30
0
 70
128
 71
16
 72
15
 73
22
 74
22
 0
VERTEX
 8
MESH_130_F0
 10
0
 20
0
 30
0
 70
128
 71
17
 72
16
 73
21
 74
21
 0
VERTEX
 8
MESH_130_F0
 10
0
 20
0
 30
0
 70
128
 71
19
 72
17
 73
20
 74
20
 0
VERTEX
 8
MESH_130_F0
 10
0
 20
0
 30
0
 70
128
 71
17
 72
21
 73
20
 74
20
 0
VERTEX
 8
MESH_130_F0
 10
0
 20
0
 30
0
 70
128
 71
19
 72
18
 73
17
 74
17
 0
VERTEX
 8
MESH_130_F0
 10
0
 20
0
 30
0
 70
128
 71
16
 72
22
 73
21
 74
21
 0
VERTEX
 8
MESH_130_F0
 10
0
 20
0
 30
0
 70
128
 71
15
 72
23
 73
22
 74
22
 0
VERTEX
 8
MESH_130_F0
 10
0
 20
0
 30
0
 70
128
 71
14
 72
24
 73
23
 74
23
 0
VERTEX
 8
MESH_130_F0
 10
0
 20
0
 30
0
 70
128
 71
11
 72
27
 73
26
 74
26
 0
VERTEX
 8
MESH_130_F0
 10
0
 20
0
 30
0
 70
128
 71
10
 72
28
 73
27
 74
27
 0
VERTEX
 8
MESH_130_F0
 10
0
 20
0
 30
0
 70
128
 71
9
 72
29
 73
28
 74
28
 0
VERTEX
 8
MESH_130_F0
 10
0
 20
0
 30
0
 70
128
 71
6
 72
32
 73
31
 74
31
 0
SEQEND
 0
POLYLINE
 8
MESH_129_F0
 66
1
 10
0.0
 20
0.0
 30
0.0
 70
64
 71
4
 72
2
 0
VERTEX
 8
MESH_129_F0
 10
-65
 20
-323
 30
0
 70
192
 0
VERTEX
 8
MESH_129_F0
 10
-65
 20
-323
 30
-25
 70
192
 0
VERTEX
 8
MESH_129_F0
 10
-65
 20
-78
 30
-25
 70
192
 0
VERTEX
 8
MESH_129_F0
 10
-65
 20
-78
 30
0
 70
192
 0
VERTEX
 8
MESH_129_F0
 10
0
 20
0
 30
0
 70
128
 71
1
 72
3
 73
2
 74
2
 0
VERTEX
 8
MESH_129_F0
 10
0
 20
0
 30
0
 70
128
 71
4
 72
3
 73
1
 74
1
 0
SEQEND
 0
POLYLINE
 8
MESH_128_F0
 66
1
 10
0.0
 20
0.0
 30
0.0
 70
64
 71
34
 72
32
 0
VERTEX
 8
MESH_128_F0
 10
-65
 20
-78
 30
0
 70
192
 0
VERTEX
 8
MESH_128_F0
 10
-65
 20
-78
 30
-25
 70
192
 0
VERTEX
 8
MESH_128_F0
 10
-64.7062
 20
-72.0839
 30
-25
 70
192
 0
VERTEX
 8
MESH_128_F0
 10
-63.8427
 20
-66.2723
 30
-25
 70
192
 0
VERTEX
 8
MESH_128_F0
 10
-62.41
 20
-60.5661
 30
-25
 70
192
 0
VERTEX
 8
MESH_128_F0
 10
-60.4228
 20
-55.015
 30
-25
 70
192
 0
VERTEX
 8
MESH_128_F0
 10
-57.9048
 20
-49.696
 30
-25
 70
192
 0
VERTEX
 8
MESH_128_F0
 10
-54.8791
 20
-44.6523
 30
-25
 70
192
 0
VERTEX
 8
MESH_128_F0
 10
-51.3752
 20
-39.9306
 30
-25
 70
192
 0
VERTEX
 8
MESH_128_F0
 10
-47.426
 20
-35.5733
 30
-25
 70
192
 0
VERTEX
 8
MESH_128_F0
 10
-43.0687
 20
-31.6242
 30
-25
 70
192
 0
VERTEX
 8
MESH_128_F0
 10
-38.3469
 20
-28.1204
 30
-25
 70
192
 0
VERTEX
 8
MESH_128_F0
 10
-33.3033
 20
-25.0949
 30
-25
 70
192
 0
VERTEX
 8
MESH_128_F0
 10
-27.9843
 20
-22.5769
 30
-25
 70
192
 0
VERTEX
 8
MESH_128_F0
 10
-22.4334
 20
-20.5898
 30
-25
 70
192
 0
VERTEX
 8
MESH_128_F0
 10
-16.7273
 20
-19.1573
 30
-25
 70
192
 0
VERTEX
 8
MESH_128_F0
 10
-10.9159
 20
-18.2938
 30
-25
 70
192
 0
VERTEX
 8
MESH_128_F0
 10
-5
 20
-18
 30
-25
 70
192
 0
VERTEX
 8
MESH_128_F0
 10
-5
 20
-18
 30
0
 70
192
 0
VERTEX
 8
MESH_128_F0
 10
-10.9161
 20
-18.2938
 30
0
 70
192
 0
VERTEX
 8
MESH_128_F0
 10
-16.7277
 20
-19.1573
 30
0
 70
192
 0
VERTEX
 8
MESH_128_F0
 10
-22.4339
 20
-20.59
 30
0
 70
192
 0
VERTEX
 8
MESH_128_F0
 10
-27.985
 20
-22.5772
 30
0
 70
192
 0
VERTEX
 8
MESH_128_F0
 10
-33.304
 20
-25.0952
 30
0
 70
192
 0
VERTEX
 8
MESH_128_F0
 10
-38.3477
 20
-28.121
 30
0
 70
192
 0
VERTEX
 8
MESH_128_F0
 10
-43.0694
 20
-31.6248
 30
0
 70
192
 0
VERTEX
 8
MESH_128_F0
 10
-47.4267
 20
-35.574
 30
0
 70
192
 0
VERTEX
 8
MESH_128_F0
 10
-51.3758
 20
-39.9313
 30
0
 70
192
 0
VERTEX
 8
MESH_128_F0
 10
-54.8796
 20
-44.653
 30
0
 70
192
 0
VERTEX
 8
MESH_128_F0
 10
-57.9051
 20
-49.6967
 30
0
 70
192
 0
VERTEX
 8
MESH_128_F0
 10
-60.4231
 20
-55.0157
 30
0
 70
192
 0
VERTEX
 8
MESH_128_F0
 10
-62.4102
 20
-60.5666
 30
0
 70
192
 0
VERTEX
 8
MESH_128_F0
 10
-63.8427
 20
-66.2727
 30
0
 70
192
 0
VERTEX
 8
MESH_128_F0
 10
-64.7062
 20
-72.0841
 30
0
 70
192
 0
VERTEX
 8
MESH_128_F0
 10
0
 20
0
 30
0
 70
128
 71
34
 72
2
 73
1
 74
1
 0
VERTEX
 8
MESH_128_F0
 10
0
 20
0
 30
0
 70
128
 71
3
 72
2
 73
34
 74
34
 0
VERTEX
 8
MESH_128_F0
 10
0
 20
0
 30
0
 70
128
 71
3
 72
34
 73
4
 74
4
 0
VERTEX
 8
MESH_128_F0
 10
0
 20
0
 30
0
 70
128
 71
34
 72
33
 73
4
 74
4
 0
VERTEX
 8
MESH_128_F0
 10
0
 20
0
 30
0
 70
128
 71
33
 72
5
 73
4
 74
4
 0
VERTEX
 8
MESH_128_F0
 10
0
 20
0
 30
0
 70
128
 71
32
 72
5
 73
33
 74
33
 0
VERTEX
 8
MESH_128_F0
 10
0
 20
0
 30
0
 70
128
 71
6
 72
5
 73
32
 74
32
 0
VERTEX
 8
MESH_128_F0
 10
0
 20
0
 30
0
 70
128
 71
7
 72
6
 73
31
 74
31
 0
VERTEX
 8
MESH_128_F0
 10
0
 20
0
 30
0
 70
128
 71
29
 72
7
 73
30
 74
30
 0
VERTEX
 8
MESH_128_F0
 10
0
 20
0
 30
0
 70
128
 71
7
 72
31
 73
30
 74
30
 0
VERTEX
 8
MESH_128_F0
 10
0
 20
0
 30
0
 70
128
 71
29
 72
8
 73
7
 74
7
 0
VERTEX
 8
MESH_128_F0
 10
0
 20
0
 30
0
 70
128
 71
9
 72
8
 73
29
 74
29
 0
VERTEX
 8
MESH_128_F0
 10
0
 20
0
 30
0
 70
128
 71
10
 72
9
 73
28
 74
28
 0
VERTEX
 8
MESH_128_F0
 10
0
 20
0
 30
0
 70
128
 71
11
 72
10
 73
27
 74
27
 0
VERTEX
 8
MESH_128_F0
 10
0
 20
0
 30
0
 70
128
 71
12
 72
11
 73
26
 74
26
 0
VERTEX
 8
MESH_128_F0
 10
0
 20
0
 30
0
 70
128
 71
24
 72
12
 73
25
 74
25
 0
VERTEX
 8
MESH_128_F0
 10
0
 20
0
 30
0
 70
128
 71
12
 72
26
 73
25
 74
25
 0
VERTEX
 8
MESH_128_F0
 10
0
 20
0
 30
0
 70
128
 71
24
 72
13
 73
12
 74
12
 0
VERTEX
 8
MESH_128_F0
 10
0
 20
0
 30
0
 70
128
 71
14
 72
13
 73
24
 74
24
 0
VERTEX
 8
MESH_128_F0
 10
0
 20
0
 30
0
 70
128
 71
15
 72
14
 73
23
 74
23
 0
VERTEX
 8
MESH_128_F0
 10
0
 20
0
 30
0
 70
128
 71
16
 72
15
 73
22
 74
22
 0
VERTEX
 8
MESH_128_F0
 10
0
 20
0
 30
0
 70
128
 71
17
 72
16
 73
21
 74
21
 0
VERTEX
 8
MESH_128_F0
 10
0
 20
0
 30
0
 70
128
 71
19
 72
17
 73
20
 74
20
 0
VERTEX
 8
MESH_128_F0
 10
0
 20
0
 30
0
 70
128
 71
17
 72
21
 73
20
 74
20
 0
VERTEX
 8
MESH_128_F0
 10
0
 20
0
 30
0
 70
128
 71
19
 72
18
 73
17
 74
17
 0
VERTEX
 8
MESH_128_F0
 10
0
 20
0
 30
0
 70
128
 71
16
 72
22
 73
21
 74
21
 0
VERTEX
 8
MESH_128_F0
 10
0
 20
0
 30
0
 70
128
 71
15
 72
23
 73
22
 74
22
 0
VERTEX
 8
MESH_128_F0
 10
0
 20
0
 30
0
 70
128
 71
14
 72
24
 73
23
 74
23
 0
VERTEX
 8
MESH_128_F0
 10
0
 20
0
 30
0
 70
128
 71
11
 72
27
 73
26
 74
26
 0
VERTEX
 8
MESH_128_F0
 10
0
 20
0
 30
0
 70
128
 71
10
 72
28
 73
27
 74
27
 0
VERTEX
 8
MESH_128_F0
 10
0
 20
0
 30
0
 70
128
 71
9
 72
29
 73
28
 74
28
 0
VERTEX
 8
MESH_128_F0
 10
0
 20
0
 30
0
 70
128
 71
6
 72
32
 73
31
 74
31
 0
SEQEND
 0
POLYLINE
 8
MESH_127_F0
 66
1
 10
0.0
 20
0.0
 30
0.0
 70
64
 71
100
 72
100
 0
VERTEX
 8
MESH_127_F0
 10
-65
 20
-78
 30
0
 70
192
 0
VERTEX
 8
MESH_127_F0
 10
-64.7062
 20
-72.0841
 30
0
 70
192
 0
VERTEX
 8
MESH_127_F0
 10
-63.8427
 20
-66.2727
 30
0
 70
192
 0
VERTEX
 8
MESH_127_F0
 10
-62.4102
 20
-60.5666
 30
0
 70
192
 0
VERTEX
 8
MESH_127_F0
 10
-60.4231
 20
-55.0157
 30
0
 70
192
 0
VERTEX
 8
MESH_127_F0
 10
-57.9051
 20
-49.6967
 30
0
 70
192
 0
VERTEX
 8
MESH_127_F0
 10
-54.8796
 20
-44.653
 30
0
 70
192
 0
VERTEX
 8
MESH_127_F0
 10
-51.3758
 20
-39.9313
 30
0
 70
192
 0
VERTEX
 8
MESH_127_F0
 10
-47.4267
 20
-35.574
 30
0
 70
192
 0
VERTEX
 8
MESH_127_F0
 10
-43.0694
 20
-31.6248
 30
0
 70
192
 0
VERTEX
 8
MESH_127_F0
 10
-38.3477
 20
-28.121
 30
0
 70
192
 0
VERTEX
 8
MESH_127_F0
 10
-33.304
 20
-25.0952
 30
0
 70
192
 0
VERTEX
 8
MESH_127_F0
 10
-27.985
 20
-22.5772
 30
0
 70
192
 0
VERTEX
 8
MESH_127_F0
 10
-22.4339
 20
-20.59
 30
0
 70
192
 0
VERTEX
 8
MESH_127_F0
 10
-16.7277
 20
-19.1573
 30
0
 70
192
 0
VERTEX
 8
MESH_127_F0
 10
-10.9161
 20
-18.2938
 30
0
 70
192
 0
VERTEX
 8
MESH_127_F0
 10
-5
 20
-18
 30
0
 70
192
 0
VERTEX
 8
MESH_127_F0
 10
5
 20
-18
 30
0
 70
192
 0
VERTEX
 8
MESH_127_F0
 10
10.9159
 20
-18.2938
 30
0
 70
192
 0
VERTEX
 8
MESH_127_F0
 10
16.7273
 20
-19.1573
 30
0
 70
192
 0
VERTEX
 8
MESH_127_F0
 10
22.4334
 20
-20.5898
 30
0
 70
192
 0
VERTEX
 8
MESH_127_F0
 10
27.9843
 20
-22.5769
 30
0
 70
192
 0
VERTEX
 8
MESH_127_F0
 10
33.3033
 20
-25.0949
 30
0
 70
192
 0
VERTEX
 8
MESH_127_F0
 10
38.3469
 20
-28.1204
 30
0
 70
192
 0
VERTEX
 8
MESH_127_F0
 10
43.0687
 20
-31.6242
 30
0
 70
192
 0
VERTEX
 8
MESH_127_F0
 10
47.426
 20
-35.5733
 30
0
 70
192
 0
VERTEX
 8
MESH_127_F0
 10
51.3752
 20
-39.9306
 30
0
 70
192
 0
VERTEX
 8
MESH_127_F0
 10
54.8791
 20
-44.6523
 30
0
 70
192
 0
VERTEX
 8
MESH_127_F0
 10
57.9048
 20
-49.696
 30
0
 70
192
 0
VERTEX
 8
MESH_127_F0
 10
60.4228
 20
-55.015
 30
0
 70
192
 0
VERTEX
 8
MESH_127_F0
 10
62.41
 20
-60.5661
 30
0
 70
192
 0
VERTEX
 8
MESH_127_F0
 10
63.8427
 20
-66.2723
 30
0
 70
192
 0
VERTEX
 8
MESH_127_F0
 10
64.7062
 20
-72.0839
 30
0
 70
192
 0
VERTEX
 8
MESH_127_F0
 10
65
 20
-78
 30
0
 70
192
 0
VERTEX
 8
MESH_127_F0
 10
65
 20
-323
 30
0
 70
192
 0
VERTEX
 8
MESH_127_F0
 10
64.7062
 20
-328.9159
 30
0
 70
192
 0
VERTEX
 8
MESH_127_F0
 10
63.8427
 20
-334.7273
 30
0
 70
192
 0
VERTEX
 8
MESH_127_F0
 10
62.4102
 20
-340.4334
 30
0
 70
192
 0
VERTEX
 8
MESH_127_F0
 10
60.4231
 20
-345.9843
 30
0
 70
192
 0
VERTEX
 8
MESH_127_F0
 10
57.9051
 20
-351.3033
 30
0
 70
192
 0
VERTEX
 8
MESH_127_F0
 10
54.8796
 20
-356.347
 30
0
 70
192
 0
VERTEX
 8
MESH_127_F0
 10
51.3758
 20
-361.0687
 30
0
 70
192
 0
VERTEX
 8
MESH_127_F0
 10
47.4267
 20
-365.426
 30
0
 70
192
 0
VERTEX
 8
MESH_127_F0
 10
43.0694
 20
-369.3752
 30
0
 70
192
 0
VERTEX
 8
MESH_127_F0
 10
38.3477
 20
-372.8791
 30
0
 70
192
 0
VERTEX
 8
MESH_127_F0
 10
33.304
 20
-375.9047
 30
0
 70
192
 0
VERTEX
 8
MESH_127_F0
 10
27.985
 20
-378.4228
 30
0
 70
192
 0
VERTEX
 8
MESH_127_F0
 10
22.4339
 20
-380.41
 30
0
 70
192
 0
VERTEX
 8
MESH_127_F0
 10
16.7277
 20
-381.8427
 30
0
 70
192
 0
VERTEX
 8
MESH_127_F0
 10
10.9161
 20
-382.7062
 30
0
 70
192
 0
VERTEX
 8
MESH_127_F0
 10
5
 20
-383
 30
0
 70
192
 0
VERTEX
 8
MESH_127_F0
 10
-5
 20
-383
 30
0
 70
192
 0
VERTEX
 8
MESH_127_F0
 10
-10.9159
 20
-382.7062
 30
0
 70
192
 0
VERTEX
 8
MESH_127_F0
 10
-16.7273
 20
-381.8427
 30
0
 70
192
 0
VERTEX
 8
MESH_127_F0
 10
-22.4334
 20
-380.4102
 30
0
 70
192
 0
VERTEX
 8
MESH_127_F0
 10
-27.9843
 20
-378.4231
 30
0
 70
192
 0
VERTEX
 8
MESH_127_F0
 10
-33.3033
 20
-375.9052
 30
0
 70
192
 0
VERTEX
 8
MESH_127_F0
 10
-38.3469
 20
-372.8795
 30
0
 70
192
 0
VERTEX
 8
MESH_127_F0
 10
-43.0687
 20
-369.3758
 30
0
 70
192
 0
VERTEX
 8
MESH_127_F0
 10
-47.426
 20
-365.4267
 30
0
 70
192
 0
VERTEX
 8
MESH_127_F0
 10
-51.3752
 20
-361.0694
 30
0
 70
192
 0
VERTEX
 8
MESH_127_F0
 10
-54.8791
 20
-356.3477
 30
0
 70
192
 0
VERTEX
 8
MESH_127_F0
 10
-57.9048
 20
-351.304
 30
0
 70
192
 0
VERTEX
 8
MESH_127_F0
 10
-60.4228
 20
-345.985
 30
0
 70
192
 0
VERTEX
 8
MESH_127_F0
 10
-62.41
 20
-340.4339
 30
0
 70
192
 0
VERTEX
 8
MESH_127_F0
 10
-63.8427
 20
-334.7277
 30
0
 70
192
 0
VERTEX
 8
MESH_127_F0
 10
-64.7062
 20
-328.9161
 30
0
 70
192
 0
VERTEX
 8
MESH_127_F0
 10
-65
 20
-323
 30
0
 70
192
 0
VERTEX
 8
MESH_127_F0
 10
-300
 20
0
 30
0
 70
192
 0
VERTEX
 8
MESH_127_F0
 10
-300
 20
-417
 30
0
 70
192
 0
VERTEX
 8
MESH_127_F0
 10
-299.8515
 20
-419.6014
 30
0
 70
192
 0
VERTEX
 8
MESH_127_F0
 10
-299.4177
 20
-422.1427
 30
0
 70
192
 0
VERTEX
 8
MESH_127_F0
 10
-298.7013
 20
-424.6167
 30
0
 70
192
 0
VERTEX
 8
MESH_127_F0
 10
-297.7112
 20
-427.0022
 30
0
 70
192
 0
VERTEX
 8
MESH_127_F0
 10
-296.4649
 20
-429.2526
 30
0
 70
192
 0
VERTEX
 8
MESH_127_F0
 10
-294.9757
 20
-431.3482
 30
0
 70
192
 0
VERTEX
 8
MESH_127_F0
 10
-293.2631
 20
-433.2631
 30
0
 70
192
 0
VERTEX
 8
MESH_127_F0
 10
-291.3482
 20
-434.9757
 30
0
 70
192
 0
VERTEX
 8
MESH_127_F0
 10
-289.2527
 20
-436.4649
 30
0
 70
192
 0
VERTEX
 8
MESH_127_F0
 10
-287.0022
 20
-437.7112
 30
0
 70
192
 0
VERTEX
 8
MESH_127_F0
 10
-284.6167
 20
-438.7013
 30
0
 70
192
 0
VERTEX
 8
MESH_127_F0
 10
-282.1427
 20
-439.4177
 30
0
 70
192
 0
VERTEX
 8
MESH_127_F0
 10
-279.6014
 20
-439.8514
 30
0
 70
192
 0
VERTEX
 8
MESH_127_F0
 10
-277
 20
-440
 30
0
 70
192
 0
VERTEX
 8
MESH_127_F0
 10
277
 20
-440
 30
0
 70
192
 0
VERTEX
 8
MESH_127_F0
 10
279.6014
 20
-439.8514
 30
0
 70
192
 0
VERTEX
 8
MESH_127_F0
 10
282.1427
 20
-439.4177
 30
0
 70
192
 0
VERTEX
 8
MESH_127_F0
 10
284.6167
 20
-438.7013
 30
0
 70
192
 0
VERTEX
 8
MESH_127_F0
 10
287.0022
 20
-437.7112
 30
0
 70
192
 0
VERTEX
 8
MESH_127_F0
 10
289.2527
 20
-436.4649
 30
0
 70
192
 0
VERTEX
 8
MESH_127_F0
 10
291.3482
 20
-434.9757
 30
0
 70
192
 0
VERTEX
 8
MESH_127_F0
 10
293.2631
 20
-433.2631
 30
0
 70
192
 0
VERTEX
 8
MESH_127_F0
 10
294.9757
 20
-431.3482
 30
0
 70
192
 0
VERTEX
 8
MESH_127_F0
 10
296.4649
 20
-429.2526
 30
0
 70
192
 0
VERTEX
 8
MESH_127_F0
 10
297.7112
 20
-427.0022
 30
0
 70
192
 0
VERTEX
 8
MESH_127_F0
 10
298.7013
 20
-424.6167
 30
0
 70
192
 0
VERTEX
 8
MESH_127_F0
 10
299.4177
 20
-422.1427
 30
0
 70
192
 0
VERTEX
 8
MESH_127_F0
 10
299.8515
 20
-419.6014
 30
0
 70
192
 0
VERTEX
 8
MESH_127_F0
 10
300
 20
-417
 30
0
 70
192
 0
VERTEX
 8
MESH_127_F0
 10
300
 20
0
 30
0
 70
192
 0
VERTEX
 8
MESH_127_F0
 10
0
 20
0
 30
0
 70
128
 71
69
 72
1
 73
68
 74
68
 0
VERTEX
 8
MESH_127_F0
 10
0
 20
0
 30
0
 70
128
 71
69
 72
68
 73
70
 74
70
 0
VERTEX
 8
MESH_127_F0
 10
0
 20
0
 30
0
 70
128
 71
68
 72
67
 73
70
 74
70
 0
VERTEX
 8
MESH_127_F0
 10
0
 20
0
 30
0
 70
128
 71
67
 72
66
 73
70
 74
70
 0
VERTEX
 8
MESH_127_F0
 10
0
 20
0
 30
0
 70
128
 71
66
 72
84
 73
70
 74
70
 0
VERTEX
 8
MESH_127_F0
 10
0
 20
0
 30
0
 70
128
 71
84
 72
83
 73
70
 74
70
 0
VERTEX
 8
MESH_127_F0
 10
0
 20
0
 30
0
 70
128
 71
83
 72
82
 73
70
 74
70
 0
VERTEX
 8
MESH_127_F0
 10
0
 20
0
 30
0
 70
128
 71
82
 72
81
 73
70
 74
70
 0
VERTEX
 8
MESH_127_F0
 10
0
 20
0
 30
0
 70
128
 71
81
 72
80
 73
70
 74
70
 0
VERTEX
 8
MESH_127_F0
 10
0
 20
0
 30
0
 70
128
 71
80
 72
79
 73
70
 74
70
 0
VERTEX
 8
MESH_127_F0
 10
0
 20
0
 30
0
 70
128
 71
79
 72
78
 73
70
 74
70
 0
VERTEX
 8
MESH_127_F0
 10
0
 20
0
 30
0
 70
128
 71
78
 72
77
 73
70
 74
70
 0
VERTEX
 8
MESH_127_F0
 10
0
 20
0
 30
0
 70
128
 71
77
 72
76
 73
70
 74
70
 0
VERTEX
 8
MESH_127_F0
 10
0
 20
0
 30
0
 70
128
 71
76
 72
75
 73
70
 74
70
 0
VERTEX
 8
MESH_127_F0
 10
0
 20
0
 30
0
 70
128
 71
75
 72
74
 73
70
 74
70
 0
VERTEX
 8
MESH_127_F0
 10
0
 20
0
 30
0
 70
128
 71
74
 72
73
 73
70
 74
70
 0
VERTEX
 8
MESH_127_F0
 10
0
 20
0
 30
0
 70
128
 71
73
 72
72
 73
70
 74
70
 0
VERTEX
 8
MESH_127_F0
 10
0
 20
0
 30
0
 70
128
 71
72
 72
71
 73
70
 74
70
 0
VERTEX
 8
MESH_127_F0
 10
0
 20
0
 30
0
 70
128
 71
69
 72
2
 73
1
 74
1
 0
VERTEX
 8
MESH_127_F0
 10
0
 20
0
 30
0
 70
128
 71
3
 72
2
 73
69
 74
69
 0
VERTEX
 8
MESH_127_F0
 10
0
 20
0
 30
0
 70
128
 71
3
 72
69
 73
4
 74
4
 0
VERTEX
 8
MESH_127_F0
 10
0
 20
0
 30
0
 70
128
 71
69
 72
5
 73
4
 74
4
 0
VERTEX
 8
MESH_127_F0
 10
0
 20
0
 30
0
 70
128
 71
6
 72
5
 73
69
 74
69
 0
VERTEX
 8
MESH_127_F0
 10
0
 20
0
 30
0
 70
128
 71
6
 72
69
 73
7
 74
7
 0
VERTEX
 8
MESH_127_F0
 10
0
 20
0
 30
0
 70
128
 71
69
 72
8
 73
7
 74
7
 0
VERTEX
 8
MESH_127_F0
 10
0
 20
0
 30
0
 70
128
 71
9
 72
8
 73
69
 74
69
 0
VERTEX
 8
MESH_127_F0
 10
0
 20
0
 30
0
 70
128
 71
9
 72
69
 73
10
 74
10
 0
VERTEX
 8
MESH_127_F0
 10
0
 20
0
 30
0
 70
128
 71
69
 72
11
 73
10
 74
10
 0
VERTEX
 8
MESH_127_F0
 10
0
 20
0
 30
0
 70
128
 71
12
 72
11
 73
69
 74
69
 0
VERTEX
 8
MESH_127_F0
 10
0
 20
0
 30
0
 70
128
 71
12
 72
69
 73
13
 74
13
 0
VERTEX
 8
MESH_127_F0
 10
0
 20
0
 30
0
 70
128
 71
69
 72
14
 73
13
 74
13
 0
VERTEX
 8
MESH_127_F0
 10
0
 20
0
 30
0
 70
128
 71
15
 72
14
 73
69
 74
69
 0
VERTEX
 8
MESH_127_F0
 10
0
 20
0
 30
0
 70
128
 71
15
 72
69
 73
16
 74
16
 0
VERTEX
 8
MESH_127_F0
 10
0
 20
0
 30
0
 70
128
 71
69
 72
17
 73
16
 74
16
 0
VERTEX
 8
MESH_127_F0
 10
0
 20
0
 30
0
 70
128
 71
100
 72
17
 73
69
 74
69
 0
VERTEX
 8
MESH_127_F0
 10
0
 20
0
 30
0
 70
128
 71
18
 72
17
 73
100
 74
100
 0
VERTEX
 8
MESH_127_F0
 10
0
 20
0
 30
0
 70
128
 71
18
 72
100
 73
19
 74
19
 0
VERTEX
 8
MESH_127_F0
 10
0
 20
0
 30
0
 70
128
 71
100
 72
20
 73
19
 74
19
 0
VERTEX
 8
MESH_127_F0
 10
0
 20
0
 30
0
 70
128
 71
21
 72
20
 73
100
 74
100
 0
VERTEX
 8
MESH_127_F0
 10
0
 20
0
 30
0
 70
128
 71
21
 72
100
 73
22
 74
22
 0
VERTEX
 8
MESH_127_F0
 10
0
 20
0
 30
0
 70
128
 71
100
 72
23
 73
22
 74
22
 0
VERTEX
 8
MESH_127_F0
 10
0
 20
0
 30
0
 70
128
 71
24
 72
23
 73
100
 74
100
 0
VERTEX
 8
MESH_127_F0
 10
0
 20
0
 30
0
 70
128
 71
24
 72
100
 73
25
 74
25
 0
VERTEX
 8
MESH_127_F0
 10
0
 20
0
 30
0
 70
128
 71
100
 72
26
 73
25
 74
25
 0
VERTEX
 8
MESH_127_F0
 10
0
 20
0
 30
0
 70
128
 71
27
 72
26
 73
100
 74
100
 0
VERTEX
 8
MESH_127_F0
 10
0
 20
0
 30
0
 70
128
 71
27
 72
100
 73
28
 74
28
 0
VERTEX
 8
MESH_127_F0
 10
0
 20
0
 30
0
 70
128
 71
100
 72
29
 73
28
 74
28
 0
VERTEX
 8
MESH_127_F0
 10
0
 20
0
 30
0
 70
128
 71
30
 72
29
 73
100
 74
100
 0
VERTEX
 8
MESH_127_F0
 10
0
 20
0
 30
0
 70
128
 71
30
 72
100
 73
31
 74
31
 0
VERTEX
 8
MESH_127_F0
 10
0
 20
0
 30
0
 70
128
 71
100
 72
32
 73
31
 74
31
 0
VERTEX
 8
MESH_127_F0
 10
0
 20
0
 30
0
 70
128
 71
33
 72
32
 73
100
 74
100
 0
VERTEX
 8
MESH_127_F0
 10
0
 20
0
 30
0
 70
128
 71
33
 72
100
 73
34
 74
34
 0
VERTEX
 8
MESH_127_F0
 10
0
 20
0
 30
0
 70
128
 71
100
 72
35
 73
34
 74
34
 0
VERTEX
 8
MESH_127_F0
 10
0
 20
0
 30
0
 70
128
 71
99
 72
35
 73
100
 74
100
 0
VERTEX
 8
MESH_127_F0
 10
0
 20
0
 30
0
 70
128
 71
36
 72
35
 73
99
 74
99
 0
VERTEX
 8
MESH_127_F0
 10
0
 20
0
 30
0
 70
128
 71
36
 72
99
 73
37
 74
37
 0
VERTEX
 8
MESH_127_F0
 10
0
 20
0
 30
0
 70
128
 71
99
 72
85
 73
37
 74
37
 0
VERTEX
 8
MESH_127_F0
 10
0
 20
0
 30
0
 70
128
 71
85
 72
38
 73
37
 74
37
 0
VERTEX
 8
MESH_127_F0
 10
0
 20
0
 30
0
 70
128
 71
39
 72
38
 73
85
 74
85
 0
VERTEX
 8
MESH_127_F0
 10
0
 20
0
 30
0
 70
128
 71
39
 72
85
 73
40
 74
40
 0
VERTEX
 8
MESH_127_F0
 10
0
 20
0
 30
0
 70
128
 71
85
 72
41
 73
40
 74
40
 0
VERTEX
 8
MESH_127_F0
 10
0
 20
0
 30
0
 70
128
 71
42
 72
41
 73
85
 74
85
 0
VERTEX
 8
MESH_127_F0
 10
0
 20
0
 30
0
 70
128
 71
42
 72
85
 73
43
 74
43
 0
VERTEX
 8
MESH_127_F0
 10
0
 20
0
 30
0
 70
128
 71
85
 72
44
 73
43
 74
43
 0
VERTEX
 8
MESH_127_F0
 10
0
 20
0
 30
0
 70
128
 71
45
 72
44
 73
85
 74
85
 0
VERTEX
 8
MESH_127_F0
 10
0
 20
0
 30
0
 70
128
 71
45
 72
85
 73
46
 74
46
 0
VERTEX
 8
MESH_127_F0
 10
0
 20
0
 30
0
 70
128
 71
85
 72
47
 73
46
 74
46
 0
VERTEX
 8
MESH_127_F0
 10
0
 20
0
 30
0
 70
128
 71
48
 72
47
 73
85
 74
85
 0
VERTEX
 8
MESH_127_F0
 10
0
 20
0
 30
0
 70
128
 71
48
 72
85
 73
49
 74
49
 0
VERTEX
 8
MESH_127_F0
 10
0
 20
0
 30
0
 70
128
 71
85
 72
50
 73
49
 74
49
 0
VERTEX
 8
MESH_127_F0
 10
0
 20
0
 30
0
 70
128
 71
51
 72
50
 73
85
 74
85
 0
VERTEX
 8
MESH_127_F0
 10
0
 20
0
 30
0
 70
128
 71
51
 72
85
 73
52
 74
52
 0
VERTEX
 8
MESH_127_F0
 10
0
 20
0
 30
0
 70
128
 71
85
 72
84
 73
52
 74
52
 0
VERTEX
 8
MESH_127_F0
 10
0
 20
0
 30
0
 70
128
 71
84
 72
53
 73
52
 74
52
 0
VERTEX
 8
MESH_127_F0
 10
0
 20
0
 30
0
 70
128
 71
54
 72
53
 73
84
 74
84
 0
VERTEX
 8
MESH_127_F0
 10
0
 20
0
 30
0
 70
128
 71
54
 72
84
 73
55
 74
55
 0
VERTEX
 8
MESH_127_F0
 10
0
 20
0
 30
0
 70
128
 71
84
 72
56
 73
55
 74
55
 0
VERTEX
 8
MESH_127_F0
 10
0
 20
0
 30
0
 70
128
 71
57
 72
56
 73
84
 74
84
 0
VERTEX
 8
MESH_127_F0
 10
0
 20
0
 30
0
 70
128
 71
57
 72
84
 73
58
 74
58
 0
VERTEX
 8
MESH_127_F0
 10
0
 20
0
 30
0
 70
128
 71
84
 72
59
 73
58
 74
58
 0
VERTEX
 8
MESH_127_F0
 10
0
 20
0
 30
0
 70
128
 71
60
 72
59
 73
84
 74
84
 0
VERTEX
 8
MESH_127_F0
 10
0
 20
0
 30
0
 70
128
 71
60
 72
84
 73
61
 74
61
 0
VERTEX
 8
MESH_127_F0
 10
0
 20
0
 30
0
 70
128
 71
84
 72
62
 73
61
 74
61
 0
VERTEX
 8
MESH_127_F0
 10
0
 20
0
 30
0
 70
128
 71
63
 72
62
 73
84
 74
84
 0
VERTEX
 8
MESH_127_F0
 10
0
 20
0
 30
0
 70
128
 71
63
 72
84
 73
64
 74
64
 0
VERTEX
 8
MESH_127_F0
 10
0
 20
0
 30
0
 70
128
 71
84
 72
65
 73
64
 74
64
 0
VERTEX
 8
MESH_127_F0
 10
0
 20
0
 30
0
 70
128
 71
66
 72
65
 73
84
 74
84
 0
VERTEX
 8
MESH_127_F0
 10
0
 20
0
 30
0
 70
128
 71
85
 72
87
 73
86
 74
86
 0
VERTEX
 8
MESH_127_F0
 10
0
 20
0
 30
0
 70
128
 71
88
 72
87
 73
85
 74
85
 0
VERTEX
 8
MESH_127_F0
 10
0
 20
0
 30
0
 70
128
 71
88
 72
85
 73
89
 74
89
 0
VERTEX
 8
MESH_127_F0
 10
0
 20
0
 30
0
 70
128
 71
85
 72
90
 73
89
 74
89
 0
VERTEX
 8
MESH_127_F0
 10
0
 20
0
 30
0
 70
128
 71
91
 72
90
 73
85
 74
85
 0
VERTEX
 8
MESH_127_F0
 10
0
 20
0
 30
0
 70
128
 71
91
 72
85
 73
92
 74
92
 0
VERTEX
 8
MESH_127_F0
 10
0
 20
0
 30
0
 70
128
 71
85
 72
93
 73
92
 74
92
 0
VERTEX
 8
MESH_127_F0
 10
0
 20
0
 30
0
 70
128
 71
94
 72
93
 73
85
 74
85
 0
VERTEX
 8
MESH_127_F0
 10
0
 20
0
 30
0
 70
128
 71
94
 72
85
 73
95
 74
95
 0
VERTEX
 8
MESH_127_F0
 10
0
 20
0
 30
0
 70
128
 71
85
 72
96
 73
95
 74
95
 0
VERTEX
 8
MESH_127_F0
 10
0
 20
0
 30
0
 70
128
 71
97
 72
96
 73
85
 74
85
 0
VERTEX
 8
MESH_127_F0
 10
0
 20
0
 30
0
 70
128
 71
97
 72
85
 73
98
 74
98
 0
VERTEX
 8
MESH_127_F0
 10
0
 20
0
 30
0
 70
128
 71
85
 72
99
 73
98
 74
98
 0
SEQEND
 0
ENDSEC
 0
EOF
