 0
SECTION
 2
HEADER
 9
$ACADVER
 1
AC1009
 0
ENDSEC
 0
SECTION
 2
TABLES
 0
TABLE
 2
LTYPE
 70
1
 0
LTYPE
 2
CONTINUOUS
 70
64
 3
solid line
 72
65
 73
0
 40
0.0
 0
ENDTAB
 0
TABLE
 2
LAYER
 70
6
 0
LAYER
 2
0
 70
0
 62
7
 6
CONTINUOUS
 0
LAYER
 2
MESH_142_F0
 70
64
 62
7
 6
CONTINUOUS
 0
LAYER
 2
MESH_141_F0
 70
64
 62
7
 6
CONTINUOUS
 0
LAYER
 2
MESH_140_F0
 70
64
 62
7
 6
CONTINUOUS
 0
LAYER
 2
MESH_139_F0
 70
64
 62
7
 6
CONTINUOUS
 0
LAYER
 2
MESH_138_F0
 70
64
 62
7
 6
CONTINUOUS
 0
LAYER
 2
MESH_137_F0
 70
64
 62
7
 6
CONTINUOUS
 0
LAYER
 2
MESH_136_F0
 70
64
 62
7
 6
CONTINUOUS
 0
LAYER
 2
MESH_135_F0
 70
64
 62
7
 6
CONTINUOUS
 0
LAYER
 2
MESH_134_F0
 70
64
 62
7
 6
CONTINUOUS
 0
LAYER
 2
MESH_133_F0
 70
64
 62
7
 6
CONTINUOUS
 0
LAYER
 2
MESH_132_F0
 70
64
 62
7
 6
CONTINUOUS
 0
LAYER
 2
MESH_131_F0
 70
64
 62
7
 6
CONTINUOUS
 0
LAYER
 2
MESH_130_F0
 70
64
 62
7
 6
CONTINUOUS
 0
LAYER
 2
MESH_129_F0
 70
64
 62
7
 6
CONTINUOUS
 0
LAYER
 2
MESH_128_F0
 70
64
 62
7
 6
CONTINUOUS
 0
LAYER
 2
MESH_127_F0
 70
64
 62
7
 6
CONTINUOUS
 0
ENDTAB
 0
ENDSEC
 0
SECTION
 2
BLOCKS
 0
ENDSEC
 0
SECTION
 2
ENTITIES
 0
POLYLINE
 8
MESH_142_F0
 66
1
 10
0.0
 20
0.0
 30
0.0
 70
64
 71
4
 72
2
 0
VERTEX
 8
MESH_142_F0
 10
500
 20
0
 30
0
 70
192
 0
VERTEX
 8
MESH_142_F0
 10
500
 20
0
 30
-25
 70
192
 0
VERTEX
 8
MESH_142_F0
 10
-500
 20
0
 30
-25
 70
192
 0
VERTEX
 8
MESH_142_F0
 10
-500
 20
0
 30
0
 70
192
 0
VERTEX
 8
MESH_142_F0
 10
0
 20
0
 30
0
 70
128
 71
1
 72
3
 73
2
 74
2
 0
VERTEX
 8
MESH_142_F0
 10
0
 20
0
 30
0
 70
128
 71
4
 72
3
 73
1
 74
1
 0
SEQEND
 0
POLYLINE
 8
MESH_141_F0
 66
1
 10
0.0
 20
0.0
 30
0.0
 70
64
 71
4
 72
2
 0
VERTEX
 8
MESH_141_F0
 10
-500
 20
0
 30
0
 70
192
 0
VERTEX
 8
MESH_141_F0
 10
-500
 20
0
 30
-25
 70
192
 0
VERTEX
 8
MESH_141_F0
 10
-500
 20
-417
 30
-25
 70
192
 0
VERTEX
 8
MESH_141_F0
 10
-500
 20
-417
 30
0
 70
192
 0
VERTEX
 8
MESH_141_F0
 10
0
 20
0
 30
0
 70
128
 71
1
 72
3
 73
2
 74
2
 0
VERTEX
 8
MESH_141_F0
 10
0
 20
0
 30
0
 70
128
 71
4
 72
3
 73
1
 74
1
 0
SEQEND
 0
POLYLINE
 8
MESH_140_F0
 66
1
 10
0.0
 20
0.0
 30
0.0
 70
64
 71
50
 72
48
 0
VERTEX
 8
MESH_140_F0
 10
-500
 20
-417
 30
0
 70
192
 0
VERTEX
 8
MESH_140_F0
 10
-500
 20
-417
 30
-25
 70
192
 0
VERTEX
 8
MESH_140_F0
 10
-499.9462
 20
-418.5291
 30
-25
 70
192
 0
VERTEX
 8
MESH_140_F0
 10
-499.7975
 20
-420.0316
 30
-25
 70
192
 0
VERTEX
 8
MESH_140_F0
 10
-499.5532
 20
-421.5106
 30
-25
 70
192
 0
VERTEX
 8
MESH_140_F0
 10
-499.212
 20
-422.9687
 30
-25
 70
192
 0
VERTEX
 8
MESH_140_F0
 10
-498.7753
 20
-424.4023
 30
-25
 70
192
 0
VERTEX
 8
MESH_140_F0
 10
-498.2445
 20
-425.8095
 30
-25
 70
192
 0
VERTEX
 8
MESH_140_F0
 10
-497.6223
 20
-427.1821
 30
-25
 70
192
 0
VERTEX
 8
MESH_140_F0
 10
-496.9119
 20
-428.5114
 30
-25
 70
192
 0
VERTEX
 8
MESH_140_F0
 10
-496.1176
 20
-429.7876
 30
-25
 70
192
 0
VERTEX
 8
MESH_140_F0
 10
-495.2422
 20
-431.0079
 30
-25
 70
192
 0
VERTEX
 8
MESH_140_F0
 10
-494.2896
 20
-432.1679
 30
-25
 70
192
 0
VERTEX
 8
MESH_140_F0
 10
-493.2636
 20
-433.2631
 30
-25
 70
192
 0
VERTEX
 8
MESH_140_F0
 10
-492.1685
 20
-434.289
 30
-25
 70
192
 0
VERTEX
 8
MESH_140_F0
 10
-491.0086
 20
-435.2417
 30
-25
 70
192
 0
VERTEX
 8
MESH_140_F0
 10
-489.7883
 20
-436.1172
 30
-25
 70
192
 0
VERTEX
 8
MESH_140_F0
 10
-488.512
 20
-436.9115
 30
-25
 70
192
 0
VERTEX
 8
MESH_140_F0
 10
-487.1826
 20
-437.6221
 30
-25
 70
192
 0
VERTEX
 8
MESH_140_F0
 10
-485.8101
 20
-438.2443
 30
-25
 70
192
 0
VERTEX
 8
MESH_140_F0
 10
-484.4027
 20
-438.7751
 30
-25
 70
192
 0
VERTEX
 8
MESH_140_F0
 10
-482.9691
 20
-439.2119
 30
-25
 70
192
 0
VERTEX
 8
MESH_140_F0
 10
-481.5109
 20
-439.5531
 30
-25
 70
192
 0
VERTEX
 8
MESH_140_F0
 10
-480.0318
 20
-439.7975
 30
-25
 70
192
 0
VERTEX
 8
MESH_140_F0
 10
-478.5292
 20
-439.9462
 30
-25
 70
192
 0
VERTEX
 8
MESH_140_F0
 10
-477
 20
-440
 30
-25
 70
192
 0
VERTEX
 8
MESH_140_F0
 10
-477
 20
-440
 30
0
 70
192
 0
VERTEX
 8
MESH_140_F0
 10
-478.5291
 20
-439.9462
 30
0
 70
192
 0
VERTEX
 8
MESH_140_F0
 10
-480.0316
 20
-439.7976
 30
0
 70
192
 0
VERTEX
 8
MESH_140_F0
 10
-481.5105
 20
-439.5532
 30
0
 70
192
 0
VERTEX
 8
MESH_140_F0
 10
-482.9686
 20
-439.212
 30
0
 70
192
 0
VERTEX
 8
MESH_140_F0
 10
-484.4022
 20
-438.7753
 30
0
 70
192
 0
VERTEX
 8
MESH_140_F0
 10
-485.8095
 20
-438.2445
 30
0
 70
192
 0
VERTEX
 8
MESH_140_F0
 10
-487.182
 20
-437.6224
 30
0
 70
192
 0
VERTEX
 8
MESH_140_F0
 10
-488.5114
 20
-436.9119
 30
0
 70
192
 0
VERTEX
 8
MESH_140_F0
 10
-489.7876
 20
-436.1176
 30
0
 70
192
 0
VERTEX
 8
MESH_140_F0
 10
-491.008
 20
-435.2422
 30
0
 70
192
 0
VERTEX
 8
MESH_140_F0
 10
-492.1679
 20
-434.2896
 30
0
 70
192
 0
VERTEX
 8
MESH_140_F0
 10
-493.2631
 20
-433.2637
 30
0
 70
192
 0
VERTEX
 8
MESH_140_F0
 10
-494.289
 20
-432.1685
 30
0
 70
192
 0
VERTEX
 8
MESH_140_F0
 10
-495.2417
 20
-431.0086
 30
0
 70
192
 0
VERTEX
 8
MESH_140_F0
 10
-496.1172
 20
-429.7882
 30
0
 70
192
 0
VERTEX
 8
MESH_140_F0
 10
-496.9115
 20
-428.512
 30
0
 70
192
 0
VERTEX
 8
MESH_140_F0
 10
-497.622
 20
-427.1826
 30
0
 70
192
 0
VERTEX
 8
MESH_140_F0
 10
-498.2442
 20
-425.8101
 30
0
 70
192
 0
VERTEX
 8
MESH_140_F0
 10
-498.7752
 20
-424.4027
 30
0
 70
192
 0
VERTEX
 8
MESH_140_F0
 10
-499.2119
 20
-422.9691
 30
0
 70
192
 0
VERTEX
 8
MESH_140_F0
 10
-499.5531
 20
-421.5109
 30
0
 70
192
 0
VERTEX
 8
MESH_140_F0
 10
-499.7975
 20
-420.0319
 30
0
 70
192
 0
VERTEX
 8
MESH_140_F0
 10
-499.9462
 20
-418.5291
 30
0
 70
192
 0
VERTEX
 8
MESH_140_F0
 10
0
 20
0
 30
0
 70
128
 71
1
 72
3
 73
2
 74
2
 0
VERTEX
 8
MESH_140_F0
 10
0
 20
0
 30
0
 70
128
 71
50
 72
3
 73
1
 74
1
 0
VERTEX
 8
MESH_140_F0
 10
0
 20
0
 30
0
 70
128
 71
4
 72
3
 73
50
 74
50
 0
VERTEX
 8
MESH_140_F0
 10
0
 20
0
 30
0
 70
128
 71
5
 72
4
 73
49
 74
49
 0
VERTEX
 8
MESH_140_F0
 10
0
 20
0
 30
0
 70
128
 71
6
 72
5
 73
48
 74
48
 0
VERTEX
 8
MESH_140_F0
 10
0
 20
0
 30
0
 70
128
 71
7
 72
6
 73
47
 74
47
 0
VERTEX
 8
MESH_140_F0
 10
0
 20
0
 30
0
 70
128
 71
8
 72
7
 73
46
 74
46
 0
VERTEX
 8
MESH_140_F0
 10
0
 20
0
 30
0
 70
128
 71
9
 72
8
 73
45
 74
45
 0
VERTEX
 8
MESH_140_F0
 10
0
 20
0
 30
0
 70
128
 71
10
 72
9
 73
44
 74
44
 0
VERTEX
 8
MESH_140_F0
 10
0
 20
0
 30
0
 70
128
 71
11
 72
10
 73
43
 74
43
 0
VERTEX
 8
MESH_140_F0
 10
0
 20
0
 30
0
 70
128
 71
12
 72
11
 73
42
 74
42
 0
VERTEX
 8
MESH_140_F0
 10
0
 20
0
 30
0
 70
128
 71
13
 72
12
 73
41
 74
41
 0
VERTEX
 8
MESH_140_F0
 10
0
 20
0
 30
0
 70
128
 71
14
 72
13
 73
40
 74
40
 0
VERTEX
 8
MESH_140_F0
 10
0
 20
0
 30
0
 70
128
 71
15
 72
14
 73
39
 74
39
 0
VERTEX
 8
MESH_140_F0
 10
0
 20
0
 30
0
 70
128
 71
16
 72
15
 73
38
 74
38
 0
VERTEX
 8
MESH_140_F0
 10
0
 20
0
 30
0
 70
128
 71
17
 72
16
 73
37
 74
37
 0
VERTEX
 8
MESH_140_F0
 10
0
 20
0
 30
0
 70
128
 71
18
 72
17
 73
36
 74
36
 0
VERTEX
 8
MESH_140_F0
 10
0
 20
0
 30
0
 70
128
 71
19
 72
18
 73
35
 74
35
 0
VERTEX
 8
MESH_140_F0
 10
0
 20
0
 30
0
 70
128
 71
20
 72
19
 73
34
 74
34
 0
VERTEX
 8
MESH_140_F0
 10
0
 20
0
 30
0
 70
128
 71
21
 72
20
 73
33
 74
33
 0
VERTEX
 8
MESH_140_F0
 10
0
 20
0
 30
0
 70
128
 71
22
 72
21
 73
32
 74
32
 0
VERTEX
 8
MESH_140_F0
 10
0
 20
0
 30
0
 70
128
 71
23
 72
22
 73
31
 74
31
 0
VERTEX
 8
MESH_140_F0
 10
0
 20
0
 30
0
 70
128
 71
24
 72
23
 73
30
 74
30
 0
VERTEX
 8
MESH_140_F0
 10
0
 20
0
 30
0
 70
128
 71
25
 72
24
 73
29
 74
29
 0
VERTEX
 8
MESH_140_F0
 10
0
 20
0
 30
0
 70
128
 71
27
 72
25
 73
28
 74
28
 0
VERTEX
 8
MESH_140_F0
 10
0
 20
0
 30
0
 70
128
 71
25
 72
29
 73
28
 74
28
 0
VERTEX
 8
MESH_140_F0
 10
0
 20
0
 30
0
 70
128
 71
27
 72
26
 73
25
 74
25
 0
VERTEX
 8
MESH_140_F0
 10
0
 20
0
 30
0
 70
128
 71
24
 72
30
 73
29
 74
29
 0
VERTEX
 8
MESH_140_F0
 10
0
 20
0
 30
0
 70
128
 71
23
 72
31
 73
30
 74
30
 0
VERTEX
 8
MESH_140_F0
 10
0
 20
0
 30
0
 70
128
 71
22
 72
32
 73
31
 74
31
 0
VERTEX
 8
MESH_140_F0
 10
0
 20
0
 30
0
 70
128
 71
21
 72
33
 73
32
 74
32
 0
VERTEX
 8
MESH_140_F0
 10
0
 20
0
 30
0
 70
128
 71
20
 72
34
 73
33
 74
33
 0
VERTEX
 8
MESH_140_F0
 10
0
 20
0
 30
0
 70
128
 71
19
 72
35
 73
34
 74
34
 0
VERTEX
 8
MESH_140_F0
 10
0
 20
0
 30
0
 70
128
 71
18
 72
36
 73
35
 74
35
 0
VERTEX
 8
MESH_140_F0
 10
0
 20
0
 30
0
 70
128
 71
17
 72
37
 73
36
 74
36
 0
VERTEX
 8
MESH_140_F0
 10
0
 20
0
 30
0
 70
128
 71
16
 72
38
 73
37
 74
37
 0
VERTEX
 8
MESH_140_F0
 10
0
 20
0
 30
0
 70
128
 71
15
 72
39
 73
38
 74
38
 0
VERTEX
 8
MESH_140_F0
 10
0
 20
0
 30
0
 70
128
 71
14
 72
40
 73
39
 74
39
 0
VERTEX
 8
MESH_140_F0
 10
0
 20
0
 30
0
 70
128
 71
13
 72
41
 73
40
 74
40
 0
VERTEX
 8
MESH_140_F0
 10
0
 20
0
 30
0
 70
128
 71
12
 72
42
 73
41
 74
41
 0
VERTEX
 8
MESH_140_F0
 10
0
 20
0
 30
0
 70
128
 71
11
 72
43
 73
42
 74
42
 0
VERTEX
 8
MESH_140_F0
 10
0
 20
0
 30
0
 70
128
 71
10
 72
44
 73
43
 74
43
 0
VERTEX
 8
MESH_140_F0
 10
0
 20
0
 30
0
 70
128
 71
9
 72
45
 73
44
 74
44
 0
VERTEX
 8
MESH_140_F0
 10
0
 20
0
 30
0
 70
128
 71
8
 72
46
 73
45
 74
45
 0
VERTEX
 8
MESH_140_F0
 10
0
 20
0
 30
0
 70
128
 71
7
 72
47
 73
46
 74
46
 0
VERTEX
 8
MESH_140_F0
 10
0
 20
0
 30
0
 70
128
 71
6
 72
48
 73
47
 74
47
 0
VERTEX
 8
MESH_140_F0
 10
0
 20
0
 30
0
 70
128
 71
5
 72
49
 73
48
 74
48
 0
VERTEX
 8
MESH_140_F0
 10
0
 20
0
 30
0
 70
128
 71
4
 72
50
 73
49
 74
49
 0
SEQEND
 0
POLYLINE
 8
MESH_139_F0
 66
1
 10
0.0
 20
0.0
 30
0.0
 70
64
 71
4
 72
2
 0
VERTEX
 8
MESH_139_F0
 10
-477
 20
-440
 30
0
 70
192
 0
VERTEX
 8
MESH_139_F0
 10
-477
 20
-440
 30
-25
 70
192
 0
VERTEX
 8
MESH_139_F0
 10
477
 20
-440
 30
-25
 70
192
 0
VERTEX
 8
MESH_139_F0
 10
477
 20
-440
 30
0
 70
192
 0
VERTEX
 8
MESH_139_F0
 10
0
 20
0
 30
0
 70
128
 71
1
 72
3
 73
2
 74
2
 0
VERTEX
 8
MESH_139_F0
 10
0
 20
0
 30
0
 70
128
 71
4
 72
3
 73
1
 74
1
 0
SEQEND
 0
POLYLINE
 8
MESH_138_F0
 66
1
 10
0.0
 20
0.0
 30
0.0
 70
64
 71
50
 72
48
 0
VERTEX
 8
MESH_138_F0
 10
477
 20
-440
 30
0
 70
192
 0
VERTEX
 8
MESH_138_F0
 10
477
 20
-440
 30
-25
 70
192
 0
VERTEX
 8
MESH_138_F0
 10
478.5291
 20
-439.9462
 30
-25
 70
192
 0
VERTEX
 8
MESH_138_F0
 10
480.0316
 20
-439.7976
 30
-25
 70
192
 0
VERTEX
 8
MESH_138_F0
 10
481.5105
 20
-439.5532
 30
-25
 70
192
 0
VERTEX
 8
MESH_138_F0
 10
482.9686
 20
-439.212
 30
-25
 70
192
 0
VERTEX
 8
MESH_138_F0
 10
484.4022
 20
-438.7753
 30
-25
 70
192
 0
VERTEX
 8
MESH_138_F0
 10
485.8095
 20
-438.2445
 30
-25
 70
192
 0
VERTEX
 8
MESH_138_F0
 10
487.182
 20
-437.6224
 30
-25
 70
192
 0
VERTEX
 8
MESH_138_F0
 10
488.5114
 20
-436.9119
 30
-25
 70
192
 0
VERTEX
 8
MESH_138_F0
 10
489.7876
 20
-436.1176
 30
-25
 70
192
 0
VERTEX
 8
MESH_138_F0
 10
491.008
 20
-435.2422
 30
-25
 70
192
 0
VERTEX
 8
MESH_138_F0
 10
492.1679
 20
-434.2896
 30
-25
 70
192
 0
VERTEX
 8
MESH_138_F0
 10
493.2631
 20
-433.2637
 30
-25
 70
192
 0
VERTEX
 8
MESH_138_F0
 10
494.289
 20
-432.1685
 30
-25
 70
192
 0
VERTEX
 8
MESH_138_F0
 10
495.2417
 20
-431.0086
 30
-25
 70
192
 0
VERTEX
 8
MESH_138_F0
 10
496.1172
 20
-429.7882
 30
-25
 70
192
 0
VERTEX
 8
MESH_138_F0
 10
496.9115
 20
-428.512
 30
-25
 70
192
 0
VERTEX
 8
MESH_138_F0
 10
497.622
 20
-427.1826
 30
-25
 70
192
 0
VERTEX
 8
MESH_138_F0
 10
498.2442
 20
-425.8101
 30
-25
 70
192
 0
VERTEX
 8
MESH_138_F0
 10
498.7752
 20
-424.4027
 30
-25
 70
192
 0
VERTEX
 8
MESH_138_F0
 10
499.2119
 20
-422.9691
 30
-25
 70
192
 0
VERTEX
 8
MESH_138_F0
 10
499.5531
 20
-421.5109
 30
-25
 70
192
 0
VERTEX
 8
MESH_138_F0
 10
499.7975
 20
-420.0319
 30
-25
 70
192
 0
VERTEX
 8
MESH_138_F0
 10
499.9462
 20
-418.5291
 30
-25
 70
192
 0
VERTEX
 8
MESH_138_F0
 10
500
 20
-417
 30
-25
 70
192
 0
VERTEX
 8
MESH_138_F0
 10
500
 20
-417
 30
0
 70
192
 0
VERTEX
 8
MESH_138_F0
 10
499.9462
 20
-418.5291
 30
0
 70
192
 0
VERTEX
 8
MESH_138_F0
 10
499.7975
 20
-420.0316
 30
0
 70
192
 0
VERTEX
 8
MESH_138_F0
 10
499.5532
 20
-421.5106
 30
0
 70
192
 0
VERTEX
 8
MESH_138_F0
 10
499.212
 20
-422.9687
 30
0
 70
192
 0
VERTEX
 8
MESH_138_F0
 10
498.7753
 20
-424.4023
 30
0
 70
192
 0
VERTEX
 8
MESH_138_F0
 10
498.2445
 20
-425.8095
 30
0
 70
192
 0
VERTEX
 8
MESH_138_F0
 10
497.6223
 20
-427.1821
 30
0
 70
192
 0
VERTEX
 8
MESH_138_F0
 10
496.9119
 20
-428.5114
 30
0
 70
192
 0
VERTEX
 8
MESH_138_F0
 10
496.1176
 20
-429.7876
 30
0
 70
192
 0
VERTEX
 8
MESH_138_F0
 10
495.2422
 20
-431.0079
 30
0
 70
192
 0
VERTEX
 8
MESH_138_F0
 10
494.2896
 20
-432.1679
 30
0
 70
192
 0
VERTEX
 8
MESH_138_F0
 10
493.2636
 20
-433.2631
 30
0
 70
192
 0
VERTEX
 8
MESH_138_F0
 10
492.1685
 20
-434.289
 30
0
 70
192
 0
VERTEX
 8
MESH_138_F0
 10
491.0086
 20
-435.2417
 30
0
 70
192
 0
VERTEX
 8
MESH_138_F0
 10
489.7883
 20
-436.1172
 30
0
 70
192
 0
VERTEX
 8
MESH_138_F0
 10
488.512
 20
-436.9115
 30
0
 70
192
 0
VERTEX
 8
MESH_138_F0
 10
487.1826
 20
-437.6221
 30
0
 70
192
 0
VERTEX
 8
MESH_138_F0
 10
485.8101
 20
-438.2443
 30
0
 70
192
 0
VERTEX
 8
MESH_138_F0
 10
484.4027
 20
-438.7751
 30
0
 70
192
 0
VERTEX
 8
MESH_138_F0
 10
482.9691
 20
-439.2119
 30
0
 70
192
 0
VERTEX
 8
MESH_138_F0
 10
481.5109
 20
-439.5531
 30
0
 70
192
 0
VERTEX
 8
MESH_138_F0
 10
480.0318
 20
-439.7975
 30
0
 70
192
 0
VERTEX
 8
MESH_138_F0
 10
478.5292
 20
-439.9462
 30
0
 70
192
 0
VERTEX
 8
MESH_138_F0
 10
0
 20
0
 30
0
 70
128
 71
1
 72
3
 73
2
 74
2
 0
VERTEX
 8
MESH_138_F0
 10
0
 20
0
 30
0
 70
128
 71
50
 72
3
 73
1
 74
1
 0
VERTEX
 8
MESH_138_F0
 10
0
 20
0
 30
0
 70
128
 71
4
 72
3
 73
50
 74
50
 0
VERTEX
 8
MESH_138_F0
 10
0
 20
0
 30
0
 70
128
 71
5
 72
4
 73
49
 74
49
 0
VERTEX
 8
MESH_138_F0
 10
0
 20
0
 30
0
 70
128
 71
6
 72
5
 73
48
 74
48
 0
VERTEX
 8
MESH_138_F0
 10
0
 20
0
 30
0
 70
128
 71
7
 72
6
 73
47
 74
47
 0
VERTEX
 8
MESH_138_F0
 10
0
 20
0
 30
0
 70
128
 71
8
 72
7
 73
46
 74
46
 0
VERTEX
 8
MESH_138_F0
 10
0
 20
0
 30
0
 70
128
 71
9
 72
8
 73
45
 74
45
 0
VERTEX
 8
MESH_138_F0
 10
0
 20
0
 30
0
 70
128
 71
10
 72
9
 73
44
 74
44
 0
VERTEX
 8
MESH_138_F0
 10
0
 20
0
 30
0
 70
128
 71
11
 72
10
 73
43
 74
43
 0
VERTEX
 8
MESH_138_F0
 10
0
 20
0
 30
0
 70
128
 71
12
 72
11
 73
42
 74
42
 0
VERTEX
 8
MESH_138_F0
 10
0
 20
0
 30
0
 70
128
 71
13
 72
12
 73
41
 74
41
 0
VERTEX
 8
MESH_138_F0
 10
0
 20
0
 30
0
 70
128
 71
14
 72
13
 73
40
 74
40
 0
VERTEX
 8
MESH_138_F0
 10
0
 20
0
 30
0
 70
128
 71
15
 72
14
 73
39
 74
39
 0
VERTEX
 8
MESH_138_F0
 10
0
 20
0
 30
0
 70
128
 71
16
 72
15
 73
38
 74
38
 0
VERTEX
 8
MESH_138_F0
 10
0
 20
0
 30
0
 70
128
 71
17
 72
16
 73
37
 74
37
 0
VERTEX
 8
MESH_138_F0
 10
0
 20
0
 30
0
 70
128
 71
18
 72
17
 73
36
 74
36
 0
VERTEX
 8
MESH_138_F0
 10
0
 20
0
 30
0
 70
128
 71
19
 72
18
 73
35
 74
35
 0
VERTEX
 8
MESH_138_F0
 10
0
 20
0
 30
0
 70
128
 71
20
 72
19
 73
34
 74
34
 0
VERTEX
 8
MESH_138_F0
 10
0
 20
0
 30
0
 70
128
 71
21
 72
20
 73
33
 74
33
 0
VERTEX
 8
MESH_138_F0
 10
0
 20
0
 30
0
 70
128
 71
22
 72
21
 73
32
 74
32
 0
VERTEX
 8
MESH_138_F0
 10
0
 20
0
 30
0
 70
128
 71
23
 72
22
 73
31
 74
31
 0
VERTEX
 8
MESH_138_F0
 10
0
 20
0
 30
0
 70
128
 71
24
 72
23
 73
30
 74
30
 0
VERTEX
 8
MESH_138_F0
 10
0
 20
0
 30
0
 70
128
 71
25
 72
24
 73
29
 74
29
 0
VERTEX
 8
MESH_138_F0
 10
0
 20
0
 30
0
 70
128
 71
27
 72
25
 73
28
 74
28
 0
VERTEX
 8
MESH_138_F0
 10
0
 20
0
 30
0
 70
128
 71
25
 72
29
 73
28
 74
28
 0
VERTEX
 8
MESH_138_F0
 10
0
 20
0
 30
0
 70
128
 71
27
 72
26
 73
25
 74
25
 0
VERTEX
 8
MESH_138_F0
 10
0
 20
0
 30
0
 70
128
 71
24
 72
30
 73
29
 74
29
 0
VERTEX
 8
MESH_138_F0
 10
0
 20
0
 30
0
 70
128
 71
23
 72
31
 73
30
 74
30
 0
VERTEX
 8
MESH_138_F0
 10
0
 20
0
 30
0
 70
128
 71
22
 72
32
 73
31
 74
31
 0
VERTEX
 8
MESH_138_F0
 10
0
 20
0
 30
0
 70
128
 71
21
 72
33
 73
32
 74
32
 0
VERTEX
 8
MESH_138_F0
 10
0
 20
0
 30
0
 70
128
 71
20
 72
34
 73
33
 74
33
 0
VERTEX
 8
MESH_138_F0
 10
0
 20
0
 30
0
 70
128
 71
19
 72
35
 73
34
 74
34
 0
VERTEX
 8
MESH_138_F0
 10
0
 20
0
 30
0
 70
128
 71
18
 72
36
 73
35
 74
35
 0
VERTEX
 8
MESH_138_F0
 10
0
 20
0
 30
0
 70
128
 71
17
 72
37
 73
36
 74
36
 0
VERTEX
 8
MESH_138_F0
 10
0
 20
0
 30
0
 70
128
 71
16
 72
38
 73
37
 74
37
 0
VERTEX
 8
MESH_138_F0
 10
0
 20
0
 30
0
 70
128
 71
15
 72
39
 73
38
 74
38
 0
VERTEX
 8
MESH_138_F0
 10
0
 20
0
 30
0
 70
128
 71
14
 72
40
 73
39
 74
39
 0
VERTEX
 8
MESH_138_F0
 10
0
 20
0
 30
0
 70
128
 71
13
 72
41
 73
40
 74
40
 0
VERTEX
 8
MESH_138_F0
 10
0
 20
0
 30
0
 70
128
 71
12
 72
42
 73
41
 74
41
 0
VERTEX
 8
MESH_138_F0
 10
0
 20
0
 30
0
 70
128
 71
11
 72
43
 73
42
 74
42
 0
VERTEX
 8
MESH_138_F0
 10
0
 20
0
 30
0
 70
128
 71
10
 72
44
 73
43
 74
43
 0
VERTEX
 8
MESH_138_F0
 10
0
 20
0
 30
0
 70
128
 71
9
 72
45
 73
44
 74
44
 0
VERTEX
 8
MESH_138_F0
 10
0
 20
0
 30
0
 70
128
 71
8
 72
46
 73
45
 74
45
 0
VERTEX
 8
MESH_138_F0
 10
0
 20
0
 30
0
 70
128
 71
7
 72
47
 73
46
 74
46
 0
VERTEX
 8
MESH_138_F0
 10
0
 20
0
 30
0
 70
128
 71
6
 72
48
 73
47
 74
47
 0
VERTEX
 8
MESH_138_F0
 10
0
 20
0
 30
0
 70
128
 71
5
 72
49
 73
48
 74
48
 0
VERTEX
 8
MESH_138_F0
 10
0
 20
0
 30
0
 70
128
 71
4
 72
50
 73
49
 74
49
 0
SEQEND
 0
POLYLINE
 8
MESH_137_F0
 66
1
 10
0.0
 20
0.0
 30
0.0
 70
64
 71
4
 72
2
 0
VERTEX
 8
MESH_137_F0
 10
500
 20
-417
 30
0
 70
192
 0
VERTEX
 8
MESH_137_F0
 10
500
 20
-417
 30
-25
 70
192
 0
VERTEX
 8
MESH_137_F0
 10
500
 20
0
 30
-25
 70
192
 0
VERTEX
 8
MESH_137_F0
 10
500
 20
0
 30
0
 70
192
 0
VERTEX
 8
MESH_137_F0
 10
0
 20
0
 30
0
 70
128
 71
1
 72
3
 73
2
 74
2
 0
VERTEX
 8
MESH_137_F0
 10
0
 20
0
 30
0
 70
128
 71
4
 72
3
 73
1
 74
1
 0
SEQEND
 0
POLYLINE
 8
MESH_136_F0
 66
1
 10
0.0
 20
0.0
 30
0.0
 70
64
 71
120
 72
120
 0
VERTEX
 8
MESH_136_F0
 10
-65
 20
-323
 30
-25
 70
192
 0
VERTEX
 8
MESH_136_F0
 10
-64.7062
 20
-328.9159
 30
-25
 70
192
 0
VERTEX
 8
MESH_136_F0
 10
-63.8427
 20
-334.7273
 30
-25
 70
192
 0
VERTEX
 8
MESH_136_F0
 10
-62.4102
 20
-340.4334
 30
-25
 70
192
 0
VERTEX
 8
MESH_136_F0
 10
-60.4231
 20
-345.9843
 30
-25
 70
192
 0
VERTEX
 8
MESH_136_F0
 10
-57.9051
 20
-351.3033
 30
-25
 70
192
 0
VERTEX
 8
MESH_136_F0
 10
-54.8796
 20
-356.347
 30
-25
 70
192
 0
VERTEX
 8
MESH_136_F0
 10
-51.3758
 20
-361.0687
 30
-25
 70
192
 0
VERTEX
 8
MESH_136_F0
 10
-47.4267
 20
-365.426
 30
-25
 70
192
 0
VERTEX
 8
MESH_136_F0
 10
-43.0694
 20
-369.3752
 30
-25
 70
192
 0
VERTEX
 8
MESH_136_F0
 10
-38.3477
 20
-372.8791
 30
-25
 70
192
 0
VERTEX
 8
MESH_136_F0
 10
-33.304
 20
-375.9047
 30
-25
 70
192
 0
VERTEX
 8
MESH_136_F0
 10
-27.985
 20
-378.4228
 30
-25
 70
192
 0
VERTEX
 8
MESH_136_F0
 10
-22.4339
 20
-380.41
 30
-25
 70
192
 0
VERTEX
 8
MESH_136_F0
 10
-16.7277
 20
-381.8427
 30
-25
 70
192
 0
VERTEX
 8
MESH_136_F0
 10
-10.9161
 20
-382.7062
 30
-25
 70
192
 0
VERTEX
 8
MESH_136_F0
 10
-5
 20
-383
 30
-25
 70
192
 0
VERTEX
 8
MESH_136_F0
 10
5
 20
-383
 30
-25
 70
192
 0
VERTEX
 8
MESH_136_F0
 10
10.9159
 20
-382.7062
 30
-25
 70
192
 0
VERTEX
 8
MESH_136_F0
 10
16.7273
 20
-381.8427
 30
-25
 70
192
 0
VERTEX
 8
MESH_136_F0
 10
22.4334
 20
-380.4102
 30
-25
 70
192
 0
VERTEX
 8
MESH_136_F0
 10
27.9843
 20
-378.4231
 30
-25
 70
192
 0
VERTEX
 8
MESH_136_F0
 10
33.3033
 20
-375.9052
 30
-25
 70
192
 0
VERTEX
 8
MESH_136_F0
 10
38.3469
 20
-372.8795
 30
-25
 70
192
 0
VERTEX
 8
MESH_136_F0
 10
43.0687
 20
-369.3758
 30
-25
 70
192
 0
VERTEX
 8
MESH_136_F0
 10
47.426
 20
-365.4267
 30
-25
 70
192
 0
VERTEX
 8
MESH_136_F0
 10
51.3752
 20
-361.0694
 30
-25
 70
192
 0
VERTEX
 8
MESH_136_F0
 10
54.8791
 20
-356.3477
 30
-25
 70
192
 0
VERTEX
 8
MESH_136_F0
 10
57.9048
 20
-351.304
 30
-25
 70
192
 0
VERTEX
 8
MESH_136_F0
 10
60.4228
 20
-345.985
 30
-25
 70
192
 0
VERTEX
 8
MESH_136_F0
 10
62.41
 20
-340.4339
 30
-25
 70
192
 0
VERTEX
 8
MESH_136_F0
 10
63.8427
 20
-334.7277
 30
-25
 70
192
 0
VERTEX
 8
MESH_136_F0
 10
64.7062
 20
-328.9161
 30
-25
 70
192
 0
VERTEX
 8
MESH_136_F0
 10
65
 20
-323
 30
-25
 70
192
 0
VERTEX
 8
MESH_136_F0
 10
65
 20
-78
 30
-25
 70
192
 0
VERTEX
 8
MESH_136_F0
 10
64.7062
 20
-72.0841
 30
-25
 70
192
 0
VERTEX
 8
MESH_136_F0
 10
63.8427
 20
-66.2727
 30
-25
 70
192
 0
VERTEX
 8
MESH_136_F0
 10
62.4102
 20
-60.5666
 30
-25
 70
192
 0
VERTEX
 8
MESH_136_F0
 10
60.4231
 20
-55.0157
 30
-25
 70
192
 0
VERTEX
 8
MESH_136_F0
 10
57.9051
 20
-49.6967
 30
-25
 70
192
 0
VERTEX
 8
MESH_136_F0
 10
54.8796
 20
-44.653
 30
-25
 70
192
 0
VERTEX
 8
MESH_136_F0
 10
51.3758
 20
-39.9313
 30
-25
 70
192
 0
VERTEX
 8
MESH_136_F0
 10
47.4267
 20
-35.574
 30
-25
 70
192
 0
VERTEX
 8
MESH_136_F0
 10
43.0694
 20
-31.6248
 30
-25
 70
192
 0
VERTEX
 8
MESH_136_F0
 10
38.3477
 20
-28.121
 30
-25
 70
192
 0
VERTEX
 8
MESH_136_F0
 10
33.304
 20
-25.0952
 30
-25
 70
192
 0
VERTEX
 8
MESH_136_F0
 10
27.985
 20
-22.5772
 30
-25
 70
192
 0
VERTEX
 8
MESH_136_F0
 10
22.4339
 20
-20.59
 30
-25
 70
192
 0
VERTEX
 8
MESH_136_F0
 10
16.7277
 20
-19.1573
 30
-25
 70
192
 0
VERTEX
 8
MESH_136_F0
 10
10.9161
 20
-18.2938
 30
-25
 70
192
 0
VERTEX
 8
MESH_136_F0
 10
5
 20
-18
 30
-25
 70
192
 0
VERTEX
 8
MESH_136_F0
 10
-5
 20
-18
 30
-25
 70
192
 0
VERTEX
 8
MESH_136_F0
 10
-10.9159
 20
-18.2938
 30
-25
 70
192
 0
VERTEX
 8
MESH_136_F0
 10
-16.7273
 20
-19.1573
 30
-25
 70
192
 0
VERTEX
 8
MESH_136_F0
 10
-22.4334
 20
-20.5898
 30
-25
 70
192
 0
VERTEX
 8
MESH_136_F0
 10
-27.9843
 20
-22.5769
 30
-25
 70
192
 0
VERTEX
 8
MESH_136_F0
 10
-33.3033
 20
-25.0949
 30
-25
 70
192
 0
VERTEX
 8
MESH_136_F0
 10
-38.3469
 20
-28.1204
 30
-25
 70
192
 0
VERTEX
 8
MESH_136_F0
 10
-43.0687
 20
-31.6242
 30
-25
 70
192
 0
VERTEX
 8
MESH_136_F0
 10
-47.426
 20
-35.5733
 30
-25
 70
192
 0
VERTEX
 8
MESH_136_F0
 10
-51.3752
 20
-39.9306
 30
-25
 70
192
 0
VERTEX
 8
MESH_136_F0
 10
-54.8791
 20
-44.6523
 30
-25
 70
192
 0
VERTEX
 8
MESH_136_F0
 10
-57.9048
 20
-49.696
 30
-25
 70
192
 0
VERTEX
 8
MESH_136_F0
 10
-60.4228
 20
-55.015
 30
-25
 70
192
 0
VERTEX
 8
MESH_136_F0
 10
-62.41
 20
-60.5661
 30
-25
 70
192
 0
VERTEX
 8
MESH_136_F0
 10
-63.8427
 20
-66.2723
 30
-25
 70
192
 0
VERTEX
 8
MESH_136_F0
 10
-64.7062
 20
-72.0839
 30
-25
 70
192
 0
VERTEX
 8
MESH_136_F0
 10
-65
 20
-78
 30
-25
 70
192
 0
VERTEX
 8
MESH_136_F0
 10
500
 20
0
 30
-25
 70
192
 0
VERTEX
 8
MESH_136_F0
 10
500
 20
-417
 30
-25
 70
192
 0
VERTEX
 8
MESH_136_F0
 10
499.9462
 20
-418.5291
 30
-25
 70
192
 0
VERTEX
 8
MESH_136_F0
 10
499.7975
 20
-420.0319
 30
-25
 70
192
 0
VERTEX
 8
MESH_136_F0
 10
499.5531
 20
-421.5109
 30
-25
 70
192
 0
VERTEX
 8
MESH_136_F0
 10
499.2119
 20
-422.9691
 30
-25
 70
192
 0
VERTEX
 8
MESH_136_F0
 10
498.7752
 20
-424.4027
 30
-25
 70
192
 0
VERTEX
 8
MESH_136_F0
 10
498.2442
 20
-425.8101
 30
-25
 70
192
 0
VERTEX
 8
MESH_136_F0
 10
497.622
 20
-427.1826
 30
-25
 70
192
 0
VERTEX
 8
MESH_136_F0
 10
496.9115
 20
-428.512
 30
-25
 70
192
 0
VERTEX
 8
MESH_136_F0
 10
496.1172
 20
-429.7882
 30
-25
 70
192
 0
VERTEX
 8
MESH_136_F0
 10
495.2417
 20
-431.0086
 30
-25
 70
192
 0
VERTEX
 8
MESH_136_F0
 10
494.289
 20
-432.1685
 30
-25
 70
192
 0
VERTEX
 8
MESH_136_F0
 10
493.2631
 20
-433.2637
 30
-25
 70
192
 0
VERTEX
 8
MESH_136_F0
 10
492.1679
 20
-434.2896
 30
-25
 70
192
 0
VERTEX
 8
MESH_136_F0
 10
491.008
 20
-435.2422
 30
-25
 70
192
 0
VERTEX
 8
MESH_136_F0
 10
489.7876
 20
-436.1176
 30
-25
 70
192
 0
VERTEX
 8
MESH_136_F0
 10
488.5114
 20
-436.9119
 30
-25
 70
192
 0
VERTEX
 8
MESH_136_F0
 10
487.182
 20
-437.6224
 30
-25
 70
192
 0
VERTEX
 8
MESH_136_F0
 10
485.8095
 20
-438.2445
 30
-25
 70
192
 0
VERTEX
 8
MESH_136_F0
 10
484.4022
 20
-438.7753
 30
-25
 70
192
 0
VERTEX
 8
MESH_136_F0
 10
482.9686
 20
-439.212
 30
-25
 70
192
 0
VERTEX
 8
MESH_136_F0
 10
481.5105
 20
-439.5532
 30
-25
 70
192
 0
VERTEX
 8
MESH_136_F0
 10
480.0316
 20
-439.7976
 30
-25
 70
192
 0
VERTEX
 8
MESH_136_F0
 10
478.5291
 20
-439.9462
 30
-25
 70
192
 0
VERTEX
 8
MESH_136_F0
 10
477
 20
-440
 30
-25
 70
192
 0
VERTEX
 8
MESH_136_F0
 10
-477
 20
-440
 30
-25
 70
192
 0
VERTEX
 8
MESH_136_F0
 10
-478.5292
 20
-439.9462
 30
-25
 70
192
 0
VERTEX
 8
MESH_136_F0
 10
-480.0318
 20
-439.7975
 30
-25
 70
192
 0
VERTEX
 8
MESH_136_F0
 10
-481.5109
 20
-439.5531
 30
-25
 70
192
 0
VERTEX
 8
MESH_136_F0
 10
-482.9691
 20
-439.2119
 30
-25
 70
192
 0
VERTEX
 8
MESH_136_F0
 10
-484.4027
 20
-438.7751
 30
-25
 70
192
 0
VERTEX
 8
MESH_136_F0
 10
-485.8101
 20
-438.2443
 30
-25
 70
192
 0
VERTEX
 8
MESH_136_F0
 10
-487.1826
 20
-437.6221
 30
-25
 70
192
 0
VERTEX
 8
MESH_136_F0
 10
-488.512
 20
-436.9115
 30
-25
 70
192
 0
VERTEX
 8
MESH_136_F0
 10
-489.7883
 20
-436.1172
 30
-25
 70
192
 0
VERTEX
 8
MESH_136_F0
 10
-491.0086
 20
-435.2417
 30
-25
 70
192
 0
VERTEX
 8
MESH_136_F0
 10
-492.1685
 20
-434.289
 30
-25
 70
192
 0
VERTEX
 8
MESH_136_F0
 10
-493.2636
 20
-433.2631
 30
-25
 70
192
 0
VERTEX
 8
MESH_136_F0
 10
-494.2896
 20
-432.1679
 30
-25
 70
192
 0
VERTEX
 8
MESH_136_F0
 10
-495.2422
 20
-431.0079
 30
-25
 70
192
 0
VERTEX
 8
MESH_136_F0
 10
-496.1176
 20
-429.7876
 30
-25
 70
192
 0
VERTEX
 8
MESH_136_F0
 10
-496.9119
 20
-428.5114
 30
-25
 70
192
 0
VERTEX
 8
MESH_136_F0
 10
-497.6223
 20
-427.1821
 30
-25
 70
192
 0
VERTEX
 8
MESH_136_F0
 10
-498.2445
 20
-425.8095
 30
-25
 70
192
 0
VERTEX
 8
MESH_136_F0
 10
-498.7753
 20
-424.4023
 30
-25
 70
192
 0
VERTEX
 8
MESH_136_F0
 10
-499.212
 20
-422.9687
 30
-25
 70
192
 0
VERTEX
 8
MESH_136_F0
 10
-499.5532
 20
-421.5106
 30
-25
 70
192
 0
VERTEX
 8
MESH_136_F0
 10
-499.7975
 20
-420.0316
 30
-25
 70
192
 0
VERTEX
 8
MESH_136_F0
 10
-499.9462
 20
-418.5291
 30
-25
 70
192
 0
VERTEX
 8
MESH_136_F0
 10
-500
 20
-417
 30
-25
 70
192
 0
VERTEX
 8
MESH_136_F0
 10
-500
 20
0
 30
-25
 70
192
 0
VERTEX
 8
MESH_136_F0
 10
0
 20
0
 30
0
 70
128
 71
1
 72
95
 73
2
 74
2
 0
VERTEX
 8
MESH_136_F0
 10
0
 20
0
 30
0
 70
128
 71
95
 72
3
 73
2
 74
2
 0
VERTEX
 8
MESH_136_F0
 10
0
 20
0
 30
0
 70
128
 71
4
 72
3
 73
95
 74
95
 0
VERTEX
 8
MESH_136_F0
 10
0
 20
0
 30
0
 70
128
 71
4
 72
95
 73
5
 74
5
 0
VERTEX
 8
MESH_136_F0
 10
0
 20
0
 30
0
 70
128
 71
95
 72
6
 73
5
 74
5
 0
VERTEX
 8
MESH_136_F0
 10
0
 20
0
 30
0
 70
128
 71
7
 72
6
 73
95
 74
95
 0
VERTEX
 8
MESH_136_F0
 10
0
 20
0
 30
0
 70
128
 71
7
 72
95
 73
8
 74
8
 0
VERTEX
 8
MESH_136_F0
 10
0
 20
0
 30
0
 70
128
 71
95
 72
9
 73
8
 74
8
 0
VERTEX
 8
MESH_136_F0
 10
0
 20
0
 30
0
 70
128
 71
10
 72
9
 73
95
 74
95
 0
VERTEX
 8
MESH_136_F0
 10
0
 20
0
 30
0
 70
128
 71
10
 72
95
 73
11
 74
11
 0
VERTEX
 8
MESH_136_F0
 10
0
 20
0
 30
0
 70
128
 71
95
 72
12
 73
11
 74
11
 0
VERTEX
 8
MESH_136_F0
 10
0
 20
0
 30
0
 70
128
 71
13
 72
12
 73
95
 74
95
 0
VERTEX
 8
MESH_136_F0
 10
0
 20
0
 30
0
 70
128
 71
13
 72
95
 73
14
 74
14
 0
VERTEX
 8
MESH_136_F0
 10
0
 20
0
 30
0
 70
128
 71
95
 72
15
 73
14
 74
14
 0
VERTEX
 8
MESH_136_F0
 10
0
 20
0
 30
0
 70
128
 71
16
 72
15
 73
95
 74
95
 0
VERTEX
 8
MESH_136_F0
 10
0
 20
0
 30
0
 70
128
 71
17
 72
16
 73
94
 74
94
 0
VERTEX
 8
MESH_136_F0
 10
0
 20
0
 30
0
 70
128
 71
17
 72
94
 73
18
 74
18
 0
VERTEX
 8
MESH_136_F0
 10
0
 20
0
 30
0
 70
128
 71
94
 72
19
 73
18
 74
18
 0
VERTEX
 8
MESH_136_F0
 10
0
 20
0
 30
0
 70
128
 71
20
 72
19
 73
94
 74
94
 0
VERTEX
 8
MESH_136_F0
 10
0
 20
0
 30
0
 70
128
 71
20
 72
94
 73
21
 74
21
 0
VERTEX
 8
MESH_136_F0
 10
0
 20
0
 30
0
 70
128
 71
94
 72
22
 73
21
 74
21
 0
VERTEX
 8
MESH_136_F0
 10
0
 20
0
 30
0
 70
128
 71
23
 72
22
 73
94
 74
94
 0
VERTEX
 8
MESH_136_F0
 10
0
 20
0
 30
0
 70
128
 71
23
 72
94
 73
24
 74
24
 0
VERTEX
 8
MESH_136_F0
 10
0
 20
0
 30
0
 70
128
 71
94
 72
25
 73
24
 74
24
 0
VERTEX
 8
MESH_136_F0
 10
0
 20
0
 30
0
 70
128
 71
26
 72
25
 73
94
 74
94
 0
VERTEX
 8
MESH_136_F0
 10
0
 20
0
 30
0
 70
128
 71
26
 72
94
 73
27
 74
27
 0
VERTEX
 8
MESH_136_F0
 10
0
 20
0
 30
0
 70
128
 71
94
 72
28
 73
27
 74
27
 0
VERTEX
 8
MESH_136_F0
 10
0
 20
0
 30
0
 70
128
 71
29
 72
28
 73
94
 74
94
 0
VERTEX
 8
MESH_136_F0
 10
0
 20
0
 30
0
 70
128
 71
29
 72
94
 73
30
 74
30
 0
VERTEX
 8
MESH_136_F0
 10
0
 20
0
 30
0
 70
128
 71
94
 72
31
 73
30
 74
30
 0
VERTEX
 8
MESH_136_F0
 10
0
 20
0
 30
0
 70
128
 71
32
 72
31
 73
94
 74
94
 0
VERTEX
 8
MESH_136_F0
 10
0
 20
0
 30
0
 70
128
 71
32
 72
94
 73
33
 74
33
 0
VERTEX
 8
MESH_136_F0
 10
0
 20
0
 30
0
 70
128
 71
94
 72
34
 73
33
 74
33
 0
VERTEX
 8
MESH_136_F0
 10
0
 20
0
 30
0
 70
128
 71
35
 72
34
 73
94
 74
94
 0
VERTEX
 8
MESH_136_F0
 10
0
 20
0
 30
0
 70
128
 71
69
 72
35
 73
86
 74
86
 0
VERTEX
 8
MESH_136_F0
 10
0
 20
0
 30
0
 70
128
 71
84
 72
69
 73
85
 74
85
 0
VERTEX
 8
MESH_136_F0
 10
0
 20
0
 30
0
 70
128
 71
69
 72
86
 73
85
 74
85
 0
VERTEX
 8
MESH_136_F0
 10
0
 20
0
 30
0
 70
128
 71
69
 72
36
 73
35
 74
35
 0
VERTEX
 8
MESH_136_F0
 10
0
 20
0
 30
0
 70
128
 71
37
 72
36
 73
69
 74
69
 0
VERTEX
 8
MESH_136_F0
 10
0
 20
0
 30
0
 70
128
 71
37
 72
69
 73
38
 74
38
 0
VERTEX
 8
MESH_136_F0
 10
0
 20
0
 30
0
 70
128
 71
69
 72
39
 73
38
 74
38
 0
VERTEX
 8
MESH_136_F0
 10
0
 20
0
 30
0
 70
128
 71
40
 72
39
 73
69
 74
69
 0
VERTEX
 8
MESH_136_F0
 10
0
 20
0
 30
0
 70
128
 71
40
 72
69
 73
41
 74
41
 0
VERTEX
 8
MESH_136_F0
 10
0
 20
0
 30
0
 70
128
 71
69
 72
42
 73
41
 74
41
 0
VERTEX
 8
MESH_136_F0
 10
0
 20
0
 30
0
 70
128
 71
43
 72
42
 73
69
 74
69
 0
VERTEX
 8
MESH_136_F0
 10
0
 20
0
 30
0
 70
128
 71
43
 72
69
 73
44
 74
44
 0
VERTEX
 8
MESH_136_F0
 10
0
 20
0
 30
0
 70
128
 71
69
 72
45
 73
44
 74
44
 0
VERTEX
 8
MESH_136_F0
 10
0
 20
0
 30
0
 70
128
 71
46
 72
45
 73
69
 74
69
 0
VERTEX
 8
MESH_136_F0
 10
0
 20
0
 30
0
 70
128
 71
46
 72
69
 73
47
 74
47
 0
VERTEX
 8
MESH_136_F0
 10
0
 20
0
 30
0
 70
128
 71
69
 72
48
 73
47
 74
47
 0
VERTEX
 8
MESH_136_F0
 10
0
 20
0
 30
0
 70
128
 71
49
 72
48
 73
69
 74
69
 0
VERTEX
 8
MESH_136_F0
 10
0
 20
0
 30
0
 70
128
 71
49
 72
69
 73
50
 74
50
 0
VERTEX
 8
MESH_136_F0
 10
0
 20
0
 30
0
 70
128
 71
69
 72
51
 73
50
 74
50
 0
VERTEX
 8
MESH_136_F0
 10
0
 20
0
 30
0
 70
128
 71
52
 72
51
 73
69
 74
69
 0
VERTEX
 8
MESH_136_F0
 10
0
 20
0
 30
0
 70
128
 71
53
 72
52
 73
120
 74
120
 0
VERTEX
 8
MESH_136_F0
 10
0
 20
0
 30
0
 70
128
 71
53
 72
120
 73
54
 74
54
 0
VERTEX
 8
MESH_136_F0
 10
0
 20
0
 30
0
 70
128
 71
120
 72
55
 73
54
 74
54
 0
VERTEX
 8
MESH_136_F0
 10
0
 20
0
 30
0
 70
128
 71
56
 72
55
 73
120
 74
120
 0
VERTEX
 8
MESH_136_F0
 10
0
 20
0
 30
0
 70
128
 71
56
 72
120
 73
57
 74
57
 0
VERTEX
 8
MESH_136_F0
 10
0
 20
0
 30
0
 70
128
 71
120
 72
58
 73
57
 74
57
 0
VERTEX
 8
MESH_136_F0
 10
0
 20
0
 30
0
 70
128
 71
59
 72
58
 73
120
 74
120
 0
VERTEX
 8
MESH_136_F0
 10
0
 20
0
 30
0
 70
128
 71
59
 72
120
 73
60
 74
60
 0
VERTEX
 8
MESH_136_F0
 10
0
 20
0
 30
0
 70
128
 71
120
 72
61
 73
60
 74
60
 0
VERTEX
 8
MESH_136_F0
 10
0
 20
0
 30
0
 70
128
 71
62
 72
61
 73
120
 74
120
 0
VERTEX
 8
MESH_136_F0
 10
0
 20
0
 30
0
 70
128
 71
62
 72
120
 73
63
 74
63
 0
VERTEX
 8
MESH_136_F0
 10
0
 20
0
 30
0
 70
128
 71
120
 72
64
 73
63
 74
63
 0
VERTEX
 8
MESH_136_F0
 10
0
 20
0
 30
0
 70
128
 71
65
 72
64
 73
120
 74
120
 0
VERTEX
 8
MESH_136_F0
 10
0
 20
0
 30
0
 70
128
 71
65
 72
120
 73
66
 74
66
 0
VERTEX
 8
MESH_136_F0
 10
0
 20
0
 30
0
 70
128
 71
120
 72
67
 73
66
 74
66
 0
VERTEX
 8
MESH_136_F0
 10
0
 20
0
 30
0
 70
128
 71
68
 72
67
 73
120
 74
120
 0
VERTEX
 8
MESH_136_F0
 10
0
 20
0
 30
0
 70
128
 71
68
 72
120
 73
1
 74
1
 0
VERTEX
 8
MESH_136_F0
 10
0
 20
0
 30
0
 70
128
 71
120
 72
119
 73
1
 74
1
 0
VERTEX
 8
MESH_136_F0
 10
0
 20
0
 30
0
 70
128
 71
119
 72
95
 73
1
 74
1
 0
VERTEX
 8
MESH_136_F0
 10
0
 20
0
 30
0
 70
128
 71
118
 72
95
 73
119
 74
119
 0
VERTEX
 8
MESH_136_F0
 10
0
 20
0
 30
0
 70
128
 71
117
 72
95
 73
118
 74
118
 0
VERTEX
 8
MESH_136_F0
 10
0
 20
0
 30
0
 70
128
 71
116
 72
95
 73
117
 74
117
 0
VERTEX
 8
MESH_136_F0
 10
0
 20
0
 30
0
 70
128
 71
115
 72
95
 73
116
 74
116
 0
VERTEX
 8
MESH_136_F0
 10
0
 20
0
 30
0
 70
128
 71
114
 72
95
 73
115
 74
115
 0
VERTEX
 8
MESH_136_F0
 10
0
 20
0
 30
0
 70
128
 71
113
 72
95
 73
114
 74
114
 0
VERTEX
 8
MESH_136_F0
 10
0
 20
0
 30
0
 70
128
 71
112
 72
95
 73
113
 74
113
 0
VERTEX
 8
MESH_136_F0
 10
0
 20
0
 30
0
 70
128
 71
111
 72
95
 73
112
 74
112
 0
VERTEX
 8
MESH_136_F0
 10
0
 20
0
 30
0
 70
128
 71
110
 72
95
 73
111
 74
111
 0
VERTEX
 8
MESH_136_F0
 10
0
 20
0
 30
0
 70
128
 71
109
 72
95
 73
110
 74
110
 0
VERTEX
 8
MESH_136_F0
 10
0
 20
0
 30
0
 70
128
 71
108
 72
95
 73
109
 74
109
 0
VERTEX
 8
MESH_136_F0
 10
0
 20
0
 30
0
 70
128
 71
107
 72
95
 73
108
 74
108
 0
VERTEX
 8
MESH_136_F0
 10
0
 20
0
 30
0
 70
128
 71
106
 72
95
 73
107
 74
107
 0
VERTEX
 8
MESH_136_F0
 10
0
 20
0
 30
0
 70
128
 71
105
 72
95
 73
106
 74
106
 0
VERTEX
 8
MESH_136_F0
 10
0
 20
0
 30
0
 70
128
 71
104
 72
95
 73
105
 74
105
 0
VERTEX
 8
MESH_136_F0
 10
0
 20
0
 30
0
 70
128
 71
103
 72
95
 73
104
 74
104
 0
VERTEX
 8
MESH_136_F0
 10
0
 20
0
 30
0
 70
128
 71
102
 72
95
 73
103
 74
103
 0
VERTEX
 8
MESH_136_F0
 10
0
 20
0
 30
0
 70
128
 71
101
 72
95
 73
102
 74
102
 0
VERTEX
 8
MESH_136_F0
 10
0
 20
0
 30
0
 70
128
 71
100
 72
95
 73
101
 74
101
 0
VERTEX
 8
MESH_136_F0
 10
0
 20
0
 30
0
 70
128
 71
99
 72
95
 73
100
 74
100
 0
VERTEX
 8
MESH_136_F0
 10
0
 20
0
 30
0
 70
128
 71
96
 72
95
 73
99
 74
99
 0
VERTEX
 8
MESH_136_F0
 10
0
 20
0
 30
0
 70
128
 71
97
 72
96
 73
98
 74
98
 0
VERTEX
 8
MESH_136_F0
 10
0
 20
0
 30
0
 70
128
 71
96
 72
99
 73
98
 74
98
 0
VERTEX
 8
MESH_136_F0
 10
0
 20
0
 30
0
 70
128
 71
69
 72
71
 73
70
 74
70
 0
VERTEX
 8
MESH_136_F0
 10
0
 20
0
 30
0
 70
128
 71
72
 72
71
 73
69
 74
69
 0
VERTEX
 8
MESH_136_F0
 10
0
 20
0
 30
0
 70
128
 71
72
 72
69
 73
73
 74
73
 0
VERTEX
 8
MESH_136_F0
 10
0
 20
0
 30
0
 70
128
 71
69
 72
74
 73
73
 74
73
 0
VERTEX
 8
MESH_136_F0
 10
0
 20
0
 30
0
 70
128
 71
75
 72
74
 73
69
 74
69
 0
VERTEX
 8
MESH_136_F0
 10
0
 20
0
 30
0
 70
128
 71
75
 72
69
 73
76
 74
76
 0
VERTEX
 8
MESH_136_F0
 10
0
 20
0
 30
0
 70
128
 71
69
 72
77
 73
76
 74
76
 0
VERTEX
 8
MESH_136_F0
 10
0
 20
0
 30
0
 70
128
 71
78
 72
77
 73
69
 74
69
 0
VERTEX
 8
MESH_136_F0
 10
0
 20
0
 30
0
 70
128
 71
78
 72
69
 73
79
 74
79
 0
VERTEX
 8
MESH_136_F0
 10
0
 20
0
 30
0
 70
128
 71
69
 72
80
 73
79
 74
79
 0
VERTEX
 8
MESH_136_F0
 10
0
 20
0
 30
0
 70
128
 71
81
 72
80
 73
69
 74
69
 0
VERTEX
 8
MESH_136_F0
 10
0
 20
0
 30
0
 70
128
 71
81
 72
69
 73
82
 74
82
 0
VERTEX
 8
MESH_136_F0
 10
0
 20
0
 30
0
 70
128
 71
69
 72
83
 73
82
 74
82
 0
VERTEX
 8
MESH_136_F0
 10
0
 20
0
 30
0
 70
128
 71
84
 72
83
 73
69
 74
69
 0
VERTEX
 8
MESH_136_F0
 10
0
 20
0
 30
0
 70
128
 71
94
 72
86
 73
35
 74
35
 0
VERTEX
 8
MESH_136_F0
 10
0
 20
0
 30
0
 70
128
 71
87
 72
86
 73
94
 74
94
 0
VERTEX
 8
MESH_136_F0
 10
0
 20
0
 30
0
 70
128
 71
87
 72
94
 73
88
 74
88
 0
VERTEX
 8
MESH_136_F0
 10
0
 20
0
 30
0
 70
128
 71
94
 72
89
 73
88
 74
88
 0
VERTEX
 8
MESH_136_F0
 10
0
 20
0
 30
0
 70
128
 71
90
 72
89
 73
94
 74
94
 0
VERTEX
 8
MESH_136_F0
 10
0
 20
0
 30
0
 70
128
 71
90
 72
94
 73
91
 74
91
 0
VERTEX
 8
MESH_136_F0
 10
0
 20
0
 30
0
 70
128
 71
94
 72
92
 73
91
 74
91
 0
VERTEX
 8
MESH_136_F0
 10
0
 20
0
 30
0
 70
128
 71
93
 72
92
 73
94
 74
94
 0
VERTEX
 8
MESH_136_F0
 10
0
 20
0
 30
0
 70
128
 71
16
 72
95
 73
94
 74
94
 0
VERTEX
 8
MESH_136_F0
 10
0
 20
0
 30
0
 70
128
 71
52
 72
69
 73
120
 74
120
 0
SEQEND
 0
POLYLINE
 8
MESH_135_F0
 66
1
 10
0.0
 20
0.0
 30
0.0
 70
64
 71
4
 72
2
 0
VERTEX
 8
MESH_135_F0
 10
-5
 20
-18
 30
0
 70
192
 0
VERTEX
 8
MESH_135_F0
 10
-5
 20
-18
 30
-25
 70
192
 0
VERTEX
 8
MESH_135_F0
 10
5
 20
-18
 30
-25
 70
192
 0
VERTEX
 8
MESH_135_F0
 10
5
 20
-18
 30
0
 70
192
 0
VERTEX
 8
MESH_135_F0
 10
0
 20
0
 30
0
 70
128
 71
1
 72
3
 73
2
 74
2
 0
VERTEX
 8
MESH_135_F0
 10
0
 20
0
 30
0
 70
128
 71
4
 72
3
 73
1
 74
1
 0
SEQEND
 0
POLYLINE
 8
MESH_134_F0
 66
1
 10
0.0
 20
0.0
 30
0.0
 70
64
 71
34
 72
32
 0
VERTEX
 8
MESH_134_F0
 10
5
 20
-18
 30
0
 70
192
 0
VERTEX
 8
MESH_134_F0
 10
5
 20
-18
 30
-25
 70
192
 0
VERTEX
 8
MESH_134_F0
 10
10.9161
 20
-18.2938
 30
-25
 70
192
 0
VERTEX
 8
MESH_134_F0
 10
16.7277
 20
-19.1573
 30
-25
 70
192
 0
VERTEX
 8
MESH_134_F0
 10
22.4339
 20
-20.59
 30
-25
 70
192
 0
VERTEX
 8
MESH_134_F0
 10
27.985
 20
-22.5772
 30
-25
 70
192
 0
VERTEX
 8
MESH_134_F0
 10
33.304
 20
-25.0952
 30
-25
 70
192
 0
VERTEX
 8
MESH_134_F0
 10
38.3477
 20
-28.121
 30
-25
 70
192
 0
VERTEX
 8
MESH_134_F0
 10
43.0694
 20
-31.6248
 30
-25
 70
192
 0
VERTEX
 8
MESH_134_F0
 10
47.4267
 20
-35.574
 30
-25
 70
192
 0
VERTEX
 8
MESH_134_F0
 10
51.3758
 20
-39.9313
 30
-25
 70
192
 0
VERTEX
 8
MESH_134_F0
 10
54.8796
 20
-44.653
 30
-25
 70
192
 0
VERTEX
 8
MESH_134_F0
 10
57.9051
 20
-49.6967
 30
-25
 70
192
 0
VERTEX
 8
MESH_134_F0
 10
60.4231
 20
-55.0157
 30
-25
 70
192
 0
VERTEX
 8
MESH_134_F0
 10
62.4102
 20
-60.5666
 30
-25
 70
192
 0
VERTEX
 8
MESH_134_F0
 10
63.8427
 20
-66.2727
 30
-25
 70
192
 0
VERTEX
 8
MESH_134_F0
 10
64.7062
 20
-72.0841
 30
-25
 70
192
 0
VERTEX
 8
MESH_134_F0
 10
65
 20
-78
 30
-25
 70
192
 0
VERTEX
 8
MESH_134_F0
 10
65
 20
-78
 30
0
 70
192
 0
VERTEX
 8
MESH_134_F0
 10
64.7062
 20
-72.0839
 30
0
 70
192
 0
VERTEX
 8
MESH_134_F0
 10
63.8427
 20
-66.2723
 30
0
 70
192
 0
VERTEX
 8
MESH_134_F0
 10
62.41
 20
-60.5661
 30
0
 70
192
 0
VERTEX
 8
MESH_134_F0
 10
60.4228
 20
-55.015
 30
0
 70
192
 0
VERTEX
 8
MESH_134_F0
 10
57.9048
 20
-49.696
 30
0
 70
192
 0
VERTEX
 8
MESH_134_F0
 10
54.8791
 20
-44.6523
 30
0
 70
192
 0
VERTEX
 8
MESH_134_F0
 10
51.3752
 20
-39.9306
 30
0
 70
192
 0
VERTEX
 8
MESH_134_F0
 10
47.426
 20
-35.5733
 30
0
 70
192
 0
VERTEX
 8
MESH_134_F0
 10
43.0687
 20
-31.6242
 30
0
 70
192
 0
VERTEX
 8
MESH_134_F0
 10
38.3469
 20
-28.1204
 30
0
 70
192
 0
VERTEX
 8
MESH_134_F0
 10
33.3033
 20
-25.0949
 30
0
 70
192
 0
VERTEX
 8
MESH_134_F0
 10
27.9843
 20
-22.5769
 30
0
 70
192
 0
VERTEX
 8
MESH_134_F0
 10
22.4334
 20
-20.5898
 30
0
 70
192
 0
VERTEX
 8
MESH_134_F0
 10
16.7273
 20
-19.1573
 30
0
 70
192
 0
VERTEX
 8
MESH_134_F0
 10
10.9159
 20
-18.2938
 30
0
 70
192
 0
VERTEX
 8
MESH_134_F0
 10
0
 20
0
 30
0
 70
128
 71
34
 72
2
 73
1
 74
1
 0
VERTEX
 8
MESH_134_F0
 10
0
 20
0
 30
0
 70
128
 71
3
 72
2
 73
34
 74
34
 0
VERTEX
 8
MESH_134_F0
 10
0
 20
0
 30
0
 70
128
 71
3
 72
34
 73
4
 74
4
 0
VERTEX
 8
MESH_134_F0
 10
0
 20
0
 30
0
 70
128
 71
34
 72
33
 73
4
 74
4
 0
VERTEX
 8
MESH_134_F0
 10
0
 20
0
 30
0
 70
128
 71
33
 72
5
 73
4
 74
4
 0
VERTEX
 8
MESH_134_F0
 10
0
 20
0
 30
0
 70
128
 71
32
 72
5
 73
33
 74
33
 0
VERTEX
 8
MESH_134_F0
 10
0
 20
0
 30
0
 70
128
 71
6
 72
5
 73
32
 74
32
 0
VERTEX
 8
MESH_134_F0
 10
0
 20
0
 30
0
 70
128
 71
7
 72
6
 73
31
 74
31
 0
VERTEX
 8
MESH_134_F0
 10
0
 20
0
 30
0
 70
128
 71
29
 72
7
 73
30
 74
30
 0
VERTEX
 8
MESH_134_F0
 10
0
 20
0
 30
0
 70
128
 71
7
 72
31
 73
30
 74
30
 0
VERTEX
 8
MESH_134_F0
 10
0
 20
0
 30
0
 70
128
 71
29
 72
8
 73
7
 74
7
 0
VERTEX
 8
MESH_134_F0
 10
0
 20
0
 30
0
 70
128
 71
9
 72
8
 73
29
 74
29
 0
VERTEX
 8
MESH_134_F0
 10
0
 20
0
 30
0
 70
128
 71
10
 72
9
 73
28
 74
28
 0
VERTEX
 8
MESH_134_F0
 10
0
 20
0
 30
0
 70
128
 71
11
 72
10
 73
27
 74
27
 0
VERTEX
 8
MESH_134_F0
 10
0
 20
0
 30
0
 70
128
 71
12
 72
11
 73
26
 74
26
 0
VERTEX
 8
MESH_134_F0
 10
0
 20
0
 30
0
 70
128
 71
24
 72
12
 73
25
 74
25
 0
VERTEX
 8
MESH_134_F0
 10
0
 20
0
 30
0
 70
128
 71
12
 72
26
 73
25
 74
25
 0
VERTEX
 8
MESH_134_F0
 10
0
 20
0
 30
0
 70
128
 71
24
 72
13
 73
12
 74
12
 0
VERTEX
 8
MESH_134_F0
 10
0
 20
0
 30
0
 70
128
 71
14
 72
13
 73
24
 74
24
 0
VERTEX
 8
MESH_134_F0
 10
0
 20
0
 30
0
 70
128
 71
15
 72
14
 73
23
 74
23
 0
VERTEX
 8
MESH_134_F0
 10
0
 20
0
 30
0
 70
128
 71
16
 72
15
 73
22
 74
22
 0
VERTEX
 8
MESH_134_F0
 10
0
 20
0
 30
0
 70
128
 71
17
 72
16
 73
21
 74
21
 0
VERTEX
 8
MESH_134_F0
 10
0
 20
0
 30
0
 70
128
 71
19
 72
17
 73
20
 74
20
 0
VERTEX
 8
MESH_134_F0
 10
0
 20
0
 30
0
 70
128
 71
17
 72
21
 73
20
 74
20
 0
VERTEX
 8
MESH_134_F0
 10
0
 20
0
 30
0
 70
128
 71
19
 72
18
 73
17
 74
17
 0
VERTEX
 8
MESH_134_F0
 10
0
 20
0
 30
0
 70
128
 71
16
 72
22
 73
21
 74
21
 0
VERTEX
 8
MESH_134_F0
 10
0
 20
0
 30
0
 70
128
 71
15
 72
23
 73
22
 74
22
 0
VERTEX
 8
MESH_134_F0
 10
0
 20
0
 30
0
 70
128
 71
14
 72
24
 73
23
 74
23
 0
VERTEX
 8
MESH_134_F0
 10
0
 20
0
 30
0
 70
128
 71
11
 72
27
 73
26
 74
26
 0
VERTEX
 8
MESH_134_F0
 10
0
 20
0
 30
0
 70
128
 71
10
 72
28
 73
27
 74
27
 0
VERTEX
 8
MESH_134_F0
 10
0
 20
0
 30
0
 70
128
 71
9
 72
29
 73
28
 74
28
 0
VERTEX
 8
MESH_134_F0
 10
0
 20
0
 30
0
 70
128
 71
6
 72
32
 73
31
 74
31
 0
SEQEND
 0
POLYLINE
 8
MESH_133_F0
 66
1
 10
0.0
 20
0.0
 30
0.0
 70
64
 71
4
 72
2
 0
VERTEX
 8
MESH_133_F0
 10
65
 20
-78
 30
0
 70
192
 0
VERTEX
 8
MESH_133_F0
 10
65
 20
-78
 30
-25
 70
192
 0
VERTEX
 8
MESH_133_F0
 10
65
 20
-323
 30
-25
 70
192
 0
VERTEX
 8
MESH_133_F0
 10
65
 20
-323
 30
0
 70
192
 0
VERTEX
 8
MESH_133_F0
 10
0
 20
0
 30
0
 70
128
 71
1
 72
3
 73
2
 74
2
 0
VERTEX
 8
MESH_133_F0
 10
0
 20
0
 30
0
 70
128
 71
4
 72
3
 73
1
 74
1
 0
SEQEND
 0
POLYLINE
 8
MESH_132_F0
 66
1
 10
0.0
 20
0.0
 30
0.0
 70
64
 71
34
 72
32
 0
VERTEX
 8
MESH_132_F0
 10
65
 20
-323
 30
0
 70
192
 0
VERTEX
 8
MESH_132_F0
 10
65
 20
-323
 30
-25
 70
192
 0
VERTEX
 8
MESH_132_F0
 10
64.7062
 20
-328.9161
 30
-25
 70
192
 0
VERTEX
 8
MESH_132_F0
 10
63.8427
 20
-334.7277
 30
-25
 70
192
 0
VERTEX
 8
MESH_132_F0
 10
62.41
 20
-340.4339
 30
-25
 70
192
 0
VERTEX
 8
MESH_132_F0
 10
60.4228
 20
-345.985
 30
-25
 70
192
 0
VERTEX
 8
MESH_132_F0
 10
57.9048
 20
-351.304
 30
-25
 70
192
 0
VERTEX
 8
MESH_132_F0
 10
54.8791
 20
-356.3477
 30
-25
 70
192
 0
VERTEX
 8
MESH_132_F0
 10
51.3752
 20
-361.0694
 30
-25
 70
192
 0
VERTEX
 8
MESH_132_F0
 10
47.426
 20
-365.4267
 30
-25
 70
192
 0
VERTEX
 8
MESH_132_F0
 10
43.0687
 20
-369.3758
 30
-25
 70
192
 0
VERTEX
 8
MESH_132_F0
 10
38.3469
 20
-372.8795
 30
-25
 70
192
 0
VERTEX
 8
MESH_132_F0
 10
33.3033
 20
-375.9052
 30
-25
 70
192
 0
VERTEX
 8
MESH_132_F0
 10
27.9843
 20
-378.4231
 30
-25
 70
192
 0
VERTEX
 8
MESH_132_F0
 10
22.4334
 20
-380.4102
 30
-25
 70
192
 0
VERTEX
 8
MESH_132_F0
 10
16.7273
 20
-381.8427
 30
-25
 70
192
 0
VERTEX
 8
MESH_132_F0
 10
10.9159
 20
-382.7062
 30
-25
 70
192
 0
VERTEX
 8
MESH_132_F0
 10
5
 20
-383
 30
-25
 70
192
 0
VERTEX
 8
MESH_132_F0
 10
5
 20
-383
 30
0
 70
192
 0
VERTEX
 8
MESH_132_F0
 10
10.9161
 20
-382.7062
 30
0
 70
192
 0
VERTEX
 8
MESH_132_F0
 10
16.7277
 20
-381.8427
 30
0
 70
192
 0
VERTEX
 8
MESH_132_F0
 10
22.4339
 20
-380.41
 30
0
 70
192
 0
VERTEX
 8
MESH_132_F0
 10
27.985
 20
-378.4228
 30
0
 70
192
 0
VERTEX
 8
MESH_132_F0
 10
33.304
 20
-375.9047
 30
0
 70
192
 0
VERTEX
 8
MESH_132_F0
 10
38.3477
 20
-372.8791
 30
0
 70
192
 0
VERTEX
 8
MESH_132_F0
 10
43.0694
 20
-369.3752
 30
0
 70
192
 0
VERTEX
 8
MESH_132_F0
 10
47.4267
 20
-365.426
 30
0
 70
192
 0
VERTEX
 8
MESH_132_F0
 10
51.3758
 20
-361.0687
 30
0
 70
192
 0
VERTEX
 8
MESH_132_F0
 10
54.8796
 20
-356.347
 30
0
 70
192
 0
VERTEX
 8
MESH_132_F0
 10
57.9051
 20
-351.3033
 30
0
 70
192
 0
VERTEX
 8
MESH_132_F0
 10
60.4231
 20
-345.9843
 30
0
 70
192
 0
VERTEX
 8
MESH_132_F0
 10
62.4102
 20
-340.4334
 30
0
 70
192
 0
VERTEX
 8
MESH_132_F0
 10
63.8427
 20
-334.7273
 30
0
 70
192
 0
VERTEX
 8
MESH_132_F0
 10
64.7062
 20
-328.9159
 30
0
 70
192
 0
VERTEX
 8
MESH_132_F0
 10
0
 20
0
 30
0
 70
128
 71
34
 72
2
 73
1
 74
1
 0
VERTEX
 8
MESH_132_F0
 10
0
 20
0
 30
0
 70
128
 71
3
 72
2
 73
34
 74
34
 0
VERTEX
 8
MESH_132_F0
 10
0
 20
0
 30
0
 70
128
 71
3
 72
34
 73
4
 74
4
 0
VERTEX
 8
MESH_132_F0
 10
0
 20
0
 30
0
 70
128
 71
34
 72
33
 73
4
 74
4
 0
VERTEX
 8
MESH_132_F0
 10
0
 20
0
 30
0
 70
128
 71
33
 72
5
 73
4
 74
4
 0
VERTEX
 8
MESH_132_F0
 10
0
 20
0
 30
0
 70
128
 71
32
 72
5
 73
33
 74
33
 0
VERTEX
 8
MESH_132_F0
 10
0
 20
0
 30
0
 70
128
 71
6
 72
5
 73
32
 74
32
 0
VERTEX
 8
MESH_132_F0
 10
0
 20
0
 30
0
 70
128
 71
7
 72
6
 73
31
 74
31
 0
VERTEX
 8
MESH_132_F0
 10
0
 20
0
 30
0
 70
128
 71
29
 72
7
 73
30
 74
30
 0
VERTEX
 8
MESH_132_F0
 10
0
 20
0
 30
0
 70
128
 71
7
 72
31
 73
30
 74
30
 0
VERTEX
 8
MESH_132_F0
 10
0
 20
0
 30
0
 70
128
 71
29
 72
8
 73
7
 74
7
 0
VERTEX
 8
MESH_132_F0
 10
0
 20
0
 30
0
 70
128
 71
9
 72
8
 73
29
 74
29
 0
VERTEX
 8
MESH_132_F0
 10
0
 20
0
 30
0
 70
128
 71
10
 72
9
 73
28
 74
28
 0
VERTEX
 8
MESH_132_F0
 10
0
 20
0
 30
0
 70
128
 71
11
 72
10
 73
27
 74
27
 0
VERTEX
 8
MESH_132_F0
 10
0
 20
0
 30
0
 70
128
 71
12
 72
11
 73
26
 74
26
 0
VERTEX
 8
MESH_132_F0
 10
0
 20
0
 30
0
 70
128
 71
24
 72
12
 73
25
 74
25
 0
VERTEX
 8
MESH_132_F0
 10
0
 20
0
 30
0
 70
128
 71
12
 72
26
 73
25
 74
25
 0
VERTEX
 8
MESH_132_F0
 10
0
 20
0
 30
0
 70
128
 71
24
 72
13
 73
12
 74
12
 0
VERTEX
 8
MESH_132_F0
 10
0
 20
0
 30
0
 70
128
 71
14
 72
13
 73
24
 74
24
 0
VERTEX
 8
MESH_132_F0
 10
0
 20
0
 30
0
 70
128
 71
15
 72
14
 73
23
 74
23
 0
VERTEX
 8
MESH_132_F0
 10
0
 20
0
 30
0
 70
128
 71
16
 72
15
 73
22
 74
22
 0
VERTEX
 8
MESH_132_F0
 10
0
 20
0
 30
0
 70
128
 71
17
 72
16
 73
21
 74
21
 0
VERTEX
 8
MESH_132_F0
 10
0
 20
0
 30
0
 70
128
 71
19
 72
17
 73
20
 74
20
 0
VERTEX
 8
MESH_132_F0
 10
0
 20
0
 30
0
 70
128
 71
17
 72
21
 73
20
 74
20
 0
VERTEX
 8
MESH_132_F0
 10
0
 20
0
 30
0
 70
128
 71
19
 72
18
 73
17
 74
17
 0
VERTEX
 8
MESH_132_F0
 10
0
 20
0
 30
0
 70
128
 71
16
 72
22
 73
21
 74
21
 0
VERTEX
 8
MESH_132_F0
 10
0
 20
0
 30
0
 70
128
 71
15
 72
23
 73
22
 74
22
 0
VERTEX
 8
MESH_132_F0
 10
0
 20
0
 30
0
 70
128
 71
14
 72
24
 73
23
 74
23
 0
VERTEX
 8
MESH_132_F0
 10
0
 20
0
 30
0
 70
128
 71
11
 72
27
 73
26
 74
26
 0
VERTEX
 8
MESH_132_F0
 10
0
 20
0
 30
0
 70
128
 71
10
 72
28
 73
27
 74
27
 0
VERTEX
 8
MESH_132_F0
 10
0
 20
0
 30
0
 70
128
 71
9
 72
29
 73
28
 74
28
 0
VERTEX
 8
MESH_132_F0
 10
0
 20
0
 30
0
 70
128
 71
6
 72
32
 73
31
 74
31
 0
SEQEND
 0
POLYLINE
 8
MESH_131_F0
 66
1
 10
0.0
 20
0.0
 30
0.0
 70
64
 71
4
 72
2
 0
VERTEX
 8
MESH_131_F0
 10
5
 20
-383
 30
0
 70
192
 0
VERTEX
 8
MESH_131_F0
 10
5
 20
-383
 30
-25
 70
192
 0
VERTEX
 8
MESH_131_F0
 10
-5
 20
-383
 30
-25
 70
192
 0
VERTEX
 8
MESH_131_F0
 10
-5
 20
-383
 30
0
 70
192
 0
VERTEX
 8
MESH_131_F0
 10
0
 20
0
 30
0
 70
128
 71
1
 72
3
 73
2
 74
2
 0
VERTEX
 8
MESH_131_F0
 10
0
 20
0
 30
0
 70
128
 71
4
 72
3
 73
1
 74
1
 0
SEQEND
 0
POLYLINE
 8
MESH_130_F0
 66
1
 10
0.0
 20
0.0
 30
0.0
 70
64
 71
34
 72
32
 0
VERTEX
 8
MESH_130_F0
 10
-5
 20
-383
 30
0
 70
192
 0
VERTEX
 8
MESH_130_F0
 10
-5
 20
-383
 30
-25
 70
192
 0
VERTEX
 8
MESH_130_F0
 10
-10.9161
 20
-382.7062
 30
-25
 70
192
 0
VERTEX
 8
MESH_130_F0
 10
-16.7277
 20
-381.8427
 30
-25
 70
192
 0
VERTEX
 8
MESH_130_F0
 10
-22.4339
 20
-380.41
 30
-25
 70
192
 0
VERTEX
 8
MESH_130_F0
 10
-27.985
 20
-378.4228
 30
-25
 70
192
 0
VERTEX
 8
MESH_130_F0
 10
-33.304
 20
-375.9047
 30
-25
 70
192
 0
VERTEX
 8
MESH_130_F0
 10
-38.3477
 20
-372.8791
 30
-25
 70
192
 0
VERTEX
 8
MESH_130_F0
 10
-43.0694
 20
-369.3752
 30
-25
 70
192
 0
VERTEX
 8
MESH_130_F0
 10
-47.4267
 20
-365.426
 30
-25
 70
192
 0
VERTEX
 8
MESH_130_F0
 10
-51.3758
 20
-361.0687
 30
-25
 70
192
 0
VERTEX
 8
MESH_130_F0
 10
-54.8796
 20
-356.347
 30
-25
 70
192
 0
VERTEX
 8
MESH_130_F0
 10
-57.9051
 20
-351.3033
 30
-25
 70
192
 0
VERTEX
 8
MESH_130_F0
 10
-60.4231
 20
-345.9843
 30
-25
 70
192
 0
VERTEX
 8
MESH_130_F0
 10
-62.4102
 20
-340.4334
 30
-25
 70
192
 0
VERTEX
 8
MESH_130_F0
 10
-63.8427
 20
-334.7273
 30
-25
 70
192
 0
VERTEX
 8
MESH_130_F0
 10
-64.7062
 20
-328.9159
 30
-25
 70
192
 0
VERTEX
 8
MESH_130_F0
 10
-65
 20
-323
 30
-25
 70
192
 0
VERTEX
 8
MESH_130_F0
 10
-65
 20
-323
 30
0
 70
192
 0
VERTEX
 8
MESH_130_F0
 10
-64.7062
 20
-328.9161
 30
0
 70
192
 0
VERTEX
 8
MESH_130_F0
 10
-63.8427
 20
-334.7277
 30
0
 70
192
 0
VERTEX
 8
MESH_130_F0
 10
-62.41
 20
-340.4339
 30
0
 70
192
 0
VERTEX
 8
MESH_130_F0
 10
-60.4228
 20
-345.985
 30
0
 70
192
 0
VERTEX
 8
MESH_130_F0
 10
-57.9048
 20
-351.304
 30
0
 70
192
 0
VERTEX
 8
MESH_130_F0
 10
-54.8791
 20
-356.3477
 30
0
 70
192
 0
VERTEX
 8
MESH_130_F0
 10
-51.3752
 20
-361.0694
 30
0
 70
192
 0
VERTEX
 8
MESH_130_F0
 10
-47.426
 20
-365.4267
 30
0
 70
192
 0
VERTEX
 8
MESH_130_F0
 10
-43.0687
 20
-369.3758
 30
0
 70
192
 0
VERTEX
 8
MESH_130_F0
 10
-38.3469
 20
-372.8795
 30
0
 70
192
 0
VERTEX
 8
MESH_130_F0
 10
-33.3033
 20
-375.9052
 30
0
 70
192
 0
VERTEX
 8
MESH_130_F0
 10
-27.9843
 20
-378.4231
 30
0
 70
192
 0
VERTEX
 8
MESH_130_F0
 10
-22.4334
 20
-380.4102
 30
0
 70
192
 0
VERTEX
 8
MESH_130_F0
 10
-16.7273
 20
-381.8427
 30
0
 70
192
 0
VERTEX
 8
MESH_130_F0
 10
-10.9159
 20
-382.7062
 30
0
 70
192
 0
VERTEX
 8
MESH_130_F0
 10
0
 20
0
 30
0
 70
128
 71
34
 72
2
 73
1
 74
1
 0
VERTEX
 8
MESH_130_F0
 10
0
 20
0
 30
0
 70
128
 71
3
 72
2
 73
34
 74
34
 0
VERTEX
 8
MESH_130_F0
 10
0
 20
0
 30
0
 70
128
 71
3
 72
34
 73
4
 74
4
 0
VERTEX
 8
MESH_130_F0
 10
0
 20
0
 30
0
 70
128
 71
34
 72
33
 73
4
 74
4
 0
VERTEX
 8
MESH_130_F0
 10
0
 20
0
 30
0
 70
128
 71
33
 72
5
 73
4
 74
4
 0
VERTEX
 8
MESH_130_F0
 10
0
 20
0
 30
0
 70
128
 71
32
 72
5
 73
33
 74
33
 0
VERTEX
 8
MESH_130_F0
 10
0
 20
0
 30
0
 70
128
 71
6
 72
5
 73
32
 74
32
 0
VERTEX
 8
MESH_130_F0
 10
0
 20
0
 30
0
 70
128
 71
7
 72
6
 73
31
 74
31
 0
VERTEX
 8
MESH_130_F0
 10
0
 20
0
 30
0
 70
128
 71
29
 72
7
 73
30
 74
30
 0
VERTEX
 8
MESH_130_F0
 10
0
 20
0
 30
0
 70
128
 71
7
 72
31
 73
30
 74
30
 0
VERTEX
 8
MESH_130_F0
 10
0
 20
0
 30
0
 70
128
 71
29
 72
8
 73
7
 74
7
 0
VERTEX
 8
MESH_130_F0
 10
0
 20
0
 30
0
 70
128
 71
9
 72
8
 73
29
 74
29
 0
VERTEX
 8
MESH_130_F0
 10
0
 20
0
 30
0
 70
128
 71
10
 72
9
 73
28
 74
28
 0
VERTEX
 8
MESH_130_F0
 10
0
 20
0
 30
0
 70
128
 71
11
 72
10
 73
27
 74
27
 0
VERTEX
 8
MESH_130_F0
 10
0
 20
0
 30
0
 70
128
 71
12
 72
11
 73
26
 74
26
 0
VERTEX
 8
MESH_130_F0
 10
0
 20
0
 30
0
 70
128
 71
24
 72
12
 73
25
 74
25
 0
VERTEX
 8
MESH_130_F0
 10
0
 20
0
 30
0
 70
128
 71
12
 72
26
 73
25
 74
25
 0
VERTEX
 8
MESH_130_F0
 10
0
 20
0
 30
0
 70
128
 71
24
 72
13
 73
12
 74
12
 0
VERTEX
 8
MESH_130_F0
 10
0
 20
0
 30
0
 70
128
 71
14
 72
13
 73
24
 74
24
 0
VERTEX
 8
MESH_130_F0
 10
0
 20
0
 30
0
 70
128
 71
15
 72
14
 73
23
 74
23
 0
VERTEX
 8
MESH_130_F0
 10
0
 20
0
 30
0
 70
128
 71
16
 72
15
 73
22
 74
22
 0
VERTEX
 8
MESH_130_F0
 10
0
 20
0
 30
0
 70
128
 71
17
 72
16
 73
21
 74
21
 0
VERTEX
 8
MESH_130_F0
 10
0
 20
0
 30
0
 70
128
 71
19
 72
17
 73
20
 74
20
 0
VERTEX
 8
MESH_130_F0
 10
0
 20
0
 30
0
 70
128
 71
17
 72
21
 73
20
 74
20
 0
VERTEX
 8
MESH_130_F0
 10
0
 20
0
 30
0
 70
128
 71
19
 72
18
 73
17
 74
17
 0
VERTEX
 8
MESH_130_F0
 10
0
 20
0
 30
0
 70
128
 71
16
 72
22
 73
21
 74
21
 0
VERTEX
 8
MESH_130_F0
 10
0
 20
0
 30
0
 70
128
 71
15
 72
23
 73
22
 74
22
 0
VERTEX
 8
MESH_130_F0
 10
0
 20
0
 30
0
 70
128
 71
14
 72
24
 73
23
 74
23
 0
VERTEX
 8
MESH_130_F0
 10
0
 20
0
 30
0
 70
128
 71
11
 72
27
 73
26
 74
26
 0
VERTEX
 8
MESH_130_F0
 10
0
 20
0
 30
0
 70
128
 71
10
 72
28
 73
27
 74
27
 0
VERTEX
 8
MESH_130_F0
 10
0
 20
0
 30
0
 70
128
 71
9
 72
29
 73
28
 74
28
 0
VERTEX
 8
MESH_130_F0
 10
0
 20
0
 30
0
 70
128
 71
6
 72
32
 73
31
 74
31
 0
SEQEND
 0
POLYLINE
 8
MESH_129_F0
 66
1
 10
0.0
 20
0.0
 30
0.0
 70
64
 71
4
 72
2
 0
VERTEX
 8
MESH_129_F0
 10
-65
 20
-323
 30
0
 70
192
 0
VERTEX
 8
MESH_129_F0
 10
-65
 20
-323
 30
-25
 70
192
 0
VERTEX
 8
MESH_129_F0
 10
-65
 20
-78
 30
-25
 70
192
 0
VERTEX
 8
MESH_129_F0
 10
-65
 20
-78
 30
0
 70
192
 0
VERTEX
 8
MESH_129_F0
 10
0
 20
0
 30
0
 70
128
 71
1
 72
3
 73
2
 74
2
 0
VERTEX
 8
MESH_129_F0
 10
0
 20
0
 30
0
 70
128
 71
4
 72
3
 73
1
 74
1
 0
SEQEND
 0
POLYLINE
 8
MESH_128_F0
 66
1
 10
0.0
 20
0.0
 30
0.0
 70
64
 71
34
 72
32
 0
VERTEX
 8
MESH_128_F0
 10
-65
 20
-78
 30
0
 70
192
 0
VERTEX
 8
MESH_128_F0
 10
-65
 20
-78
 30
-25
 70
192
 0
VERTEX
 8
MESH_128_F0
 10
-64.7062
 20
-72.0839
 30
-25
 70
192
 0
VERTEX
 8
MESH_128_F0
 10
-63.8427
 20
-66.2723
 30
-25
 70
192
 0
VERTEX
 8
MESH_128_F0
 10
-62.41
 20
-60.5661
 30
-25
 70
192
 0
VERTEX
 8
MESH_128_F0
 10
-60.4228
 20
-55.015
 30
-25
 70
192
 0
VERTEX
 8
MESH_128_F0
 10
-57.9048
 20
-49.696
 30
-25
 70
192
 0
VERTEX
 8
MESH_128_F0
 10
-54.8791
 20
-44.6523
 30
-25
 70
192
 0
VERTEX
 8
MESH_128_F0
 10
-51.3752
 20
-39.9306
 30
-25
 70
192
 0
VERTEX
 8
MESH_128_F0
 10
-47.426
 20
-35.5733
 30
-25
 70
192
 0
VERTEX
 8
MESH_128_F0
 10
-43.0687
 20
-31.6242
 30
-25
 70
192
 0
VERTEX
 8
MESH_128_F0
 10
-38.3469
 20
-28.1204
 30
-25
 70
192
 0
VERTEX
 8
MESH_128_F0
 10
-33.3033
 20
-25.0949
 30
-25
 70
192
 0
VERTEX
 8
MESH_128_F0
 10
-27.9843
 20
-22.5769
 30
-25
 70
192
 0
VERTEX
 8
MESH_128_F0
 10
-22.4334
 20
-20.5898
 30
-25
 70
192
 0
VERTEX
 8
MESH_128_F0
 10
-16.7273
 20
-19.1573
 30
-25
 70
192
 0
VERTEX
 8
MESH_128_F0
 10
-10.9159
 20
-18.2938
 30
-25
 70
192
 0
VERTEX
 8
MESH_128_F0
 10
-5
 20
-18
 30
-25
 70
192
 0
VERTEX
 8
MESH_128_F0
 10
-5
 20
-18
 30
0
 70
192
 0
VERTEX
 8
MESH_128_F0
 10
-10.9161
 20
-18.2938
 30
0
 70
192
 0
VERTEX
 8
MESH_128_F0
 10
-16.7277
 20
-19.1573
 30
0
 70
192
 0
VERTEX
 8
MESH_128_F0
 10
-22.4339
 20
-20.59
 30
0
 70
192
 0
VERTEX
 8
MESH_128_F0
 10
-27.985
 20
-22.5772
 30
0
 70
192
 0
VERTEX
 8
MESH_128_F0
 10
-33.304
 20
-25.0952
 30
0
 70
192
 0
VERTEX
 8
MESH_128_F0
 10
-38.3477
 20
-28.121
 30
0
 70
192
 0
VERTEX
 8
MESH_128_F0
 10
-43.0694
 20
-31.6248
 30
0
 70
192
 0
VERTEX
 8
MESH_128_F0
 10
-47.4267
 20
-35.574
 30
0
 70
192
 0
VERTEX
 8
MESH_128_F0
 10
-51.3758
 20
-39.9313
 30
0
 70
192
 0
VERTEX
 8
MESH_128_F0
 10
-54.8796
 20
-44.653
 30
0
 70
192
 0
VERTEX
 8
MESH_128_F0
 10
-57.9051
 20
-49.6967
 30
0
 70
192
 0
VERTEX
 8
MESH_128_F0
 10
-60.4231
 20
-55.0157
 30
0
 70
192
 0
VERTEX
 8
MESH_128_F0
 10
-62.4102
 20
-60.5666
 30
0
 70
192
 0
VERTEX
 8
MESH_128_F0
 10
-63.8427
 20
-66.2727
 30
0
 70
192
 0
VERTEX
 8
MESH_128_F0
 10
-64.7062
 20
-72.0841
 30
0
 70
192
 0
VERTEX
 8
MESH_128_F0
 10
0
 20
0
 30
0
 70
128
 71
34
 72
2
 73
1
 74
1
 0
VERTEX
 8
MESH_128_F0
 10
0
 20
0
 30
0
 70
128
 71
3
 72
2
 73
34
 74
34
 0
VERTEX
 8
MESH_128_F0
 10
0
 20
0
 30
0
 70
128
 71
3
 72
34
 73
4
 74
4
 0
VERTEX
 8
MESH_128_F0
 10
0
 20
0
 30
0
 70
128
 71
34
 72
33
 73
4
 74
4
 0
VERTEX
 8
MESH_128_F0
 10
0
 20
0
 30
0
 70
128
 71
33
 72
5
 73
4
 74
4
 0
VERTEX
 8
MESH_128_F0
 10
0
 20
0
 30
0
 70
128
 71
32
 72
5
 73
33
 74
33
 0
VERTEX
 8
MESH_128_F0
 10
0
 20
0
 30
0
 70
128
 71
6
 72
5
 73
32
 74
32
 0
VERTEX
 8
MESH_128_F0
 10
0
 20
0
 30
0
 70
128
 71
7
 72
6
 73
31
 74
31
 0
VERTEX
 8
MESH_128_F0
 10
0
 20
0
 30
0
 70
128
 71
29
 72
7
 73
30
 74
30
 0
VERTEX
 8
MESH_128_F0
 10
0
 20
0
 30
0
 70
128
 71
7
 72
31
 73
30
 74
30
 0
VERTEX
 8
MESH_128_F0
 10
0
 20
0
 30
0
 70
128
 71
29
 72
8
 73
7
 74
7
 0
VERTEX
 8
MESH_128_F0
 10
0
 20
0
 30
0
 70
128
 71
9
 72
8
 73
29
 74
29
 0
VERTEX
 8
MESH_128_F0
 10
0
 20
0
 30
0
 70
128
 71
10
 72
9
 73
28
 74
28
 0
VERTEX
 8
MESH_128_F0
 10
0
 20
0
 30
0
 70
128
 71
11
 72
10
 73
27
 74
27
 0
VERTEX
 8
MESH_128_F0
 10
0
 20
0
 30
0
 70
128
 71
12
 72
11
 73
26
 74
26
 0
VERTEX
 8
MESH_128_F0
 10
0
 20
0
 30
0
 70
128
 71
24
 72
12
 73
25
 74
25
 0
VERTEX
 8
MESH_128_F0
 10
0
 20
0
 30
0
 70
128
 71
12
 72
26
 73
25
 74
25
 0
VERTEX
 8
MESH_128_F0
 10
0
 20
0
 30
0
 70
128
 71
24
 72
13
 73
12
 74
12
 0
VERTEX
 8
MESH_128_F0
 10
0
 20
0
 30
0
 70
128
 71
14
 72
13
 73
24
 74
24
 0
VERTEX
 8
MESH_128_F0
 10
0
 20
0
 30
0
 70
128
 71
15
 72
14
 73
23
 74
23
 0
VERTEX
 8
MESH_128_F0
 10
0
 20
0
 30
0
 70
128
 71
16
 72
15
 73
22
 74
22
 0
VERTEX
 8
MESH_128_F0
 10
0
 20
0
 30
0
 70
128
 71
17
 72
16
 73
21
 74
21
 0
VERTEX
 8
MESH_128_F0
 10
0
 20
0
 30
0
 70
128
 71
19
 72
17
 73
20
 74
20
 0
VERTEX
 8
MESH_128_F0
 10
0
 20
0
 30
0
 70
128
 71
17
 72
21
 73
20
 74
20
 0
VERTEX
 8
MESH_128_F0
 10
0
 20
0
 30
0
 70
128
 71
19
 72
18
 73
17
 74
17
 0
VERTEX
 8
MESH_128_F0
 10
0
 20
0
 30
0
 70
128
 71
16
 72
22
 73
21
 74
21
 0
VERTEX
 8
MESH_128_F0
 10
0
 20
0
 30
0
 70
128
 71
15
 72
23
 73
22
 74
22
 0
VERTEX
 8
MESH_128_F0
 10
0
 20
0
 30
0
 70
128
 71
14
 72
24
 73
23
 74
23
 0
VERTEX
 8
MESH_128_F0
 10
0
 20
0
 30
0
 70
128
 71
11
 72
27
 73
26
 74
26
 0
VERTEX
 8
MESH_128_F0
 10
0
 20
0
 30
0
 70
128
 71
10
 72
28
 73
27
 74
27
 0
VERTEX
 8
MESH_128_F0
 10
0
 20
0
 30
0
 70
128
 71
9
 72
29
 73
28
 74
28
 0
VERTEX
 8
MESH_128_F0
 10
0
 20
0
 30
0
 70
128
 71
6
 72
32
 73
31
 74
31
 0
SEQEND
 0
POLYLINE
 8
MESH_127_F0
 66
1
 10
0.0
 20
0.0
 30
0.0
 70
64
 71
120
 72
120
 0
VERTEX
 8
MESH_127_F0
 10
-65
 20
-78
 30
0
 70
192
 0
VERTEX
 8
MESH_127_F0
 10
-64.7062
 20
-72.0841
 30
0
 70
192
 0
VERTEX
 8
MESH_127_F0
 10
-63.8427
 20
-66.2727
 30
0
 70
192
 0
VERTEX
 8
MESH_127_F0
 10
-62.4102
 20
-60.5666
 30
0
 70
192
 0
VERTEX
 8
MESH_127_F0
 10
-60.4231
 20
-55.0157
 30
0
 70
192
 0
VERTEX
 8
MESH_127_F0
 10
-57.9051
 20
-49.6967
 30
0
 70
192
 0
VERTEX
 8
MESH_127_F0
 10
-54.8796
 20
-44.653
 30
0
 70
192
 0
VERTEX
 8
MESH_127_F0
 10
-51.3758
 20
-39.9313
 30
0
 70
192
 0
VERTEX
 8
MESH_127_F0
 10
-47.4267
 20
-35.574
 30
0
 70
192
 0
VERTEX
 8
MESH_127_F0
 10
-43.0694
 20
-31.6248
 30
0
 70
192
 0
VERTEX
 8
MESH_127_F0
 10
-38.3477
 20
-28.121
 30
0
 70
192
 0
VERTEX
 8
MESH_127_F0
 10
-33.304
 20
-25.0952
 30
0
 70
192
 0
VERTEX
 8
MESH_127_F0
 10
-27.985
 20
-22.5772
 30
0
 70
192
 0
VERTEX
 8
MESH_127_F0
 10
-22.4339
 20
-20.59
 30
0
 70
192
 0
VERTEX
 8
MESH_127_F0
 10
-16.7277
 20
-19.1573
 30
0
 70
192
 0
VERTEX
 8
MESH_127_F0
 10
-10.9161
 20
-18.2938
 30
0
 70
192
 0
VERTEX
 8
MESH_127_F0
 10
-5
 20
-18
 30
0
 70
192
 0
VERTEX
 8
MESH_127_F0
 10
5
 20
-18
 30
0
 70
192
 0
VERTEX
 8
MESH_127_F0
 10
10.9159
 20
-18.2938
 30
0
 70
192
 0
VERTEX
 8
MESH_127_F0
 10
16.7273
 20
-19.1573
 30
0
 70
192
 0
VERTEX
 8
MESH_127_F0
 10
22.4334
 20
-20.5898
 30
0
 70
192
 0
VERTEX
 8
MESH_127_F0
 10
27.9843
 20
-22.5769
 30
0
 70
192
 0
VERTEX
 8
MESH_127_F0
 10
33.3033
 20
-25.0949
 30
0
 70
192
 0
VERTEX
 8
MESH_127_F0
 10
38.3469
 20
-28.1204
 30
0
 70
192
 0
VERTEX
 8
MESH_127_F0
 10
43.0687
 20
-31.6242
 30
0
 70
192
 0
VERTEX
 8
MESH_127_F0
 10
47.426
 20
-35.5733
 30
0
 70
192
 0
VERTEX
 8
MESH_127_F0
 10
51.3752
 20
-39.9306
 30
0
 70
192
 0
VERTEX
 8
MESH_127_F0
 10
54.8791
 20
-44.6523
 30
0
 70
192
 0
VERTEX
 8
MESH_127_F0
 10
57.9048
 20
-49.696
 30
0
 70
192
 0
VERTEX
 8
MESH_127_F0
 10
60.4228
 20
-55.015
 30
0
 70
192
 0
VERTEX
 8
MESH_127_F0
 10
62.41
 20
-60.5661
 30
0
 70
192
 0
VERTEX
 8
MESH_127_F0
 10
63.8427
 20
-66.2723
 30
0
 70
192
 0
VERTEX
 8
MESH_127_F0
 10
64.7062
 20
-72.0839
 30
0
 70
192
 0
VERTEX
 8
MESH_127_F0
 10
65
 20
-78
 30
0
 70
192
 0
VERTEX
 8
MESH_127_F0
 10
65
 20
-323
 30
0
 70
192
 0
VERTEX
 8
MESH_127_F0
 10
64.7062
 20
-328.9159
 30
0
 70
192
 0
VERTEX
 8
MESH_127_F0
 10
63.8427
 20
-334.7273
 30
0
 70
192
 0
VERTEX
 8
MESH_127_F0
 10
62.4102
 20
-340.4334
 30
0
 70
192
 0
VERTEX
 8
MESH_127_F0
 10
60.4231
 20
-345.9843
 30
0
 70
192
 0
VERTEX
 8
MESH_127_F0
 10
57.9051
 20
-351.3033
 30
0
 70
192
 0
VERTEX
 8
MESH_127_F0
 10
54.8796
 20
-356.347
 30
0
 70
192
 0
VERTEX
 8
MESH_127_F0
 10
51.3758
 20
-361.0687
 30
0
 70
192
 0
VERTEX
 8
MESH_127_F0
 10
47.4267
 20
-365.426
 30
0
 70
192
 0
VERTEX
 8
MESH_127_F0
 10
43.0694
 20
-369.3752
 30
0
 70
192
 0
VERTEX
 8
MESH_127_F0
 10
38.3477
 20
-372.8791
 30
0
 70
192
 0
VERTEX
 8
MESH_127_F0
 10
33.304
 20
-375.9047
 30
0
 70
192
 0
VERTEX
 8
MESH_127_F0
 10
27.985
 20
-378.4228
 30
0
 70
192
 0
VERTEX
 8
MESH_127_F0
 10
22.4339
 20
-380.41
 30
0
 70
192
 0
VERTEX
 8
MESH_127_F0
 10
16.7277
 20
-381.8427
 30
0
 70
192
 0
VERTEX
 8
MESH_127_F0
 10
10.9161
 20
-382.7062
 30
0
 70
192
 0
VERTEX
 8
MESH_127_F0
 10
5
 20
-383
 30
0
 70
192
 0
VERTEX
 8
MESH_127_F0
 10
-5
 20
-383
 30
0
 70
192
 0
VERTEX
 8
MESH_127_F0
 10
-10.9159
 20
-382.7062
 30
0
 70
192
 0
VERTEX
 8
MESH_127_F0
 10
-16.7273
 20
-381.8427
 30
0
 70
192
 0
VERTEX
 8
MESH_127_F0
 10
-22.4334
 20
-380.4102
 30
0
 70
192
 0
VERTEX
 8
MESH_127_F0
 10
-27.9843
 20
-378.4231
 30
0
 70
192
 0
VERTEX
 8
MESH_127_F0
 10
-33.3033
 20
-375.9052
 30
0
 70
192
 0
VERTEX
 8
MESH_127_F0
 10
-38.3469
 20
-372.8795
 30
0
 70
192
 0
VERTEX
 8
MESH_127_F0
 10
-43.0687
 20
-369.3758
 30
0
 70
192
 0
VERTEX
 8
MESH_127_F0
 10
-47.426
 20
-365.4267
 30
0
 70
192
 0
VERTEX
 8
MESH_127_F0
 10
-51.3752
 20
-361.0694
 30
0
 70
192
 0
VERTEX
 8
MESH_127_F0
 10
-54.8791
 20
-356.3477
 30
0
 70
192
 0
VERTEX
 8
MESH_127_F0
 10
-57.9048
 20
-351.304
 30
0
 70
192
 0
VERTEX
 8
MESH_127_F0
 10
-60.4228
 20
-345.985
 30
0
 70
192
 0
VERTEX
 8
MESH_127_F0
 10
-62.41
 20
-340.4339
 30
0
 70
192
 0
VERTEX
 8
MESH_127_F0
 10
-63.8427
 20
-334.7277
 30
0
 70
192
 0
VERTEX
 8
MESH_127_F0
 10
-64.7062
 20
-328.9161
 30
0
 70
192
 0
VERTEX
 8
MESH_127_F0
 10
-65
 20
-323
 30
0
 70
192
 0
VERTEX
 8
MESH_127_F0
 10
-500
 20
0
 30
0
 70
192
 0
VERTEX
 8
MESH_127_F0
 10
-500
 20
-417
 30
0
 70
192
 0
VERTEX
 8
MESH_127_F0
 10
-499.9462
 20
-418.5291
 30
0
 70
192
 0
VERTEX
 8
MESH_127_F0
 10
-499.7975
 20
-420.0319
 30
0
 70
192
 0
VERTEX
 8
MESH_127_F0
 10
-499.5531
 20
-421.5109
 30
0
 70
192
 0
VERTEX
 8
MESH_127_F0
 10
-499.2119
 20
-422.9691
 30
0
 70
192
 0
VERTEX
 8
MESH_127_F0
 10
-498.7752
 20
-424.4027
 30
0
 70
192
 0
VERTEX
 8
MESH_127_F0
 10
-498.2442
 20
-425.8101
 30
0
 70
192
 0
VERTEX
 8
MESH_127_F0
 10
-497.622
 20
-427.1826
 30
0
 70
192
 0
VERTEX
 8
MESH_127_F0
 10
-496.9115
 20
-428.512
 30
0
 70
192
 0
VERTEX
 8
MESH_127_F0
 10
-496.1172
 20
-429.7882
 30
0
 70
192
 0
VERTEX
 8
MESH_127_F0
 10
-495.2417
 20
-431.0086
 30
0
 70
192
 0
VERTEX
 8
MESH_127_F0
 10
-494.289
 20
-432.1685
 30
0
 70
192
 0
VERTEX
 8
MESH_127_F0
 10
-493.2631
 20
-433.2637
 30
0
 70
192
 0
VERTEX
 8
MESH_127_F0
 10
-492.1679
 20
-434.2896
 30
0
 70
192
 0
VERTEX
 8
MESH_127_F0
 10
-491.008
 20
-435.2422
 30
0
 70
192
 0
VERTEX
 8
MESH_127_F0
 10
-489.7876
 20
-436.1176
 30
0
 70
192
 0
VERTEX
 8
MESH_127_F0
 10
-488.5114
 20
-436.9119
 30
0
 70
192
 0
VERTEX
 8
MESH_127_F0
 10
-487.182
 20
-437.6224
 30
0
 70
192
 0
VERTEX
 8
MESH_127_F0
 10
-485.8095
 20
-438.2445
 30
0
 70
192
 0
VERTEX
 8
MESH_127_F0
 10
-484.4022
 20
-438.7753
 30
0
 70
192
 0
VERTEX
 8
MESH_127_F0
 10
-482.9686
 20
-439.212
 30
0
 70
192
 0
VERTEX
 8
MESH_127_F0
 10
-481.5105
 20
-439.5532
 30
0
 70
192
 0
VERTEX
 8
MESH_127_F0
 10
-480.0316
 20
-439.7976
 30
0
 70
192
 0
VERTEX
 8
MESH_127_F0
 10
-478.5291
 20
-439.9462
 30
0
 70
192
 0
VERTEX
 8
MESH_127_F0
 10
-477
 20
-440
 30
0
 70
192
 0
VERTEX
 8
MESH_127_F0
 10
477
 20
-440
 30
0
 70
192
 0
VERTEX
 8
MESH_127_F0
 10
478.5292
 20
-439.9462
 30
0
 70
192
 0
VERTEX
 8
MESH_127_F0
 10
480.0318
 20
-439.7975
 30
0
 70
192
 0
VERTEX
 8
MESH_127_F0
 10
481.5109
 20
-439.5531
 30
0
 70
192
 0
VERTEX
 8
MESH_127_F0
 10
482.9691
 20
-439.2119
 30
0
 70
192
 0
VERTEX
 8
MESH_127_F0
 10
484.4027
 20
-438.7751
 30
0
 70
192
 0
VERTEX
 8
MESH_127_F0
 10
485.8101
 20
-438.2443
 30
0
 70
192
 0
VERTEX
 8
MESH_127_F0
 10
487.1826
 20
-437.6221
 30
0
 70
192
 0
VERTEX
 8
MESH_127_F0
 10
488.512
 20
-436.9115
 30
0
 70
192
 0
VERTEX
 8
MESH_127_F0
 10
489.7883
 20
-436.1172
 30
0
 70
192
 0
VERTEX
 8
MESH_127_F0
 10
491.0086
 20
-435.2417
 30
0
 70
192
 0
VERTEX
 8
MESH_127_F0
 10
492.1685
 20
-434.289
 30
0
 70
192
 0
VERTEX
 8
MESH_127_F0
 10
493.2636
 20
-433.2631
 30
0
 70
192
 0
VERTEX
 8
MESH_127_F0
 10
494.2896
 20
-432.1679
 30
0
 70
192
 0
VERTEX
 8
MESH_127_F0
 10
495.2422
 20
-431.0079
 30
0
 70
192
 0
VERTEX
 8
MESH_127_F0
 10
496.1176
 20
-429.7876
 30
0
 70
192
 0
VERTEX
 8
MESH_127_F0
 10
496.9119
 20
-428.5114
 30
0
 70
192
 0
VERTEX
 8
MESH_127_F0
 10
497.6223
 20
-427.1821
 30
0
 70
192
 0
VERTEX
 8
MESH_127_F0
 10
498.2445
 20
-425.8095
 30
0
 70
192
 0
VERTEX
 8
MESH_127_F0
 10
498.7753
 20
-424.4023
 30
0
 70
192
 0
VERTEX
 8
MESH_127_F0
 10
499.212
 20
-422.9687
 30
0
 70
192
 0
VERTEX
 8
MESH_127_F0
 10
499.5532
 20
-421.5106
 30
0
 70
192
 0
VERTEX
 8
MESH_127_F0
 10
499.7975
 20
-420.0316
 30
0
 70
192
 0
VERTEX
 8
MESH_127_F0
 10
499.9462
 20
-418.5291
 30
0
 70
192
 0
VERTEX
 8
MESH_127_F0
 10
500
 20
-417
 30
0
 70
192
 0
VERTEX
 8
MESH_127_F0
 10
500
 20
0
 30
0
 70
192
 0
VERTEX
 8
MESH_127_F0
 10
0
 20
0
 30
0
 70
128
 71
1
 72
69
 73
2
 74
2
 0
VERTEX
 8
MESH_127_F0
 10
0
 20
0
 30
0
 70
128
 71
69
 72
3
 73
2
 74
2
 0
VERTEX
 8
MESH_127_F0
 10
0
 20
0
 30
0
 70
128
 71
4
 72
3
 73
69
 74
69
 0
VERTEX
 8
MESH_127_F0
 10
0
 20
0
 30
0
 70
128
 71
4
 72
69
 73
5
 74
5
 0
VERTEX
 8
MESH_127_F0
 10
0
 20
0
 30
0
 70
128
 71
69
 72
6
 73
5
 74
5
 0
VERTEX
 8
MESH_127_F0
 10
0
 20
0
 30
0
 70
128
 71
7
 72
6
 73
69
 74
69
 0
VERTEX
 8
MESH_127_F0
 10
0
 20
0
 30
0
 70
128
 71
7
 72
69
 73
8
 74
8
 0
VERTEX
 8
MESH_127_F0
 10
0
 20
0
 30
0
 70
128
 71
69
 72
9
 73
8
 74
8
 0
VERTEX
 8
MESH_127_F0
 10
0
 20
0
 30
0
 70
128
 71
10
 72
9
 73
69
 74
69
 0
VERTEX
 8
MESH_127_F0
 10
0
 20
0
 30
0
 70
128
 71
10
 72
69
 73
11
 74
11
 0
VERTEX
 8
MESH_127_F0
 10
0
 20
0
 30
0
 70
128
 71
69
 72
12
 73
11
 74
11
 0
VERTEX
 8
MESH_127_F0
 10
0
 20
0
 30
0
 70
128
 71
13
 72
12
 73
69
 74
69
 0
VERTEX
 8
MESH_127_F0
 10
0
 20
0
 30
0
 70
128
 71
13
 72
69
 73
14
 74
14
 0
VERTEX
 8
MESH_127_F0
 10
0
 20
0
 30
0
 70
128
 71
69
 72
15
 73
14
 74
14
 0
VERTEX
 8
MESH_127_F0
 10
0
 20
0
 30
0
 70
128
 71
16
 72
15
 73
69
 74
69
 0
VERTEX
 8
MESH_127_F0
 10
0
 20
0
 30
0
 70
128
 71
16
 72
69
 73
17
 74
17
 0
VERTEX
 8
MESH_127_F0
 10
0
 20
0
 30
0
 70
128
 71
69
 72
120
 73
17
 74
17
 0
VERTEX
 8
MESH_127_F0
 10
0
 20
0
 30
0
 70
128
 71
120
 72
18
 73
17
 74
17
 0
VERTEX
 8
MESH_127_F0
 10
0
 20
0
 30
0
 70
128
 71
19
 72
18
 73
120
 74
120
 0
VERTEX
 8
MESH_127_F0
 10
0
 20
0
 30
0
 70
128
 71
19
 72
120
 73
20
 74
20
 0
VERTEX
 8
MESH_127_F0
 10
0
 20
0
 30
0
 70
128
 71
120
 72
21
 73
20
 74
20
 0
VERTEX
 8
MESH_127_F0
 10
0
 20
0
 30
0
 70
128
 71
22
 72
21
 73
120
 74
120
 0
VERTEX
 8
MESH_127_F0
 10
0
 20
0
 30
0
 70
128
 71
22
 72
120
 73
23
 74
23
 0
VERTEX
 8
MESH_127_F0
 10
0
 20
0
 30
0
 70
128
 71
120
 72
24
 73
23
 74
23
 0
VERTEX
 8
MESH_127_F0
 10
0
 20
0
 30
0
 70
128
 71
25
 72
24
 73
120
 74
120
 0
VERTEX
 8
MESH_127_F0
 10
0
 20
0
 30
0
 70
128
 71
25
 72
120
 73
26
 74
26
 0
VERTEX
 8
MESH_127_F0
 10
0
 20
0
 30
0
 70
128
 71
120
 72
27
 73
26
 74
26
 0
VERTEX
 8
MESH_127_F0
 10
0
 20
0
 30
0
 70
128
 71
28
 72
27
 73
120
 74
120
 0
VERTEX
 8
MESH_127_F0
 10
0
 20
0
 30
0
 70
128
 71
28
 72
120
 73
29
 74
29
 0
VERTEX
 8
MESH_127_F0
 10
0
 20
0
 30
0
 70
128
 71
120
 72
30
 73
29
 74
29
 0
VERTEX
 8
MESH_127_F0
 10
0
 20
0
 30
0
 70
128
 71
31
 72
30
 73
120
 74
120
 0
VERTEX
 8
MESH_127_F0
 10
0
 20
0
 30
0
 70
128
 71
31
 72
120
 73
32
 74
32
 0
VERTEX
 8
MESH_127_F0
 10
0
 20
0
 30
0
 70
128
 71
120
 72
33
 73
32
 74
32
 0
VERTEX
 8
MESH_127_F0
 10
0
 20
0
 30
0
 70
128
 71
34
 72
33
 73
120
 74
120
 0
VERTEX
 8
MESH_127_F0
 10
0
 20
0
 30
0
 70
128
 71
34
 72
120
 73
35
 74
35
 0
VERTEX
 8
MESH_127_F0
 10
0
 20
0
 30
0
 70
128
 71
120
 72
114
 73
35
 74
35
 0
VERTEX
 8
MESH_127_F0
 10
0
 20
0
 30
0
 70
128
 71
114
 72
95
 73
35
 74
35
 0
VERTEX
 8
MESH_127_F0
 10
0
 20
0
 30
0
 70
128
 71
95
 72
36
 73
35
 74
35
 0
VERTEX
 8
MESH_127_F0
 10
0
 20
0
 30
0
 70
128
 71
37
 72
36
 73
95
 74
95
 0
VERTEX
 8
MESH_127_F0
 10
0
 20
0
 30
0
 70
128
 71
37
 72
95
 73
38
 74
38
 0
VERTEX
 8
MESH_127_F0
 10
0
 20
0
 30
0
 70
128
 71
95
 72
39
 73
38
 74
38
 0
VERTEX
 8
MESH_127_F0
 10
0
 20
0
 30
0
 70
128
 71
40
 72
39
 73
95
 74
95
 0
VERTEX
 8
MESH_127_F0
 10
0
 20
0
 30
0
 70
128
 71
40
 72
95
 73
41
 74
41
 0
VERTEX
 8
MESH_127_F0
 10
0
 20
0
 30
0
 70
128
 71
95
 72
42
 73
41
 74
41
 0
VERTEX
 8
MESH_127_F0
 10
0
 20
0
 30
0
 70
128
 71
43
 72
42
 73
95
 74
95
 0
VERTEX
 8
MESH_127_F0
 10
0
 20
0
 30
0
 70
128
 71
43
 72
95
 73
44
 74
44
 0
VERTEX
 8
MESH_127_F0
 10
0
 20
0
 30
0
 70
128
 71
95
 72
45
 73
44
 74
44
 0
VERTEX
 8
MESH_127_F0
 10
0
 20
0
 30
0
 70
128
 71
46
 72
45
 73
95
 74
95
 0
VERTEX
 8
MESH_127_F0
 10
0
 20
0
 30
0
 70
128
 71
46
 72
95
 73
47
 74
47
 0
VERTEX
 8
MESH_127_F0
 10
0
 20
0
 30
0
 70
128
 71
95
 72
48
 73
47
 74
47
 0
VERTEX
 8
MESH_127_F0
 10
0
 20
0
 30
0
 70
128
 71
49
 72
48
 73
95
 74
95
 0
VERTEX
 8
MESH_127_F0
 10
0
 20
0
 30
0
 70
128
 71
49
 72
95
 73
50
 74
50
 0
VERTEX
 8
MESH_127_F0
 10
0
 20
0
 30
0
 70
128
 71
95
 72
51
 73
50
 74
50
 0
VERTEX
 8
MESH_127_F0
 10
0
 20
0
 30
0
 70
128
 71
52
 72
51
 73
95
 74
95
 0
VERTEX
 8
MESH_127_F0
 10
0
 20
0
 30
0
 70
128
 71
53
 72
52
 73
94
 74
94
 0
VERTEX
 8
MESH_127_F0
 10
0
 20
0
 30
0
 70
128
 71
53
 72
94
 73
54
 74
54
 0
VERTEX
 8
MESH_127_F0
 10
0
 20
0
 30
0
 70
128
 71
94
 72
55
 73
54
 74
54
 0
VERTEX
 8
MESH_127_F0
 10
0
 20
0
 30
0
 70
128
 71
56
 72
55
 73
94
 74
94
 0
VERTEX
 8
MESH_127_F0
 10
0
 20
0
 30
0
 70
128
 71
56
 72
94
 73
57
 74
57
 0
VERTEX
 8
MESH_127_F0
 10
0
 20
0
 30
0
 70
128
 71
94
 72
58
 73
57
 74
57
 0
VERTEX
 8
MESH_127_F0
 10
0
 20
0
 30
0
 70
128
 71
59
 72
58
 73
94
 74
94
 0
VERTEX
 8
MESH_127_F0
 10
0
 20
0
 30
0
 70
128
 71
59
 72
94
 73
60
 74
60
 0
VERTEX
 8
MESH_127_F0
 10
0
 20
0
 30
0
 70
128
 71
94
 72
61
 73
60
 74
60
 0
VERTEX
 8
MESH_127_F0
 10
0
 20
0
 30
0
 70
128
 71
62
 72
61
 73
94
 74
94
 0
VERTEX
 8
MESH_127_F0
 10
0
 20
0
 30
0
 70
128
 71
62
 72
94
 73
63
 74
63
 0
VERTEX
 8
MESH_127_F0
 10
0
 20
0
 30
0
 70
128
 71
94
 72
64
 73
63
 74
63
 0
VERTEX
 8
MESH_127_F0
 10
0
 20
0
 30
0
 70
128
 71
65
 72
64
 73
94
 74
94
 0
VERTEX
 8
MESH_127_F0
 10
0
 20
0
 30
0
 70
128
 71
65
 72
94
 73
66
 74
66
 0
VERTEX
 8
MESH_127_F0
 10
0
 20
0
 30
0
 70
128
 71
94
 72
67
 73
66
 74
66
 0
VERTEX
 8
MESH_127_F0
 10
0
 20
0
 30
0
 70
128
 71
68
 72
67
 73
94
 74
94
 0
VERTEX
 8
MESH_127_F0
 10
0
 20
0
 30
0
 70
128
 71
68
 72
94
 73
1
 74
1
 0
VERTEX
 8
MESH_127_F0
 10
0
 20
0
 30
0
 70
128
 71
94
 72
70
 73
1
 74
1
 0
VERTEX
 8
MESH_127_F0
 10
0
 20
0
 30
0
 70
128
 71
70
 72
69
 73
1
 74
1
 0
VERTEX
 8
MESH_127_F0
 10
0
 20
0
 30
0
 70
128
 71
94
 72
71
 73
70
 74
70
 0
VERTEX
 8
MESH_127_F0
 10
0
 20
0
 30
0
 70
128
 71
72
 72
71
 73
94
 74
94
 0
VERTEX
 8
MESH_127_F0
 10
0
 20
0
 30
0
 70
128
 71
72
 72
94
 73
73
 74
73
 0
VERTEX
 8
MESH_127_F0
 10
0
 20
0
 30
0
 70
128
 71
94
 72
74
 73
73
 74
73
 0
VERTEX
 8
MESH_127_F0
 10
0
 20
0
 30
0
 70
128
 71
75
 72
74
 73
94
 74
94
 0
VERTEX
 8
MESH_127_F0
 10
0
 20
0
 30
0
 70
128
 71
75
 72
94
 73
76
 74
76
 0
VERTEX
 8
MESH_127_F0
 10
0
 20
0
 30
0
 70
128
 71
94
 72
77
 73
76
 74
76
 0
VERTEX
 8
MESH_127_F0
 10
0
 20
0
 30
0
 70
128
 71
78
 72
77
 73
94
 74
94
 0
VERTEX
 8
MESH_127_F0
 10
0
 20
0
 30
0
 70
128
 71
78
 72
94
 73
79
 74
79
 0
VERTEX
 8
MESH_127_F0
 10
0
 20
0
 30
0
 70
128
 71
94
 72
80
 73
79
 74
79
 0
VERTEX
 8
MESH_127_F0
 10
0
 20
0
 30
0
 70
128
 71
81
 72
80
 73
94
 74
94
 0
VERTEX
 8
MESH_127_F0
 10
0
 20
0
 30
0
 70
128
 71
81
 72
94
 73
82
 74
82
 0
VERTEX
 8
MESH_127_F0
 10
0
 20
0
 30
0
 70
128
 71
94
 72
83
 73
82
 74
82
 0
VERTEX
 8
MESH_127_F0
 10
0
 20
0
 30
0
 70
128
 71
84
 72
83
 73
94
 74
94
 0
VERTEX
 8
MESH_127_F0
 10
0
 20
0
 30
0
 70
128
 71
84
 72
94
 73
85
 74
85
 0
VERTEX
 8
MESH_127_F0
 10
0
 20
0
 30
0
 70
128
 71
94
 72
86
 73
85
 74
85
 0
VERTEX
 8
MESH_127_F0
 10
0
 20
0
 30
0
 70
128
 71
87
 72
86
 73
94
 74
94
 0
VERTEX
 8
MESH_127_F0
 10
0
 20
0
 30
0
 70
128
 71
87
 72
94
 73
88
 74
88
 0
VERTEX
 8
MESH_127_F0
 10
0
 20
0
 30
0
 70
128
 71
94
 72
89
 73
88
 74
88
 0
VERTEX
 8
MESH_127_F0
 10
0
 20
0
 30
0
 70
128
 71
90
 72
89
 73
94
 74
94
 0
VERTEX
 8
MESH_127_F0
 10
0
 20
0
 30
0
 70
128
 71
90
 72
94
 73
91
 74
91
 0
VERTEX
 8
MESH_127_F0
 10
0
 20
0
 30
0
 70
128
 71
94
 72
92
 73
91
 74
91
 0
VERTEX
 8
MESH_127_F0
 10
0
 20
0
 30
0
 70
128
 71
93
 72
92
 73
94
 74
94
 0
VERTEX
 8
MESH_127_F0
 10
0
 20
0
 30
0
 70
128
 71
52
 72
95
 73
94
 74
94
 0
VERTEX
 8
MESH_127_F0
 10
0
 20
0
 30
0
 70
128
 71
95
 72
97
 73
96
 74
96
 0
VERTEX
 8
MESH_127_F0
 10
0
 20
0
 30
0
 70
128
 71
98
 72
97
 73
95
 74
95
 0
VERTEX
 8
MESH_127_F0
 10
0
 20
0
 30
0
 70
128
 71
98
 72
95
 73
99
 74
99
 0
VERTEX
 8
MESH_127_F0
 10
0
 20
0
 30
0
 70
128
 71
95
 72
100
 73
99
 74
99
 0
VERTEX
 8
MESH_127_F0
 10
0
 20
0
 30
0
 70
128
 71
101
 72
100
 73
95
 74
95
 0
VERTEX
 8
MESH_127_F0
 10
0
 20
0
 30
0
 70
128
 71
101
 72
95
 73
102
 74
102
 0
VERTEX
 8
MESH_127_F0
 10
0
 20
0
 30
0
 70
128
 71
95
 72
103
 73
102
 74
102
 0
VERTEX
 8
MESH_127_F0
 10
0
 20
0
 30
0
 70
128
 71
104
 72
103
 73
95
 74
95
 0
VERTEX
 8
MESH_127_F0
 10
0
 20
0
 30
0
 70
128
 71
104
 72
95
 73
105
 74
105
 0
VERTEX
 8
MESH_127_F0
 10
0
 20
0
 30
0
 70
128
 71
95
 72
106
 73
105
 74
105
 0
VERTEX
 8
MESH_127_F0
 10
0
 20
0
 30
0
 70
128
 71
107
 72
106
 73
95
 74
95
 0
VERTEX
 8
MESH_127_F0
 10
0
 20
0
 30
0
 70
128
 71
107
 72
95
 73
108
 74
108
 0
VERTEX
 8
MESH_127_F0
 10
0
 20
0
 30
0
 70
128
 71
95
 72
109
 73
108
 74
108
 0
VERTEX
 8
MESH_127_F0
 10
0
 20
0
 30
0
 70
128
 71
110
 72
109
 73
95
 74
95
 0
VERTEX
 8
MESH_127_F0
 10
0
 20
0
 30
0
 70
128
 71
110
 72
95
 73
111
 74
111
 0
VERTEX
 8
MESH_127_F0
 10
0
 20
0
 30
0
 70
128
 71
95
 72
112
 73
111
 74
111
 0
VERTEX
 8
MESH_127_F0
 10
0
 20
0
 30
0
 70
128
 71
113
 72
112
 73
95
 74
95
 0
VERTEX
 8
MESH_127_F0
 10
0
 20
0
 30
0
 70
128
 71
113
 72
95
 73
114
 74
114
 0
VERTEX
 8
MESH_127_F0
 10
0
 20
0
 30
0
 70
128
 71
120
 72
115
 73
114
 74
114
 0
VERTEX
 8
MESH_127_F0
 10
0
 20
0
 30
0
 70
128
 71
116
 72
115
 73
120
 74
120
 0
VERTEX
 8
MESH_127_F0
 10
0
 20
0
 30
0
 70
128
 71
116
 72
120
 73
117
 74
117
 0
VERTEX
 8
MESH_127_F0
 10
0
 20
0
 30
0
 70
128
 71
120
 72
118
 73
117
 74
117
 0
VERTEX
 8
MESH_127_F0
 10
0
 20
0
 30
0
 70
128
 71
119
 72
118
 73
120
 74
120
 0
SEQEND
 0
ENDSEC
 0
EOF
