 0
SECTION
 2
HEADER
 9
$ACADVER
 1
AC1009
 0
ENDSEC
 0
SECTION
 2
TABLES
 0
TABLE
 2
LTYPE
 70
1
 0
LTYPE
 2
CONTINUOUS
 70
64
 3
solid line
 72
65
 73
0
 40
0.0
 0
ENDTAB
 0
TABLE
 2
LAYER
 70
6
 0
LAYER
 2
0
 70
0
 62
7
 6
CONTINUOUS
 0
LAYER
 2
MESH_182_F0
 70
64
 62
7
 6
CONTINUOUS
 0
LAYER
 2
MESH_181_F0
 70
64
 62
7
 6
CONTINUOUS
 0
LAYER
 2
MESH_180_F0
 70
64
 62
7
 6
CONTINUOUS
 0
LAYER
 2
MESH_179_F0
 70
64
 62
7
 6
CONTINUOUS
 0
LAYER
 2
MESH_178_F0
 70
64
 62
7
 6
CONTINUOUS
 0
LAYER
 2
MESH_177_F0
 70
64
 62
7
 6
CONTINUOUS
 0
LAYER
 2
MESH_176_F0
 70
64
 62
7
 6
CONTINUOUS
 0
LAYER
 2
MESH_175_F0
 70
64
 62
7
 6
CONTINUOUS
 0
LAYER
 2
MESH_174_F0
 70
64
 62
7
 6
CONTINUOUS
 0
LAYER
 2
MESH_173_F0
 70
64
 62
7
 6
CONTINUOUS
 0
LAYER
 2
MESH_172_F0
 70
64
 62
7
 6
CONTINUOUS
 0
LAYER
 2
MESH_171_F0
 70
64
 62
7
 6
CONTINUOUS
 0
LAYER
 2
MESH_170_F0
 70
64
 62
7
 6
CONTINUOUS
 0
LAYER
 2
MESH_169_F0
 70
64
 62
7
 6
CONTINUOUS
 0
LAYER
 2
MESH_168_F0
 70
64
 62
7
 6
CONTINUOUS
 0
LAYER
 2
MESH_167_F0
 70
64
 62
7
 6
CONTINUOUS
 0
LAYER
 2
MESH_166_F0
 70
64
 62
7
 6
CONTINUOUS
 0
LAYER
 2
MESH_165_F0
 70
64
 62
7
 6
CONTINUOUS
 0
LAYER
 2
MESH_164_F0
 70
64
 62
7
 6
CONTINUOUS
 0
LAYER
 2
MESH_163_F0
 70
64
 62
7
 6
CONTINUOUS
 0
LAYER
 2
MESH_162_F0
 70
64
 62
7
 6
CONTINUOUS
 0
LAYER
 2
MESH_161_F0
 70
64
 62
7
 6
CONTINUOUS
 0
LAYER
 2
MESH_160_F0
 70
64
 62
7
 6
CONTINUOUS
 0
LAYER
 2
MESH_159_F0
 70
64
 62
7
 6
CONTINUOUS
 0
ENDTAB
 0
ENDSEC
 0
SECTION
 2
BLOCKS
 0
ENDSEC
 0
SECTION
 2
ENTITIES
 0
POLYLINE
 8
MESH_182_F0
 66
1
 10
0.0
 20
0.0
 30
0.0
 70
64
 71
4
 72
2
 0
VERTEX
 8
MESH_182_F0
 10
700
 20
-415
 30
25
 70
192
 0
VERTEX
 8
MESH_182_F0
 10
700
 20
-415
 30
0
 70
192
 0
VERTEX
 8
MESH_182_F0
 10
700
 20
0
 30
0
 70
192
 0
VERTEX
 8
MESH_182_F0
 10
700
 20
0
 30
25
 70
192
 0
VERTEX
 8
MESH_182_F0
 10
0
 20
0
 30
0
 70
128
 71
1
 72
3
 73
2
 74
2
 0
VERTEX
 8
MESH_182_F0
 10
0
 20
0
 30
0
 70
128
 71
4
 72
3
 73
1
 74
1
 0
SEQEND
 0
POLYLINE
 8
MESH_181_F0
 66
1
 10
0.0
 20
0.0
 30
0.0
 70
64
 71
4
 72
2
 0
VERTEX
 8
MESH_181_F0
 10
-702
 20
0
 30
0
 70
192
 0
VERTEX
 8
MESH_181_F0
 10
-702
 20
0
 30
25
 70
192
 0
VERTEX
 8
MESH_181_F0
 10
700
 20
0
 30
25
 70
192
 0
VERTEX
 8
MESH_181_F0
 10
700
 20
0
 30
0
 70
192
 0
VERTEX
 8
MESH_181_F0
 10
0
 20
0
 30
0
 70
128
 71
1
 72
3
 73
2
 74
2
 0
VERTEX
 8
MESH_181_F0
 10
0
 20
0
 30
0
 70
128
 71
4
 72
3
 73
1
 74
1
 0
SEQEND
 0
POLYLINE
 8
MESH_180_F0
 66
1
 10
0.0
 20
0.0
 30
0.0
 70
64
 71
4
 72
2
 0
VERTEX
 8
MESH_180_F0
 10
-702
 20
-415
 30
0
 70
192
 0
VERTEX
 8
MESH_180_F0
 10
-702
 20
-415
 30
25
 70
192
 0
VERTEX
 8
MESH_180_F0
 10
-702
 20
0
 30
25
 70
192
 0
VERTEX
 8
MESH_180_F0
 10
-702
 20
0
 30
0
 70
192
 0
VERTEX
 8
MESH_180_F0
 10
0
 20
0
 30
0
 70
128
 71
1
 72
3
 73
2
 74
2
 0
VERTEX
 8
MESH_180_F0
 10
0
 20
0
 30
0
 70
128
 71
4
 72
3
 73
1
 74
1
 0
SEQEND
 0
POLYLINE
 8
MESH_179_F0
 66
1
 10
0.0
 20
0.0
 30
0.0
 70
64
 71
50
 72
48
 0
VERTEX
 8
MESH_179_F0
 10
-702
 20
-415
 30
25
 70
192
 0
VERTEX
 8
MESH_179_F0
 10
-702
 20
-415
 30
0
 70
192
 0
VERTEX
 8
MESH_179_F0
 10
-701.9391
 20
-416.7285
 30
0
 70
192
 0
VERTEX
 8
MESH_179_F0
 10
-701.7712
 20
-418.4271
 30
0
 70
192
 0
VERTEX
 8
MESH_179_F0
 10
-701.4949
 20
-420.0989
 30
0
 70
192
 0
VERTEX
 8
MESH_179_F0
 10
-701.1093
 20
-421.7472
 30
0
 70
192
 0
VERTEX
 8
MESH_179_F0
 10
-700.6156
 20
-423.3678
 30
0
 70
192
 0
VERTEX
 8
MESH_179_F0
 10
-700.0155
 20
-424.9586
 30
0
 70
192
 0
VERTEX
 8
MESH_179_F0
 10
-699.3123
 20
-426.5102
 30
0
 70
192
 0
VERTEX
 8
MESH_179_F0
 10
-698.5091
 20
-428.0129
 30
0
 70
192
 0
VERTEX
 8
MESH_179_F0
 10
-697.6112
 20
-429.4556
 30
0
 70
192
 0
VERTEX
 8
MESH_179_F0
 10
-696.6216
 20
-430.8351
 30
0
 70
192
 0
VERTEX
 8
MESH_179_F0
 10
-695.5447
 20
-432.1463
 30
0
 70
192
 0
VERTEX
 8
MESH_179_F0
 10
-694.3849
 20
-433.3843
 30
0
 70
192
 0
VERTEX
 8
MESH_179_F0
 10
-693.147
 20
-434.5441
 30
0
 70
192
 0
VERTEX
 8
MESH_179_F0
 10
-691.8358
 20
-435.6211
 30
0
 70
192
 0
VERTEX
 8
MESH_179_F0
 10
-690.4563
 20
-436.6107
 30
0
 70
192
 0
VERTEX
 8
MESH_179_F0
 10
-689.0136
 20
-437.5087
 30
0
 70
192
 0
VERTEX
 8
MESH_179_F0
 10
-687.5108
 20
-438.3119
 30
0
 70
192
 0
VERTEX
 8
MESH_179_F0
 10
-685.9592
 20
-439.0153
 30
0
 70
192
 0
VERTEX
 8
MESH_179_F0
 10
-684.3683
 20
-439.6154
 30
0
 70
192
 0
VERTEX
 8
MESH_179_F0
 10
-682.7477
 20
-440.1091
 30
0
 70
192
 0
VERTEX
 8
MESH_179_F0
 10
-681.0992
 20
-440.4948
 30
0
 70
192
 0
VERTEX
 8
MESH_179_F0
 10
-679.4273
 20
-440.7711
 30
0
 70
192
 0
VERTEX
 8
MESH_179_F0
 10
-677.7286
 20
-440.9392
 30
0
 70
192
 0
VERTEX
 8
MESH_179_F0
 10
-676
 20
-441
 30
0
 70
192
 0
VERTEX
 8
MESH_179_F0
 10
-676
 20
-441
 30
25
 70
192
 0
VERTEX
 8
MESH_179_F0
 10
-677.7285
 20
-440.9392
 30
25
 70
192
 0
VERTEX
 8
MESH_179_F0
 10
-679.4271
 20
-440.7711
 30
25
 70
192
 0
VERTEX
 8
MESH_179_F0
 10
-681.0989
 20
-440.4949
 30
25
 70
192
 0
VERTEX
 8
MESH_179_F0
 10
-682.7471
 20
-440.1092
 30
25
 70
192
 0
VERTEX
 8
MESH_179_F0
 10
-684.3677
 20
-439.6156
 30
25
 70
192
 0
VERTEX
 8
MESH_179_F0
 10
-685.9586
 20
-439.0155
 30
25
 70
192
 0
VERTEX
 8
MESH_179_F0
 10
-687.5101
 20
-438.3123
 30
25
 70
192
 0
VERTEX
 8
MESH_179_F0
 10
-689.0129
 20
-437.5091
 30
25
 70
192
 0
VERTEX
 8
MESH_179_F0
 10
-690.4556
 20
-436.6112
 30
25
 70
192
 0
VERTEX
 8
MESH_179_F0
 10
-691.8351
 20
-435.6216
 30
25
 70
192
 0
VERTEX
 8
MESH_179_F0
 10
-693.1464
 20
-434.5447
 30
25
 70
192
 0
VERTEX
 8
MESH_179_F0
 10
-694.3843
 20
-433.385
 30
25
 70
192
 0
VERTEX
 8
MESH_179_F0
 10
-695.5441
 20
-432.147
 30
25
 70
192
 0
VERTEX
 8
MESH_179_F0
 10
-696.6211
 20
-430.8358
 30
25
 70
192
 0
VERTEX
 8
MESH_179_F0
 10
-697.6108
 20
-429.4563
 30
25
 70
192
 0
VERTEX
 8
MESH_179_F0
 10
-698.5087
 20
-428.0136
 30
25
 70
192
 0
VERTEX
 8
MESH_179_F0
 10
-699.3119
 20
-426.5108
 30
25
 70
192
 0
VERTEX
 8
MESH_179_F0
 10
-700.0153
 20
-424.9592
 30
25
 70
192
 0
VERTEX
 8
MESH_179_F0
 10
-700.6154
 20
-423.3683
 30
25
 70
192
 0
VERTEX
 8
MESH_179_F0
 10
-701.1091
 20
-421.7477
 30
25
 70
192
 0
VERTEX
 8
MESH_179_F0
 10
-701.4948
 20
-420.0992
 30
25
 70
192
 0
VERTEX
 8
MESH_179_F0
 10
-701.7711
 20
-418.4273
 30
25
 70
192
 0
VERTEX
 8
MESH_179_F0
 10
-701.9391
 20
-416.7286
 30
25
 70
192
 0
VERTEX
 8
MESH_179_F0
 10
0
 20
0
 30
0
 70
128
 71
50
 72
2
 73
1
 74
1
 0
VERTEX
 8
MESH_179_F0
 10
0
 20
0
 30
0
 70
128
 71
3
 72
2
 73
50
 74
50
 0
VERTEX
 8
MESH_179_F0
 10
0
 20
0
 30
0
 70
128
 71
3
 72
50
 73
4
 74
4
 0
VERTEX
 8
MESH_179_F0
 10
0
 20
0
 30
0
 70
128
 71
50
 72
49
 73
4
 74
4
 0
VERTEX
 8
MESH_179_F0
 10
0
 20
0
 30
0
 70
128
 71
49
 72
5
 73
4
 74
4
 0
VERTEX
 8
MESH_179_F0
 10
0
 20
0
 30
0
 70
128
 71
48
 72
5
 73
49
 74
49
 0
VERTEX
 8
MESH_179_F0
 10
0
 20
0
 30
0
 70
128
 71
6
 72
5
 73
48
 74
48
 0
VERTEX
 8
MESH_179_F0
 10
0
 20
0
 30
0
 70
128
 71
7
 72
6
 73
47
 74
47
 0
VERTEX
 8
MESH_179_F0
 10
0
 20
0
 30
0
 70
128
 71
8
 72
7
 73
46
 74
46
 0
VERTEX
 8
MESH_179_F0
 10
0
 20
0
 30
0
 70
128
 71
9
 72
8
 73
45
 74
45
 0
VERTEX
 8
MESH_179_F0
 10
0
 20
0
 30
0
 70
128
 71
10
 72
9
 73
44
 74
44
 0
VERTEX
 8
MESH_179_F0
 10
0
 20
0
 30
0
 70
128
 71
11
 72
10
 73
43
 74
43
 0
VERTEX
 8
MESH_179_F0
 10
0
 20
0
 30
0
 70
128
 71
12
 72
11
 73
42
 74
42
 0
VERTEX
 8
MESH_179_F0
 10
0
 20
0
 30
0
 70
128
 71
13
 72
12
 73
41
 74
41
 0
VERTEX
 8
MESH_179_F0
 10
0
 20
0
 30
0
 70
128
 71
14
 72
13
 73
40
 74
40
 0
VERTEX
 8
MESH_179_F0
 10
0
 20
0
 30
0
 70
128
 71
15
 72
14
 73
39
 74
39
 0
VERTEX
 8
MESH_179_F0
 10
0
 20
0
 30
0
 70
128
 71
16
 72
15
 73
38
 74
38
 0
VERTEX
 8
MESH_179_F0
 10
0
 20
0
 30
0
 70
128
 71
17
 72
16
 73
37
 74
37
 0
VERTEX
 8
MESH_179_F0
 10
0
 20
0
 30
0
 70
128
 71
18
 72
17
 73
36
 74
36
 0
VERTEX
 8
MESH_179_F0
 10
0
 20
0
 30
0
 70
128
 71
19
 72
18
 73
35
 74
35
 0
VERTEX
 8
MESH_179_F0
 10
0
 20
0
 30
0
 70
128
 71
20
 72
19
 73
34
 74
34
 0
VERTEX
 8
MESH_179_F0
 10
0
 20
0
 30
0
 70
128
 71
21
 72
20
 73
33
 74
33
 0
VERTEX
 8
MESH_179_F0
 10
0
 20
0
 30
0
 70
128
 71
22
 72
21
 73
32
 74
32
 0
VERTEX
 8
MESH_179_F0
 10
0
 20
0
 30
0
 70
128
 71
23
 72
22
 73
31
 74
31
 0
VERTEX
 8
MESH_179_F0
 10
0
 20
0
 30
0
 70
128
 71
24
 72
23
 73
30
 74
30
 0
VERTEX
 8
MESH_179_F0
 10
0
 20
0
 30
0
 70
128
 71
25
 72
24
 73
29
 74
29
 0
VERTEX
 8
MESH_179_F0
 10
0
 20
0
 30
0
 70
128
 71
26
 72
25
 73
28
 74
28
 0
VERTEX
 8
MESH_179_F0
 10
0
 20
0
 30
0
 70
128
 71
26
 72
28
 73
27
 74
27
 0
VERTEX
 8
MESH_179_F0
 10
0
 20
0
 30
0
 70
128
 71
25
 72
29
 73
28
 74
28
 0
VERTEX
 8
MESH_179_F0
 10
0
 20
0
 30
0
 70
128
 71
24
 72
30
 73
29
 74
29
 0
VERTEX
 8
MESH_179_F0
 10
0
 20
0
 30
0
 70
128
 71
23
 72
31
 73
30
 74
30
 0
VERTEX
 8
MESH_179_F0
 10
0
 20
0
 30
0
 70
128
 71
22
 72
32
 73
31
 74
31
 0
VERTEX
 8
MESH_179_F0
 10
0
 20
0
 30
0
 70
128
 71
21
 72
33
 73
32
 74
32
 0
VERTEX
 8
MESH_179_F0
 10
0
 20
0
 30
0
 70
128
 71
20
 72
34
 73
33
 74
33
 0
VERTEX
 8
MESH_179_F0
 10
0
 20
0
 30
0
 70
128
 71
19
 72
35
 73
34
 74
34
 0
VERTEX
 8
MESH_179_F0
 10
0
 20
0
 30
0
 70
128
 71
18
 72
36
 73
35
 74
35
 0
VERTEX
 8
MESH_179_F0
 10
0
 20
0
 30
0
 70
128
 71
17
 72
37
 73
36
 74
36
 0
VERTEX
 8
MESH_179_F0
 10
0
 20
0
 30
0
 70
128
 71
16
 72
38
 73
37
 74
37
 0
VERTEX
 8
MESH_179_F0
 10
0
 20
0
 30
0
 70
128
 71
15
 72
39
 73
38
 74
38
 0
VERTEX
 8
MESH_179_F0
 10
0
 20
0
 30
0
 70
128
 71
14
 72
40
 73
39
 74
39
 0
VERTEX
 8
MESH_179_F0
 10
0
 20
0
 30
0
 70
128
 71
13
 72
41
 73
40
 74
40
 0
VERTEX
 8
MESH_179_F0
 10
0
 20
0
 30
0
 70
128
 71
12
 72
42
 73
41
 74
41
 0
VERTEX
 8
MESH_179_F0
 10
0
 20
0
 30
0
 70
128
 71
11
 72
43
 73
42
 74
42
 0
VERTEX
 8
MESH_179_F0
 10
0
 20
0
 30
0
 70
128
 71
10
 72
44
 73
43
 74
43
 0
VERTEX
 8
MESH_179_F0
 10
0
 20
0
 30
0
 70
128
 71
9
 72
45
 73
44
 74
44
 0
VERTEX
 8
MESH_179_F0
 10
0
 20
0
 30
0
 70
128
 71
8
 72
46
 73
45
 74
45
 0
VERTEX
 8
MESH_179_F0
 10
0
 20
0
 30
0
 70
128
 71
7
 72
47
 73
46
 74
46
 0
VERTEX
 8
MESH_179_F0
 10
0
 20
0
 30
0
 70
128
 71
6
 72
48
 73
47
 74
47
 0
SEQEND
 0
POLYLINE
 8
MESH_178_F0
 66
1
 10
0.0
 20
0.0
 30
0.0
 70
64
 71
4
 72
2
 0
VERTEX
 8
MESH_178_F0
 10
674
 20
-441
 30
0
 70
192
 0
VERTEX
 8
MESH_178_F0
 10
674
 20
-441
 30
25
 70
192
 0
VERTEX
 8
MESH_178_F0
 10
-676
 20
-441
 30
25
 70
192
 0
VERTEX
 8
MESH_178_F0
 10
-676
 20
-441
 30
0
 70
192
 0
VERTEX
 8
MESH_178_F0
 10
0
 20
0
 30
0
 70
128
 71
1
 72
3
 73
2
 74
2
 0
VERTEX
 8
MESH_178_F0
 10
0
 20
0
 30
0
 70
128
 71
4
 72
3
 73
1
 74
1
 0
SEQEND
 0
POLYLINE
 8
MESH_177_F0
 66
1
 10
0.0
 20
0.0
 30
0.0
 70
64
 71
50
 72
48
 0
VERTEX
 8
MESH_177_F0
 10
674
 20
-441
 30
25
 70
192
 0
VERTEX
 8
MESH_177_F0
 10
674
 20
-441
 30
0
 70
192
 0
VERTEX
 8
MESH_177_F0
 10
675.7285
 20
-440.9392
 30
0
 70
192
 0
VERTEX
 8
MESH_177_F0
 10
677.4271
 20
-440.7711
 30
0
 70
192
 0
VERTEX
 8
MESH_177_F0
 10
679.0989
 20
-440.4949
 30
0
 70
192
 0
VERTEX
 8
MESH_177_F0
 10
680.7471
 20
-440.1092
 30
0
 70
192
 0
VERTEX
 8
MESH_177_F0
 10
682.3677
 20
-439.6156
 30
0
 70
192
 0
VERTEX
 8
MESH_177_F0
 10
683.9586
 20
-439.0155
 30
0
 70
192
 0
VERTEX
 8
MESH_177_F0
 10
685.5101
 20
-438.3123
 30
0
 70
192
 0
VERTEX
 8
MESH_177_F0
 10
687.0129
 20
-437.5091
 30
0
 70
192
 0
VERTEX
 8
MESH_177_F0
 10
688.4556
 20
-436.6112
 30
0
 70
192
 0
VERTEX
 8
MESH_177_F0
 10
689.8351
 20
-435.6216
 30
0
 70
192
 0
VERTEX
 8
MESH_177_F0
 10
691.1464
 20
-434.5447
 30
0
 70
192
 0
VERTEX
 8
MESH_177_F0
 10
692.3843
 20
-433.385
 30
0
 70
192
 0
VERTEX
 8
MESH_177_F0
 10
693.5441
 20
-432.147
 30
0
 70
192
 0
VERTEX
 8
MESH_177_F0
 10
694.621
 20
-430.8358
 30
0
 70
192
 0
VERTEX
 8
MESH_177_F0
 10
695.6108
 20
-429.4563
 30
0
 70
192
 0
VERTEX
 8
MESH_177_F0
 10
696.5087
 20
-428.0136
 30
0
 70
192
 0
VERTEX
 8
MESH_177_F0
 10
697.3119
 20
-426.5108
 30
0
 70
192
 0
VERTEX
 8
MESH_177_F0
 10
698.0153
 20
-424.9592
 30
0
 70
192
 0
VERTEX
 8
MESH_177_F0
 10
698.6154
 20
-423.3683
 30
0
 70
192
 0
VERTEX
 8
MESH_177_F0
 10
699.1091
 20
-421.7477
 30
0
 70
192
 0
VERTEX
 8
MESH_177_F0
 10
699.4948
 20
-420.0992
 30
0
 70
192
 0
VERTEX
 8
MESH_177_F0
 10
699.7711
 20
-418.4273
 30
0
 70
192
 0
VERTEX
 8
MESH_177_F0
 10
699.9391
 20
-416.7286
 30
0
 70
192
 0
VERTEX
 8
MESH_177_F0
 10
700
 20
-415
 30
0
 70
192
 0
VERTEX
 8
MESH_177_F0
 10
700
 20
-415
 30
25
 70
192
 0
VERTEX
 8
MESH_177_F0
 10
699.9391
 20
-416.7285
 30
25
 70
192
 0
VERTEX
 8
MESH_177_F0
 10
699.7711
 20
-418.4271
 30
25
 70
192
 0
VERTEX
 8
MESH_177_F0
 10
699.4949
 20
-420.0989
 30
25
 70
192
 0
VERTEX
 8
MESH_177_F0
 10
699.1092
 20
-421.7472
 30
25
 70
192
 0
VERTEX
 8
MESH_177_F0
 10
698.6156
 20
-423.3678
 30
25
 70
192
 0
VERTEX
 8
MESH_177_F0
 10
698.0155
 20
-424.9586
 30
25
 70
192
 0
VERTEX
 8
MESH_177_F0
 10
697.3122
 20
-426.5102
 30
25
 70
192
 0
VERTEX
 8
MESH_177_F0
 10
696.5091
 20
-428.0129
 30
25
 70
192
 0
VERTEX
 8
MESH_177_F0
 10
695.6112
 20
-429.4556
 30
25
 70
192
 0
VERTEX
 8
MESH_177_F0
 10
694.6216
 20
-430.8351
 30
25
 70
192
 0
VERTEX
 8
MESH_177_F0
 10
693.5447
 20
-432.1463
 30
25
 70
192
 0
VERTEX
 8
MESH_177_F0
 10
692.385
 20
-433.3843
 30
25
 70
192
 0
VERTEX
 8
MESH_177_F0
 10
691.147
 20
-434.5441
 30
25
 70
192
 0
VERTEX
 8
MESH_177_F0
 10
689.8358
 20
-435.6211
 30
25
 70
192
 0
VERTEX
 8
MESH_177_F0
 10
688.4563
 20
-436.6107
 30
25
 70
192
 0
VERTEX
 8
MESH_177_F0
 10
687.0135
 20
-437.5087
 30
25
 70
192
 0
VERTEX
 8
MESH_177_F0
 10
685.5108
 20
-438.3119
 30
25
 70
192
 0
VERTEX
 8
MESH_177_F0
 10
683.9592
 20
-439.0153
 30
25
 70
192
 0
VERTEX
 8
MESH_177_F0
 10
682.3683
 20
-439.6154
 30
25
 70
192
 0
VERTEX
 8
MESH_177_F0
 10
680.7476
 20
-440.1091
 30
25
 70
192
 0
VERTEX
 8
MESH_177_F0
 10
679.0992
 20
-440.4948
 30
25
 70
192
 0
VERTEX
 8
MESH_177_F0
 10
677.4273
 20
-440.7711
 30
25
 70
192
 0
VERTEX
 8
MESH_177_F0
 10
675.7286
 20
-440.9392
 30
25
 70
192
 0
VERTEX
 8
MESH_177_F0
 10
0
 20
0
 30
0
 70
128
 71
50
 72
2
 73
1
 74
1
 0
VERTEX
 8
MESH_177_F0
 10
0
 20
0
 30
0
 70
128
 71
3
 72
2
 73
50
 74
50
 0
VERTEX
 8
MESH_177_F0
 10
0
 20
0
 30
0
 70
128
 71
3
 72
50
 73
4
 74
4
 0
VERTEX
 8
MESH_177_F0
 10
0
 20
0
 30
0
 70
128
 71
50
 72
49
 73
4
 74
4
 0
VERTEX
 8
MESH_177_F0
 10
0
 20
0
 30
0
 70
128
 71
49
 72
5
 73
4
 74
4
 0
VERTEX
 8
MESH_177_F0
 10
0
 20
0
 30
0
 70
128
 71
48
 72
5
 73
49
 74
49
 0
VERTEX
 8
MESH_177_F0
 10
0
 20
0
 30
0
 70
128
 71
6
 72
5
 73
48
 74
48
 0
VERTEX
 8
MESH_177_F0
 10
0
 20
0
 30
0
 70
128
 71
7
 72
6
 73
47
 74
47
 0
VERTEX
 8
MESH_177_F0
 10
0
 20
0
 30
0
 70
128
 71
8
 72
7
 73
46
 74
46
 0
VERTEX
 8
MESH_177_F0
 10
0
 20
0
 30
0
 70
128
 71
9
 72
8
 73
45
 74
45
 0
VERTEX
 8
MESH_177_F0
 10
0
 20
0
 30
0
 70
128
 71
10
 72
9
 73
44
 74
44
 0
VERTEX
 8
MESH_177_F0
 10
0
 20
0
 30
0
 70
128
 71
11
 72
10
 73
43
 74
43
 0
VERTEX
 8
MESH_177_F0
 10
0
 20
0
 30
0
 70
128
 71
12
 72
11
 73
42
 74
42
 0
VERTEX
 8
MESH_177_F0
 10
0
 20
0
 30
0
 70
128
 71
13
 72
12
 73
41
 74
41
 0
VERTEX
 8
MESH_177_F0
 10
0
 20
0
 30
0
 70
128
 71
14
 72
13
 73
40
 74
40
 0
VERTEX
 8
MESH_177_F0
 10
0
 20
0
 30
0
 70
128
 71
15
 72
14
 73
39
 74
39
 0
VERTEX
 8
MESH_177_F0
 10
0
 20
0
 30
0
 70
128
 71
16
 72
15
 73
38
 74
38
 0
VERTEX
 8
MESH_177_F0
 10
0
 20
0
 30
0
 70
128
 71
17
 72
16
 73
37
 74
37
 0
VERTEX
 8
MESH_177_F0
 10
0
 20
0
 30
0
 70
128
 71
18
 72
17
 73
36
 74
36
 0
VERTEX
 8
MESH_177_F0
 10
0
 20
0
 30
0
 70
128
 71
19
 72
18
 73
35
 74
35
 0
VERTEX
 8
MESH_177_F0
 10
0
 20
0
 30
0
 70
128
 71
20
 72
19
 73
34
 74
34
 0
VERTEX
 8
MESH_177_F0
 10
0
 20
0
 30
0
 70
128
 71
21
 72
20
 73
33
 74
33
 0
VERTEX
 8
MESH_177_F0
 10
0
 20
0
 30
0
 70
128
 71
22
 72
21
 73
32
 74
32
 0
VERTEX
 8
MESH_177_F0
 10
0
 20
0
 30
0
 70
128
 71
23
 72
22
 73
31
 74
31
 0
VERTEX
 8
MESH_177_F0
 10
0
 20
0
 30
0
 70
128
 71
24
 72
23
 73
30
 74
30
 0
VERTEX
 8
MESH_177_F0
 10
0
 20
0
 30
0
 70
128
 71
25
 72
24
 73
29
 74
29
 0
VERTEX
 8
MESH_177_F0
 10
0
 20
0
 30
0
 70
128
 71
26
 72
25
 73
28
 74
28
 0
VERTEX
 8
MESH_177_F0
 10
0
 20
0
 30
0
 70
128
 71
26
 72
28
 73
27
 74
27
 0
VERTEX
 8
MESH_177_F0
 10
0
 20
0
 30
0
 70
128
 71
25
 72
29
 73
28
 74
28
 0
VERTEX
 8
MESH_177_F0
 10
0
 20
0
 30
0
 70
128
 71
24
 72
30
 73
29
 74
29
 0
VERTEX
 8
MESH_177_F0
 10
0
 20
0
 30
0
 70
128
 71
23
 72
31
 73
30
 74
30
 0
VERTEX
 8
MESH_177_F0
 10
0
 20
0
 30
0
 70
128
 71
22
 72
32
 73
31
 74
31
 0
VERTEX
 8
MESH_177_F0
 10
0
 20
0
 30
0
 70
128
 71
21
 72
33
 73
32
 74
32
 0
VERTEX
 8
MESH_177_F0
 10
0
 20
0
 30
0
 70
128
 71
20
 72
34
 73
33
 74
33
 0
VERTEX
 8
MESH_177_F0
 10
0
 20
0
 30
0
 70
128
 71
19
 72
35
 73
34
 74
34
 0
VERTEX
 8
MESH_177_F0
 10
0
 20
0
 30
0
 70
128
 71
18
 72
36
 73
35
 74
35
 0
VERTEX
 8
MESH_177_F0
 10
0
 20
0
 30
0
 70
128
 71
17
 72
37
 73
36
 74
36
 0
VERTEX
 8
MESH_177_F0
 10
0
 20
0
 30
0
 70
128
 71
16
 72
38
 73
37
 74
37
 0
VERTEX
 8
MESH_177_F0
 10
0
 20
0
 30
0
 70
128
 71
15
 72
39
 73
38
 74
38
 0
VERTEX
 8
MESH_177_F0
 10
0
 20
0
 30
0
 70
128
 71
14
 72
40
 73
39
 74
39
 0
VERTEX
 8
MESH_177_F0
 10
0
 20
0
 30
0
 70
128
 71
13
 72
41
 73
40
 74
40
 0
VERTEX
 8
MESH_177_F0
 10
0
 20
0
 30
0
 70
128
 71
12
 72
42
 73
41
 74
41
 0
VERTEX
 8
MESH_177_F0
 10
0
 20
0
 30
0
 70
128
 71
11
 72
43
 73
42
 74
42
 0
VERTEX
 8
MESH_177_F0
 10
0
 20
0
 30
0
 70
128
 71
10
 72
44
 73
43
 74
43
 0
VERTEX
 8
MESH_177_F0
 10
0
 20
0
 30
0
 70
128
 71
9
 72
45
 73
44
 74
44
 0
VERTEX
 8
MESH_177_F0
 10
0
 20
0
 30
0
 70
128
 71
8
 72
46
 73
45
 74
45
 0
VERTEX
 8
MESH_177_F0
 10
0
 20
0
 30
0
 70
128
 71
7
 72
47
 73
46
 74
46
 0
VERTEX
 8
MESH_177_F0
 10
0
 20
0
 30
0
 70
128
 71
6
 72
48
 73
47
 74
47
 0
SEQEND
 0
POLYLINE
 8
MESH_176_F0
 66
1
 10
0.0
 20
0.0
 30
0.0
 70
64
 71
4
 72
2
 0
VERTEX
 8
MESH_176_F0
 10
334
 20
-400
 30
25
 70
192
 0
VERTEX
 8
MESH_176_F0
 10
334
 20
-400
 30
0
 70
192
 0
VERTEX
 8
MESH_176_F0
 10
314
 20
-400
 30
0
 70
192
 0
VERTEX
 8
MESH_176_F0
 10
314
 20
-400
 30
25
 70
192
 0
VERTEX
 8
MESH_176_F0
 10
0
 20
0
 30
0
 70
128
 71
1
 72
3
 73
2
 74
2
 0
VERTEX
 8
MESH_176_F0
 10
0
 20
0
 30
0
 70
128
 71
4
 72
3
 73
1
 74
1
 0
SEQEND
 0
POLYLINE
 8
MESH_175_F0
 66
1
 10
0.0
 20
0.0
 30
0.0
 70
64
 71
30
 72
28
 0
VERTEX
 8
MESH_175_F0
 10
314
 20
-400
 30
25
 70
192
 0
VERTEX
 8
MESH_175_F0
 10
314
 20
-400
 30
0
 70
192
 0
VERTEX
 8
MESH_175_F0
 10
308.3447
 20
-399.6771
 30
0
 70
192
 0
VERTEX
 8
MESH_175_F0
 10
302.8202
 20
-398.734
 30
0
 70
192
 0
VERTEX
 8
MESH_175_F0
 10
297.442
 20
-397.1768
 30
0
 70
192
 0
VERTEX
 8
MESH_175_F0
 10
292.2561
 20
-395.0244
 30
0
 70
192
 0
VERTEX
 8
MESH_175_F0
 10
287.3638
 20
-392.315
 30
0
 70
192
 0
VERTEX
 8
MESH_175_F0
 10
282.8083
 20
-389.0777
 30
0
 70
192
 0
VERTEX
 8
MESH_175_F0
 10
278.6455
 20
-385.3545
 30
0
 70
192
 0
VERTEX
 8
MESH_175_F0
 10
274.9223
 20
-381.1917
 30
0
 70
192
 0
VERTEX
 8
MESH_175_F0
 10
271.685
 20
-376.6362
 30
0
 70
192
 0
VERTEX
 8
MESH_175_F0
 10
268.9756
 20
-371.7439
 30
0
 70
192
 0
VERTEX
 8
MESH_175_F0
 10
266.8232
 20
-366.558
 30
0
 70
192
 0
VERTEX
 8
MESH_175_F0
 10
265.266
 20
-361.1798
 30
0
 70
192
 0
VERTEX
 8
MESH_175_F0
 10
264.3229
 20
-355.6553
 30
0
 70
192
 0
VERTEX
 8
MESH_175_F0
 10
264
 20
-350
 30
0
 70
192
 0
VERTEX
 8
MESH_175_F0
 10
264
 20
-350
 30
25
 70
192
 0
VERTEX
 8
MESH_175_F0
 10
264.3229
 20
-355.6553
 30
25
 70
192
 0
VERTEX
 8
MESH_175_F0
 10
265.266
 20
-361.1798
 30
25
 70
192
 0
VERTEX
 8
MESH_175_F0
 10
266.8232
 20
-366.558
 30
25
 70
192
 0
VERTEX
 8
MESH_175_F0
 10
268.9756
 20
-371.7439
 30
25
 70
192
 0
VERTEX
 8
MESH_175_F0
 10
271.685
 20
-376.6362
 30
25
 70
192
 0
VERTEX
 8
MESH_175_F0
 10
274.9223
 20
-381.1917
 30
25
 70
192
 0
VERTEX
 8
MESH_175_F0
 10
278.6455
 20
-385.3545
 30
25
 70
192
 0
VERTEX
 8
MESH_175_F0
 10
282.8083
 20
-389.0777
 30
25
 70
192
 0
VERTEX
 8
MESH_175_F0
 10
287.3638
 20
-392.315
 30
25
 70
192
 0
VERTEX
 8
MESH_175_F0
 10
292.2561
 20
-395.0244
 30
25
 70
192
 0
VERTEX
 8
MESH_175_F0
 10
297.442
 20
-397.1768
 30
25
 70
192
 0
VERTEX
 8
MESH_175_F0
 10
302.8202
 20
-398.734
 30
25
 70
192
 0
VERTEX
 8
MESH_175_F0
 10
308.3447
 20
-399.6771
 30
25
 70
192
 0
VERTEX
 8
MESH_175_F0
 10
0
 20
0
 30
0
 70
128
 71
30
 72
2
 73
1
 74
1
 0
VERTEX
 8
MESH_175_F0
 10
0
 20
0
 30
0
 70
128
 71
3
 72
2
 73
30
 74
30
 0
VERTEX
 8
MESH_175_F0
 10
0
 20
0
 30
0
 70
128
 71
3
 72
30
 73
4
 74
4
 0
VERTEX
 8
MESH_175_F0
 10
0
 20
0
 30
0
 70
128
 71
30
 72
29
 73
4
 74
4
 0
VERTEX
 8
MESH_175_F0
 10
0
 20
0
 30
0
 70
128
 71
29
 72
5
 73
4
 74
4
 0
VERTEX
 8
MESH_175_F0
 10
0
 20
0
 30
0
 70
128
 71
28
 72
5
 73
29
 74
29
 0
VERTEX
 8
MESH_175_F0
 10
0
 20
0
 30
0
 70
128
 71
6
 72
5
 73
28
 74
28
 0
VERTEX
 8
MESH_175_F0
 10
0
 20
0
 30
0
 70
128
 71
7
 72
6
 73
27
 74
27
 0
VERTEX
 8
MESH_175_F0
 10
0
 20
0
 30
0
 70
128
 71
8
 72
7
 73
26
 74
26
 0
VERTEX
 8
MESH_175_F0
 10
0
 20
0
 30
0
 70
128
 71
9
 72
8
 73
25
 74
25
 0
VERTEX
 8
MESH_175_F0
 10
0
 20
0
 30
0
 70
128
 71
10
 72
9
 73
24
 74
24
 0
VERTEX
 8
MESH_175_F0
 10
0
 20
0
 30
0
 70
128
 71
11
 72
10
 73
23
 74
23
 0
VERTEX
 8
MESH_175_F0
 10
0
 20
0
 30
0
 70
128
 71
12
 72
11
 73
22
 74
22
 0
VERTEX
 8
MESH_175_F0
 10
0
 20
0
 30
0
 70
128
 71
13
 72
12
 73
21
 74
21
 0
VERTEX
 8
MESH_175_F0
 10
0
 20
0
 30
0
 70
128
 71
14
 72
13
 73
20
 74
20
 0
VERTEX
 8
MESH_175_F0
 10
0
 20
0
 30
0
 70
128
 71
15
 72
14
 73
19
 74
19
 0
VERTEX
 8
MESH_175_F0
 10
0
 20
0
 30
0
 70
128
 71
17
 72
15
 73
18
 74
18
 0
VERTEX
 8
MESH_175_F0
 10
0
 20
0
 30
0
 70
128
 71
15
 72
19
 73
18
 74
18
 0
VERTEX
 8
MESH_175_F0
 10
0
 20
0
 30
0
 70
128
 71
17
 72
16
 73
15
 74
15
 0
VERTEX
 8
MESH_175_F0
 10
0
 20
0
 30
0
 70
128
 71
14
 72
20
 73
19
 74
19
 0
VERTEX
 8
MESH_175_F0
 10
0
 20
0
 30
0
 70
128
 71
13
 72
21
 73
20
 74
20
 0
VERTEX
 8
MESH_175_F0
 10
0
 20
0
 30
0
 70
128
 71
12
 72
22
 73
21
 74
21
 0
VERTEX
 8
MESH_175_F0
 10
0
 20
0
 30
0
 70
128
 71
11
 72
23
 73
22
 74
22
 0
VERTEX
 8
MESH_175_F0
 10
0
 20
0
 30
0
 70
128
 71
10
 72
24
 73
23
 74
23
 0
VERTEX
 8
MESH_175_F0
 10
0
 20
0
 30
0
 70
128
 71
9
 72
25
 73
24
 74
24
 0
VERTEX
 8
MESH_175_F0
 10
0
 20
0
 30
0
 70
128
 71
8
 72
26
 73
25
 74
25
 0
VERTEX
 8
MESH_175_F0
 10
0
 20
0
 30
0
 70
128
 71
7
 72
27
 73
26
 74
26
 0
VERTEX
 8
MESH_175_F0
 10
0
 20
0
 30
0
 70
128
 71
6
 72
28
 73
27
 74
27
 0
SEQEND
 0
POLYLINE
 8
MESH_174_F0
 66
1
 10
0.0
 20
0.0
 30
0.0
 70
64
 71
4
 72
2
 0
VERTEX
 8
MESH_174_F0
 10
264
 20
-350
 30
25
 70
192
 0
VERTEX
 8
MESH_174_F0
 10
264
 20
-350
 30
0
 70
192
 0
VERTEX
 8
MESH_174_F0
 10
264
 20
-100
 30
0
 70
192
 0
VERTEX
 8
MESH_174_F0
 10
264
 20
-100
 30
25
 70
192
 0
VERTEX
 8
MESH_174_F0
 10
0
 20
0
 30
0
 70
128
 71
1
 72
3
 73
2
 74
2
 0
VERTEX
 8
MESH_174_F0
 10
0
 20
0
 30
0
 70
128
 71
4
 72
3
 73
1
 74
1
 0
SEQEND
 0
POLYLINE
 8
MESH_173_F0
 66
1
 10
0.0
 20
0.0
 30
0.0
 70
64
 71
30
 72
28
 0
VERTEX
 8
MESH_173_F0
 10
264
 20
-100
 30
25
 70
192
 0
VERTEX
 8
MESH_173_F0
 10
264
 20
-100
 30
0
 70
192
 0
VERTEX
 8
MESH_173_F0
 10
264.3229
 20
-94.3447
 30
0
 70
192
 0
VERTEX
 8
MESH_173_F0
 10
265.266
 20
-88.8202
 30
0
 70
192
 0
VERTEX
 8
MESH_173_F0
 10
266.8232
 20
-83.442
 30
0
 70
192
 0
VERTEX
 8
MESH_173_F0
 10
268.9756
 20
-78.2561
 30
0
 70
192
 0
VERTEX
 8
MESH_173_F0
 10
271.685
 20
-73.3638
 30
0
 70
192
 0
VERTEX
 8
MESH_173_F0
 10
274.9223
 20
-68.8083
 30
0
 70
192
 0
VERTEX
 8
MESH_173_F0
 10
278.6455
 20
-64.6455
 30
0
 70
192
 0
VERTEX
 8
MESH_173_F0
 10
282.8083
 20
-60.9223
 30
0
 70
192
 0
VERTEX
 8
MESH_173_F0
 10
287.3638
 20
-57.685
 30
0
 70
192
 0
VERTEX
 8
MESH_173_F0
 10
292.2561
 20
-54.9756
 30
0
 70
192
 0
VERTEX
 8
MESH_173_F0
 10
297.442
 20
-52.8232
 30
0
 70
192
 0
VERTEX
 8
MESH_173_F0
 10
302.8202
 20
-51.2659
 30
0
 70
192
 0
VERTEX
 8
MESH_173_F0
 10
308.3447
 20
-50.3229
 30
0
 70
192
 0
VERTEX
 8
MESH_173_F0
 10
314
 20
-50
 30
0
 70
192
 0
VERTEX
 8
MESH_173_F0
 10
314
 20
-50
 30
25
 70
192
 0
VERTEX
 8
MESH_173_F0
 10
308.3447
 20
-50.3229
 30
25
 70
192
 0
VERTEX
 8
MESH_173_F0
 10
302.8202
 20
-51.2659
 30
25
 70
192
 0
VERTEX
 8
MESH_173_F0
 10
297.442
 20
-52.8232
 30
25
 70
192
 0
VERTEX
 8
MESH_173_F0
 10
292.2561
 20
-54.9756
 30
25
 70
192
 0
VERTEX
 8
MESH_173_F0
 10
287.3638
 20
-57.685
 30
25
 70
192
 0
VERTEX
 8
MESH_173_F0
 10
282.8083
 20
-60.9223
 30
25
 70
192
 0
VERTEX
 8
MESH_173_F0
 10
278.6455
 20
-64.6455
 30
25
 70
192
 0
VERTEX
 8
MESH_173_F0
 10
274.9223
 20
-68.8083
 30
25
 70
192
 0
VERTEX
 8
MESH_173_F0
 10
271.685
 20
-73.3638
 30
25
 70
192
 0
VERTEX
 8
MESH_173_F0
 10
268.9756
 20
-78.2561
 30
25
 70
192
 0
VERTEX
 8
MESH_173_F0
 10
266.8232
 20
-83.442
 30
25
 70
192
 0
VERTEX
 8
MESH_173_F0
 10
265.266
 20
-88.8202
 30
25
 70
192
 0
VERTEX
 8
MESH_173_F0
 10
264.3229
 20
-94.3447
 30
25
 70
192
 0
VERTEX
 8
MESH_173_F0
 10
0
 20
0
 30
0
 70
128
 71
30
 72
2
 73
1
 74
1
 0
VERTEX
 8
MESH_173_F0
 10
0
 20
0
 30
0
 70
128
 71
3
 72
2
 73
30
 74
30
 0
VERTEX
 8
MESH_173_F0
 10
0
 20
0
 30
0
 70
128
 71
3
 72
30
 73
4
 74
4
 0
VERTEX
 8
MESH_173_F0
 10
0
 20
0
 30
0
 70
128
 71
30
 72
29
 73
4
 74
4
 0
VERTEX
 8
MESH_173_F0
 10
0
 20
0
 30
0
 70
128
 71
29
 72
5
 73
4
 74
4
 0
VERTEX
 8
MESH_173_F0
 10
0
 20
0
 30
0
 70
128
 71
28
 72
5
 73
29
 74
29
 0
VERTEX
 8
MESH_173_F0
 10
0
 20
0
 30
0
 70
128
 71
6
 72
5
 73
28
 74
28
 0
VERTEX
 8
MESH_173_F0
 10
0
 20
0
 30
0
 70
128
 71
7
 72
6
 73
27
 74
27
 0
VERTEX
 8
MESH_173_F0
 10
0
 20
0
 30
0
 70
128
 71
8
 72
7
 73
26
 74
26
 0
VERTEX
 8
MESH_173_F0
 10
0
 20
0
 30
0
 70
128
 71
9
 72
8
 73
25
 74
25
 0
VERTEX
 8
MESH_173_F0
 10
0
 20
0
 30
0
 70
128
 71
10
 72
9
 73
24
 74
24
 0
VERTEX
 8
MESH_173_F0
 10
0
 20
0
 30
0
 70
128
 71
11
 72
10
 73
23
 74
23
 0
VERTEX
 8
MESH_173_F0
 10
0
 20
0
 30
0
 70
128
 71
12
 72
11
 73
22
 74
22
 0
VERTEX
 8
MESH_173_F0
 10
0
 20
0
 30
0
 70
128
 71
13
 72
12
 73
21
 74
21
 0
VERTEX
 8
MESH_173_F0
 10
0
 20
0
 30
0
 70
128
 71
14
 72
13
 73
20
 74
20
 0
VERTEX
 8
MESH_173_F0
 10
0
 20
0
 30
0
 70
128
 71
15
 72
14
 73
19
 74
19
 0
VERTEX
 8
MESH_173_F0
 10
0
 20
0
 30
0
 70
128
 71
17
 72
15
 73
18
 74
18
 0
VERTEX
 8
MESH_173_F0
 10
0
 20
0
 30
0
 70
128
 71
15
 72
19
 73
18
 74
18
 0
VERTEX
 8
MESH_173_F0
 10
0
 20
0
 30
0
 70
128
 71
17
 72
16
 73
15
 74
15
 0
VERTEX
 8
MESH_173_F0
 10
0
 20
0
 30
0
 70
128
 71
14
 72
20
 73
19
 74
19
 0
VERTEX
 8
MESH_173_F0
 10
0
 20
0
 30
0
 70
128
 71
13
 72
21
 73
20
 74
20
 0
VERTEX
 8
MESH_173_F0
 10
0
 20
0
 30
0
 70
128
 71
12
 72
22
 73
21
 74
21
 0
VERTEX
 8
MESH_173_F0
 10
0
 20
0
 30
0
 70
128
 71
11
 72
23
 73
22
 74
22
 0
VERTEX
 8
MESH_173_F0
 10
0
 20
0
 30
0
 70
128
 71
10
 72
24
 73
23
 74
23
 0
VERTEX
 8
MESH_173_F0
 10
0
 20
0
 30
0
 70
128
 71
9
 72
25
 73
24
 74
24
 0
VERTEX
 8
MESH_173_F0
 10
0
 20
0
 30
0
 70
128
 71
8
 72
26
 73
25
 74
25
 0
VERTEX
 8
MESH_173_F0
 10
0
 20
0
 30
0
 70
128
 71
7
 72
27
 73
26
 74
26
 0
VERTEX
 8
MESH_173_F0
 10
0
 20
0
 30
0
 70
128
 71
6
 72
28
 73
27
 74
27
 0
SEQEND
 0
POLYLINE
 8
MESH_172_F0
 66
1
 10
0.0
 20
0.0
 30
0.0
 70
64
 71
4
 72
2
 0
VERTEX
 8
MESH_172_F0
 10
314
 20
-50
 30
25
 70
192
 0
VERTEX
 8
MESH_172_F0
 10
314
 20
-50
 30
0
 70
192
 0
VERTEX
 8
MESH_172_F0
 10
334
 20
-50
 30
0
 70
192
 0
VERTEX
 8
MESH_172_F0
 10
334
 20
-50
 30
25
 70
192
 0
VERTEX
 8
MESH_172_F0
 10
0
 20
0
 30
0
 70
128
 71
1
 72
3
 73
2
 74
2
 0
VERTEX
 8
MESH_172_F0
 10
0
 20
0
 30
0
 70
128
 71
4
 72
3
 73
1
 74
1
 0
SEQEND
 0
POLYLINE
 8
MESH_171_F0
 66
1
 10
0.0
 20
0.0
 30
0.0
 70
64
 71
30
 72
28
 0
VERTEX
 8
MESH_171_F0
 10
334
 20
-50
 30
25
 70
192
 0
VERTEX
 8
MESH_171_F0
 10
334
 20
-50
 30
0
 70
192
 0
VERTEX
 8
MESH_171_F0
 10
339.6553
 20
-50.3229
 30
0
 70
192
 0
VERTEX
 8
MESH_171_F0
 10
345.1798
 20
-51.2659
 30
0
 70
192
 0
VERTEX
 8
MESH_171_F0
 10
350.558
 20
-52.8232
 30
0
 70
192
 0
VERTEX
 8
MESH_171_F0
 10
355.7439
 20
-54.9756
 30
0
 70
192
 0
VERTEX
 8
MESH_171_F0
 10
360.6362
 20
-57.685
 30
0
 70
192
 0
VERTEX
 8
MESH_171_F0
 10
365.1917
 20
-60.9223
 30
0
 70
192
 0
VERTEX
 8
MESH_171_F0
 10
369.3545
 20
-64.6455
 30
0
 70
192
 0
VERTEX
 8
MESH_171_F0
 10
373.0777
 20
-68.8083
 30
0
 70
192
 0
VERTEX
 8
MESH_171_F0
 10
376.315
 20
-73.3638
 30
0
 70
192
 0
VERTEX
 8
MESH_171_F0
 10
379.0244
 20
-78.2561
 30
0
 70
192
 0
VERTEX
 8
MESH_171_F0
 10
381.1768
 20
-83.442
 30
0
 70
192
 0
VERTEX
 8
MESH_171_F0
 10
382.734
 20
-88.8202
 30
0
 70
192
 0
VERTEX
 8
MESH_171_F0
 10
383.6771
 20
-94.3447
 30
0
 70
192
 0
VERTEX
 8
MESH_171_F0
 10
384
 20
-100
 30
0
 70
192
 0
VERTEX
 8
MESH_171_F0
 10
384
 20
-100
 30
25
 70
192
 0
VERTEX
 8
MESH_171_F0
 10
383.6771
 20
-94.3447
 30
25
 70
192
 0
VERTEX
 8
MESH_171_F0
 10
382.734
 20
-88.8202
 30
25
 70
192
 0
VERTEX
 8
MESH_171_F0
 10
381.1768
 20
-83.442
 30
25
 70
192
 0
VERTEX
 8
MESH_171_F0
 10
379.0244
 20
-78.2561
 30
25
 70
192
 0
VERTEX
 8
MESH_171_F0
 10
376.315
 20
-73.3638
 30
25
 70
192
 0
VERTEX
 8
MESH_171_F0
 10
373.0777
 20
-68.8083
 30
25
 70
192
 0
VERTEX
 8
MESH_171_F0
 10
369.3545
 20
-64.6455
 30
25
 70
192
 0
VERTEX
 8
MESH_171_F0
 10
365.1917
 20
-60.9223
 30
25
 70
192
 0
VERTEX
 8
MESH_171_F0
 10
360.6362
 20
-57.685
 30
25
 70
192
 0
VERTEX
 8
MESH_171_F0
 10
355.7439
 20
-54.9756
 30
25
 70
192
 0
VERTEX
 8
MESH_171_F0
 10
350.558
 20
-52.8232
 30
25
 70
192
 0
VERTEX
 8
MESH_171_F0
 10
345.1798
 20
-51.2659
 30
25
 70
192
 0
VERTEX
 8
MESH_171_F0
 10
339.6553
 20
-50.3229
 30
25
 70
192
 0
VERTEX
 8
MESH_171_F0
 10
0
 20
0
 30
0
 70
128
 71
30
 72
2
 73
1
 74
1
 0
VERTEX
 8
MESH_171_F0
 10
0
 20
0
 30
0
 70
128
 71
3
 72
2
 73
30
 74
30
 0
VERTEX
 8
MESH_171_F0
 10
0
 20
0
 30
0
 70
128
 71
3
 72
30
 73
4
 74
4
 0
VERTEX
 8
MESH_171_F0
 10
0
 20
0
 30
0
 70
128
 71
30
 72
29
 73
4
 74
4
 0
VERTEX
 8
MESH_171_F0
 10
0
 20
0
 30
0
 70
128
 71
29
 72
5
 73
4
 74
4
 0
VERTEX
 8
MESH_171_F0
 10
0
 20
0
 30
0
 70
128
 71
28
 72
5
 73
29
 74
29
 0
VERTEX
 8
MESH_171_F0
 10
0
 20
0
 30
0
 70
128
 71
6
 72
5
 73
28
 74
28
 0
VERTEX
 8
MESH_171_F0
 10
0
 20
0
 30
0
 70
128
 71
7
 72
6
 73
27
 74
27
 0
VERTEX
 8
MESH_171_F0
 10
0
 20
0
 30
0
 70
128
 71
8
 72
7
 73
26
 74
26
 0
VERTEX
 8
MESH_171_F0
 10
0
 20
0
 30
0
 70
128
 71
9
 72
8
 73
25
 74
25
 0
VERTEX
 8
MESH_171_F0
 10
0
 20
0
 30
0
 70
128
 71
10
 72
9
 73
24
 74
24
 0
VERTEX
 8
MESH_171_F0
 10
0
 20
0
 30
0
 70
128
 71
11
 72
10
 73
23
 74
23
 0
VERTEX
 8
MESH_171_F0
 10
0
 20
0
 30
0
 70
128
 71
12
 72
11
 73
22
 74
22
 0
VERTEX
 8
MESH_171_F0
 10
0
 20
0
 30
0
 70
128
 71
13
 72
12
 73
21
 74
21
 0
VERTEX
 8
MESH_171_F0
 10
0
 20
0
 30
0
 70
128
 71
14
 72
13
 73
20
 74
20
 0
VERTEX
 8
MESH_171_F0
 10
0
 20
0
 30
0
 70
128
 71
15
 72
14
 73
19
 74
19
 0
VERTEX
 8
MESH_171_F0
 10
0
 20
0
 30
0
 70
128
 71
17
 72
15
 73
18
 74
18
 0
VERTEX
 8
MESH_171_F0
 10
0
 20
0
 30
0
 70
128
 71
15
 72
19
 73
18
 74
18
 0
VERTEX
 8
MESH_171_F0
 10
0
 20
0
 30
0
 70
128
 71
17
 72
16
 73
15
 74
15
 0
VERTEX
 8
MESH_171_F0
 10
0
 20
0
 30
0
 70
128
 71
14
 72
20
 73
19
 74
19
 0
VERTEX
 8
MESH_171_F0
 10
0
 20
0
 30
0
 70
128
 71
13
 72
21
 73
20
 74
20
 0
VERTEX
 8
MESH_171_F0
 10
0
 20
0
 30
0
 70
128
 71
12
 72
22
 73
21
 74
21
 0
VERTEX
 8
MESH_171_F0
 10
0
 20
0
 30
0
 70
128
 71
11
 72
23
 73
22
 74
22
 0
VERTEX
 8
MESH_171_F0
 10
0
 20
0
 30
0
 70
128
 71
10
 72
24
 73
23
 74
23
 0
VERTEX
 8
MESH_171_F0
 10
0
 20
0
 30
0
 70
128
 71
9
 72
25
 73
24
 74
24
 0
VERTEX
 8
MESH_171_F0
 10
0
 20
0
 30
0
 70
128
 71
8
 72
26
 73
25
 74
25
 0
VERTEX
 8
MESH_171_F0
 10
0
 20
0
 30
0
 70
128
 71
7
 72
27
 73
26
 74
26
 0
VERTEX
 8
MESH_171_F0
 10
0
 20
0
 30
0
 70
128
 71
6
 72
28
 73
27
 74
27
 0
SEQEND
 0
POLYLINE
 8
MESH_170_F0
 66
1
 10
0.0
 20
0.0
 30
0.0
 70
64
 71
4
 72
2
 0
VERTEX
 8
MESH_170_F0
 10
384
 20
-100
 30
25
 70
192
 0
VERTEX
 8
MESH_170_F0
 10
384
 20
-100
 30
0
 70
192
 0
VERTEX
 8
MESH_170_F0
 10
384
 20
-350
 30
0
 70
192
 0
VERTEX
 8
MESH_170_F0
 10
384
 20
-350
 30
25
 70
192
 0
VERTEX
 8
MESH_170_F0
 10
0
 20
0
 30
0
 70
128
 71
1
 72
3
 73
2
 74
2
 0
VERTEX
 8
MESH_170_F0
 10
0
 20
0
 30
0
 70
128
 71
4
 72
3
 73
1
 74
1
 0
SEQEND
 0
POLYLINE
 8
MESH_169_F0
 66
1
 10
0.0
 20
0.0
 30
0.0
 70
64
 71
30
 72
28
 0
VERTEX
 8
MESH_169_F0
 10
384
 20
-350
 30
25
 70
192
 0
VERTEX
 8
MESH_169_F0
 10
384
 20
-350
 30
0
 70
192
 0
VERTEX
 8
MESH_169_F0
 10
383.6771
 20
-355.6553
 30
0
 70
192
 0
VERTEX
 8
MESH_169_F0
 10
382.734
 20
-361.1798
 30
0
 70
192
 0
VERTEX
 8
MESH_169_F0
 10
381.1768
 20
-366.558
 30
0
 70
192
 0
VERTEX
 8
MESH_169_F0
 10
379.0244
 20
-371.7439
 30
0
 70
192
 0
VERTEX
 8
MESH_169_F0
 10
376.315
 20
-376.6362
 30
0
 70
192
 0
VERTEX
 8
MESH_169_F0
 10
373.0777
 20
-381.1917
 30
0
 70
192
 0
VERTEX
 8
MESH_169_F0
 10
369.3545
 20
-385.3545
 30
0
 70
192
 0
VERTEX
 8
MESH_169_F0
 10
365.1917
 20
-389.0777
 30
0
 70
192
 0
VERTEX
 8
MESH_169_F0
 10
360.6362
 20
-392.315
 30
0
 70
192
 0
VERTEX
 8
MESH_169_F0
 10
355.7439
 20
-395.0244
 30
0
 70
192
 0
VERTEX
 8
MESH_169_F0
 10
350.558
 20
-397.1768
 30
0
 70
192
 0
VERTEX
 8
MESH_169_F0
 10
345.1798
 20
-398.734
 30
0
 70
192
 0
VERTEX
 8
MESH_169_F0
 10
339.6553
 20
-399.6771
 30
0
 70
192
 0
VERTEX
 8
MESH_169_F0
 10
334
 20
-400
 30
0
 70
192
 0
VERTEX
 8
MESH_169_F0
 10
334
 20
-400
 30
25
 70
192
 0
VERTEX
 8
MESH_169_F0
 10
339.6553
 20
-399.6771
 30
25
 70
192
 0
VERTEX
 8
MESH_169_F0
 10
345.1798
 20
-398.734
 30
25
 70
192
 0
VERTEX
 8
MESH_169_F0
 10
350.558
 20
-397.1768
 30
25
 70
192
 0
VERTEX
 8
MESH_169_F0
 10
355.7439
 20
-395.0244
 30
25
 70
192
 0
VERTEX
 8
MESH_169_F0
 10
360.6362
 20
-392.315
 30
25
 70
192
 0
VERTEX
 8
MESH_169_F0
 10
365.1917
 20
-389.0777
 30
25
 70
192
 0
VERTEX
 8
MESH_169_F0
 10
369.3545
 20
-385.3545
 30
25
 70
192
 0
VERTEX
 8
MESH_169_F0
 10
373.0777
 20
-381.1917
 30
25
 70
192
 0
VERTEX
 8
MESH_169_F0
 10
376.315
 20
-376.6362
 30
25
 70
192
 0
VERTEX
 8
MESH_169_F0
 10
379.0244
 20
-371.7439
 30
25
 70
192
 0
VERTEX
 8
MESH_169_F0
 10
381.1768
 20
-366.558
 30
25
 70
192
 0
VERTEX
 8
MESH_169_F0
 10
382.734
 20
-361.1798
 30
25
 70
192
 0
VERTEX
 8
MESH_169_F0
 10
383.6771
 20
-355.6553
 30
25
 70
192
 0
VERTEX
 8
MESH_169_F0
 10
0
 20
0
 30
0
 70
128
 71
30
 72
2
 73
1
 74
1
 0
VERTEX
 8
MESH_169_F0
 10
0
 20
0
 30
0
 70
128
 71
3
 72
2
 73
30
 74
30
 0
VERTEX
 8
MESH_169_F0
 10
0
 20
0
 30
0
 70
128
 71
3
 72
30
 73
4
 74
4
 0
VERTEX
 8
MESH_169_F0
 10
0
 20
0
 30
0
 70
128
 71
30
 72
29
 73
4
 74
4
 0
VERTEX
 8
MESH_169_F0
 10
0
 20
0
 30
0
 70
128
 71
29
 72
5
 73
4
 74
4
 0
VERTEX
 8
MESH_169_F0
 10
0
 20
0
 30
0
 70
128
 71
28
 72
5
 73
29
 74
29
 0
VERTEX
 8
MESH_169_F0
 10
0
 20
0
 30
0
 70
128
 71
6
 72
5
 73
28
 74
28
 0
VERTEX
 8
MESH_169_F0
 10
0
 20
0
 30
0
 70
128
 71
7
 72
6
 73
27
 74
27
 0
VERTEX
 8
MESH_169_F0
 10
0
 20
0
 30
0
 70
128
 71
8
 72
7
 73
26
 74
26
 0
VERTEX
 8
MESH_169_F0
 10
0
 20
0
 30
0
 70
128
 71
9
 72
8
 73
25
 74
25
 0
VERTEX
 8
MESH_169_F0
 10
0
 20
0
 30
0
 70
128
 71
10
 72
9
 73
24
 74
24
 0
VERTEX
 8
MESH_169_F0
 10
0
 20
0
 30
0
 70
128
 71
11
 72
10
 73
23
 74
23
 0
VERTEX
 8
MESH_169_F0
 10
0
 20
0
 30
0
 70
128
 71
12
 72
11
 73
22
 74
22
 0
VERTEX
 8
MESH_169_F0
 10
0
 20
0
 30
0
 70
128
 71
13
 72
12
 73
21
 74
21
 0
VERTEX
 8
MESH_169_F0
 10
0
 20
0
 30
0
 70
128
 71
14
 72
13
 73
20
 74
20
 0
VERTEX
 8
MESH_169_F0
 10
0
 20
0
 30
0
 70
128
 71
15
 72
14
 73
19
 74
19
 0
VERTEX
 8
MESH_169_F0
 10
0
 20
0
 30
0
 70
128
 71
17
 72
15
 73
18
 74
18
 0
VERTEX
 8
MESH_169_F0
 10
0
 20
0
 30
0
 70
128
 71
15
 72
19
 73
18
 74
18
 0
VERTEX
 8
MESH_169_F0
 10
0
 20
0
 30
0
 70
128
 71
17
 72
16
 73
15
 74
15
 0
VERTEX
 8
MESH_169_F0
 10
0
 20
0
 30
0
 70
128
 71
14
 72
20
 73
19
 74
19
 0
VERTEX
 8
MESH_169_F0
 10
0
 20
0
 30
0
 70
128
 71
13
 72
21
 73
20
 74
20
 0
VERTEX
 8
MESH_169_F0
 10
0
 20
0
 30
0
 70
128
 71
12
 72
22
 73
21
 74
21
 0
VERTEX
 8
MESH_169_F0
 10
0
 20
0
 30
0
 70
128
 71
11
 72
23
 73
22
 74
22
 0
VERTEX
 8
MESH_169_F0
 10
0
 20
0
 30
0
 70
128
 71
10
 72
24
 73
23
 74
23
 0
VERTEX
 8
MESH_169_F0
 10
0
 20
0
 30
0
 70
128
 71
9
 72
25
 73
24
 74
24
 0
VERTEX
 8
MESH_169_F0
 10
0
 20
0
 30
0
 70
128
 71
8
 72
26
 73
25
 74
25
 0
VERTEX
 8
MESH_169_F0
 10
0
 20
0
 30
0
 70
128
 71
7
 72
27
 73
26
 74
26
 0
VERTEX
 8
MESH_169_F0
 10
0
 20
0
 30
0
 70
128
 71
6
 72
28
 73
27
 74
27
 0
SEQEND
 0
POLYLINE
 8
MESH_168_F0
 66
1
 10
0.0
 20
0.0
 30
0.0
 70
64
 71
172
 72
174
 0
VERTEX
 8
MESH_168_F0
 10
-266
 20
-350
 30
25
 70
192
 0
VERTEX
 8
MESH_168_F0
 10
-266.3229
 20
-355.6553
 30
25
 70
192
 0
VERTEX
 8
MESH_168_F0
 10
-267.266
 20
-361.1798
 30
25
 70
192
 0
VERTEX
 8
MESH_168_F0
 10
-268.8232
 20
-366.558
 30
25
 70
192
 0
VERTEX
 8
MESH_168_F0
 10
-270.9756
 20
-371.7439
 30
25
 70
192
 0
VERTEX
 8
MESH_168_F0
 10
-273.685
 20
-376.6362
 30
25
 70
192
 0
VERTEX
 8
MESH_168_F0
 10
-276.9223
 20
-381.1917
 30
25
 70
192
 0
VERTEX
 8
MESH_168_F0
 10
-280.6455
 20
-385.3545
 30
25
 70
192
 0
VERTEX
 8
MESH_168_F0
 10
-284.8083
 20
-389.0777
 30
25
 70
192
 0
VERTEX
 8
MESH_168_F0
 10
-289.3638
 20
-392.315
 30
25
 70
192
 0
VERTEX
 8
MESH_168_F0
 10
-294.2561
 20
-395.0244
 30
25
 70
192
 0
VERTEX
 8
MESH_168_F0
 10
-299.442
 20
-397.1768
 30
25
 70
192
 0
VERTEX
 8
MESH_168_F0
 10
-304.8202
 20
-398.734
 30
25
 70
192
 0
VERTEX
 8
MESH_168_F0
 10
-310.3447
 20
-399.6771
 30
25
 70
192
 0
VERTEX
 8
MESH_168_F0
 10
-316
 20
-400
 30
25
 70
192
 0
VERTEX
 8
MESH_168_F0
 10
-336
 20
-400
 30
25
 70
192
 0
VERTEX
 8
MESH_168_F0
 10
-341.6553
 20
-399.6771
 30
25
 70
192
 0
VERTEX
 8
MESH_168_F0
 10
-347.1798
 20
-398.734
 30
25
 70
192
 0
VERTEX
 8
MESH_168_F0
 10
-352.558
 20
-397.1768
 30
25
 70
192
 0
VERTEX
 8
MESH_168_F0
 10
-357.7439
 20
-395.0244
 30
25
 70
192
 0
VERTEX
 8
MESH_168_F0
 10
-362.6362
 20
-392.315
 30
25
 70
192
 0
VERTEX
 8
MESH_168_F0
 10
-367.1917
 20
-389.0777
 30
25
 70
192
 0
VERTEX
 8
MESH_168_F0
 10
-371.3545
 20
-385.3545
 30
25
 70
192
 0
VERTEX
 8
MESH_168_F0
 10
-375.0777
 20
-381.1917
 30
25
 70
192
 0
VERTEX
 8
MESH_168_F0
 10
-378.315
 20
-376.6362
 30
25
 70
192
 0
VERTEX
 8
MESH_168_F0
 10
-381.0244
 20
-371.7439
 30
25
 70
192
 0
VERTEX
 8
MESH_168_F0
 10
-383.1768
 20
-366.558
 30
25
 70
192
 0
VERTEX
 8
MESH_168_F0
 10
-384.734
 20
-361.1798
 30
25
 70
192
 0
VERTEX
 8
MESH_168_F0
 10
-385.6771
 20
-355.6553
 30
25
 70
192
 0
VERTEX
 8
MESH_168_F0
 10
-386
 20
-350
 30
25
 70
192
 0
VERTEX
 8
MESH_168_F0
 10
-386
 20
-100
 30
25
 70
192
 0
VERTEX
 8
MESH_168_F0
 10
-385.6771
 20
-94.3447
 30
25
 70
192
 0
VERTEX
 8
MESH_168_F0
 10
-384.734
 20
-88.8202
 30
25
 70
192
 0
VERTEX
 8
MESH_168_F0
 10
-383.1768
 20
-83.442
 30
25
 70
192
 0
VERTEX
 8
MESH_168_F0
 10
-381.0244
 20
-78.2561
 30
25
 70
192
 0
VERTEX
 8
MESH_168_F0
 10
-378.315
 20
-73.3638
 30
25
 70
192
 0
VERTEX
 8
MESH_168_F0
 10
-375.0777
 20
-68.8083
 30
25
 70
192
 0
VERTEX
 8
MESH_168_F0
 10
-371.3545
 20
-64.6455
 30
25
 70
192
 0
VERTEX
 8
MESH_168_F0
 10
-367.1917
 20
-60.9223
 30
25
 70
192
 0
VERTEX
 8
MESH_168_F0
 10
-362.6362
 20
-57.685
 30
25
 70
192
 0
VERTEX
 8
MESH_168_F0
 10
-357.7439
 20
-54.9756
 30
25
 70
192
 0
VERTEX
 8
MESH_168_F0
 10
-352.558
 20
-52.8232
 30
25
 70
192
 0
VERTEX
 8
MESH_168_F0
 10
-347.1798
 20
-51.2659
 30
25
 70
192
 0
VERTEX
 8
MESH_168_F0
 10
-341.6553
 20
-50.3229
 30
25
 70
192
 0
VERTEX
 8
MESH_168_F0
 10
-336
 20
-50
 30
25
 70
192
 0
VERTEX
 8
MESH_168_F0
 10
-316
 20
-50
 30
25
 70
192
 0
VERTEX
 8
MESH_168_F0
 10
-310.3447
 20
-50.3229
 30
25
 70
192
 0
VERTEX
 8
MESH_168_F0
 10
-304.8202
 20
-51.2659
 30
25
 70
192
 0
VERTEX
 8
MESH_168_F0
 10
-299.442
 20
-52.8232
 30
25
 70
192
 0
VERTEX
 8
MESH_168_F0
 10
-294.2561
 20
-54.9756
 30
25
 70
192
 0
VERTEX
 8
MESH_168_F0
 10
-289.3638
 20
-57.685
 30
25
 70
192
 0
VERTEX
 8
MESH_168_F0
 10
-284.8083
 20
-60.9223
 30
25
 70
192
 0
VERTEX
 8
MESH_168_F0
 10
-280.6455
 20
-64.6455
 30
25
 70
192
 0
VERTEX
 8
MESH_168_F0
 10
-276.9223
 20
-68.8083
 30
25
 70
192
 0
VERTEX
 8
MESH_168_F0
 10
-273.685
 20
-73.3638
 30
25
 70
192
 0
VERTEX
 8
MESH_168_F0
 10
-270.9756
 20
-78.2561
 30
25
 70
192
 0
VERTEX
 8
MESH_168_F0
 10
-268.8232
 20
-83.442
 30
25
 70
192
 0
VERTEX
 8
MESH_168_F0
 10
-267.266
 20
-88.8202
 30
25
 70
192
 0
VERTEX
 8
MESH_168_F0
 10
-266.3229
 20
-94.3447
 30
25
 70
192
 0
VERTEX
 8
MESH_168_F0
 10
-266
 20
-100
 30
25
 70
192
 0
VERTEX
 8
MESH_168_F0
 10
384
 20
-350
 30
25
 70
192
 0
VERTEX
 8
MESH_168_F0
 10
383.6771
 20
-355.6553
 30
25
 70
192
 0
VERTEX
 8
MESH_168_F0
 10
382.734
 20
-361.1798
 30
25
 70
192
 0
VERTEX
 8
MESH_168_F0
 10
381.1768
 20
-366.558
 30
25
 70
192
 0
VERTEX
 8
MESH_168_F0
 10
379.0244
 20
-371.7439
 30
25
 70
192
 0
VERTEX
 8
MESH_168_F0
 10
376.315
 20
-376.6362
 30
25
 70
192
 0
VERTEX
 8
MESH_168_F0
 10
373.0777
 20
-381.1917
 30
25
 70
192
 0
VERTEX
 8
MESH_168_F0
 10
369.3545
 20
-385.3545
 30
25
 70
192
 0
VERTEX
 8
MESH_168_F0
 10
365.1917
 20
-389.0777
 30
25
 70
192
 0
VERTEX
 8
MESH_168_F0
 10
360.6362
 20
-392.315
 30
25
 70
192
 0
VERTEX
 8
MESH_168_F0
 10
355.7439
 20
-395.0244
 30
25
 70
192
 0
VERTEX
 8
MESH_168_F0
 10
350.558
 20
-397.1768
 30
25
 70
192
 0
VERTEX
 8
MESH_168_F0
 10
345.1798
 20
-398.734
 30
25
 70
192
 0
VERTEX
 8
MESH_168_F0
 10
339.6553
 20
-399.6771
 30
25
 70
192
 0
VERTEX
 8
MESH_168_F0
 10
334
 20
-400
 30
25
 70
192
 0
VERTEX
 8
MESH_168_F0
 10
314
 20
-400
 30
25
 70
192
 0
VERTEX
 8
MESH_168_F0
 10
308.3447
 20
-399.6771
 30
25
 70
192
 0
VERTEX
 8
MESH_168_F0
 10
302.8202
 20
-398.734
 30
25
 70
192
 0
VERTEX
 8
MESH_168_F0
 10
297.442
 20
-397.1768
 30
25
 70
192
 0
VERTEX
 8
MESH_168_F0
 10
292.2561
 20
-395.0244
 30
25
 70
192
 0
VERTEX
 8
MESH_168_F0
 10
287.3638
 20
-392.315
 30
25
 70
192
 0
VERTEX
 8
MESH_168_F0
 10
282.8083
 20
-389.0777
 30
25
 70
192
 0
VERTEX
 8
MESH_168_F0
 10
278.6455
 20
-385.3545
 30
25
 70
192
 0
VERTEX
 8
MESH_168_F0
 10
274.9223
 20
-381.1917
 30
25
 70
192
 0
VERTEX
 8
MESH_168_F0
 10
271.685
 20
-376.6362
 30
25
 70
192
 0
VERTEX
 8
MESH_168_F0
 10
268.9756
 20
-371.7439
 30
25
 70
192
 0
VERTEX
 8
MESH_168_F0
 10
266.8232
 20
-366.558
 30
25
 70
192
 0
VERTEX
 8
MESH_168_F0
 10
265.266
 20
-361.1798
 30
25
 70
192
 0
VERTEX
 8
MESH_168_F0
 10
264.3229
 20
-355.6553
 30
25
 70
192
 0
VERTEX
 8
MESH_168_F0
 10
264
 20
-350
 30
25
 70
192
 0
VERTEX
 8
MESH_168_F0
 10
264
 20
-100
 30
25
 70
192
 0
VERTEX
 8
MESH_168_F0
 10
264.3229
 20
-94.3447
 30
25
 70
192
 0
VERTEX
 8
MESH_168_F0
 10
265.266
 20
-88.8202
 30
25
 70
192
 0
VERTEX
 8
MESH_168_F0
 10
266.8232
 20
-83.442
 30
25
 70
192
 0
VERTEX
 8
MESH_168_F0
 10
268.9756
 20
-78.2561
 30
25
 70
192
 0
VERTEX
 8
MESH_168_F0
 10
271.685
 20
-73.3638
 30
25
 70
192
 0
VERTEX
 8
MESH_168_F0
 10
274.9223
 20
-68.8083
 30
25
 70
192
 0
VERTEX
 8
MESH_168_F0
 10
278.6455
 20
-64.6455
 30
25
 70
192
 0
VERTEX
 8
MESH_168_F0
 10
282.8083
 20
-60.9223
 30
25
 70
192
 0
VERTEX
 8
MESH_168_F0
 10
287.3638
 20
-57.685
 30
25
 70
192
 0
VERTEX
 8
MESH_168_F0
 10
292.2561
 20
-54.9756
 30
25
 70
192
 0
VERTEX
 8
MESH_168_F0
 10
297.442
 20
-52.8232
 30
25
 70
192
 0
VERTEX
 8
MESH_168_F0
 10
302.8202
 20
-51.2659
 30
25
 70
192
 0
VERTEX
 8
MESH_168_F0
 10
308.3447
 20
-50.3229
 30
25
 70
192
 0
VERTEX
 8
MESH_168_F0
 10
314
 20
-50
 30
25
 70
192
 0
VERTEX
 8
MESH_168_F0
 10
334
 20
-50
 30
25
 70
192
 0
VERTEX
 8
MESH_168_F0
 10
339.6553
 20
-50.3229
 30
25
 70
192
 0
VERTEX
 8
MESH_168_F0
 10
345.1798
 20
-51.2659
 30
25
 70
192
 0
VERTEX
 8
MESH_168_F0
 10
350.558
 20
-52.8232
 30
25
 70
192
 0
VERTEX
 8
MESH_168_F0
 10
355.7439
 20
-54.9756
 30
25
 70
192
 0
VERTEX
 8
MESH_168_F0
 10
360.6362
 20
-57.685
 30
25
 70
192
 0
VERTEX
 8
MESH_168_F0
 10
365.1917
 20
-60.9223
 30
25
 70
192
 0
VERTEX
 8
MESH_168_F0
 10
369.3545
 20
-64.6455
 30
25
 70
192
 0
VERTEX
 8
MESH_168_F0
 10
373.0777
 20
-68.8083
 30
25
 70
192
 0
VERTEX
 8
MESH_168_F0
 10
376.315
 20
-73.3638
 30
25
 70
192
 0
VERTEX
 8
MESH_168_F0
 10
379.0244
 20
-78.2561
 30
25
 70
192
 0
VERTEX
 8
MESH_168_F0
 10
381.1768
 20
-83.442
 30
25
 70
192
 0
VERTEX
 8
MESH_168_F0
 10
382.734
 20
-88.8202
 30
25
 70
192
 0
VERTEX
 8
MESH_168_F0
 10
383.6771
 20
-94.3447
 30
25
 70
192
 0
VERTEX
 8
MESH_168_F0
 10
384
 20
-100
 30
25
 70
192
 0
VERTEX
 8
MESH_168_F0
 10
674
 20
-441
 30
25
 70
192
 0
VERTEX
 8
MESH_168_F0
 10
675.7286
 20
-440.9392
 30
25
 70
192
 0
VERTEX
 8
MESH_168_F0
 10
677.4273
 20
-440.7711
 30
25
 70
192
 0
VERTEX
 8
MESH_168_F0
 10
679.0992
 20
-440.4948
 30
25
 70
192
 0
VERTEX
 8
MESH_168_F0
 10
680.7476
 20
-440.1091
 30
25
 70
192
 0
VERTEX
 8
MESH_168_F0
 10
682.3683
 20
-439.6154
 30
25
 70
192
 0
VERTEX
 8
MESH_168_F0
 10
683.9592
 20
-439.0153
 30
25
 70
192
 0
VERTEX
 8
MESH_168_F0
 10
685.5108
 20
-438.3119
 30
25
 70
192
 0
VERTEX
 8
MESH_168_F0
 10
687.0135
 20
-437.5087
 30
25
 70
192
 0
VERTEX
 8
MESH_168_F0
 10
688.4563
 20
-436.6107
 30
25
 70
192
 0
VERTEX
 8
MESH_168_F0
 10
689.8358
 20
-435.6211
 30
25
 70
192
 0
VERTEX
 8
MESH_168_F0
 10
691.147
 20
-434.5441
 30
25
 70
192
 0
VERTEX
 8
MESH_168_F0
 10
692.385
 20
-433.3843
 30
25
 70
192
 0
VERTEX
 8
MESH_168_F0
 10
693.5447
 20
-432.1463
 30
25
 70
192
 0
VERTEX
 8
MESH_168_F0
 10
694.6216
 20
-430.8351
 30
25
 70
192
 0
VERTEX
 8
MESH_168_F0
 10
695.6112
 20
-429.4556
 30
25
 70
192
 0
VERTEX
 8
MESH_168_F0
 10
696.5091
 20
-428.0129
 30
25
 70
192
 0
VERTEX
 8
MESH_168_F0
 10
697.3122
 20
-426.5102
 30
25
 70
192
 0
VERTEX
 8
MESH_168_F0
 10
698.0155
 20
-424.9586
 30
25
 70
192
 0
VERTEX
 8
MESH_168_F0
 10
698.6156
 20
-423.3678
 30
25
 70
192
 0
VERTEX
 8
MESH_168_F0
 10
699.1092
 20
-421.7472
 30
25
 70
192
 0
VERTEX
 8
MESH_168_F0
 10
699.4949
 20
-420.0989
 30
25
 70
192
 0
VERTEX
 8
MESH_168_F0
 10
699.7711
 20
-418.4271
 30
25
 70
192
 0
VERTEX
 8
MESH_168_F0
 10
699.9391
 20
-416.7285
 30
25
 70
192
 0
VERTEX
 8
MESH_168_F0
 10
700
 20
-415
 30
25
 70
192
 0
VERTEX
 8
MESH_168_F0
 10
700
 20
0
 30
25
 70
192
 0
VERTEX
 8
MESH_168_F0
 10
-702
 20
0
 30
25
 70
192
 0
VERTEX
 8
MESH_168_F0
 10
-702
 20
-415
 30
25
 70
192
 0
VERTEX
 8
MESH_168_F0
 10
-701.9391
 20
-416.7286
 30
25
 70
192
 0
VERTEX
 8
MESH_168_F0
 10
-701.7711
 20
-418.4273
 30
25
 70
192
 0
VERTEX
 8
MESH_168_F0
 10
-701.4948
 20
-420.0992
 30
25
 70
192
 0
VERTEX
 8
MESH_168_F0
 10
-701.1091
 20
-421.7477
 30
25
 70
192
 0
VERTEX
 8
MESH_168_F0
 10
-700.6154
 20
-423.3683
 30
25
 70
192
 0
VERTEX
 8
MESH_168_F0
 10
-700.0153
 20
-424.9592
 30
25
 70
192
 0
VERTEX
 8
MESH_168_F0
 10
-699.3119
 20
-426.5108
 30
25
 70
192
 0
VERTEX
 8
MESH_168_F0
 10
-698.5087
 20
-428.0136
 30
25
 70
192
 0
VERTEX
 8
MESH_168_F0
 10
-697.6108
 20
-429.4563
 30
25
 70
192
 0
VERTEX
 8
MESH_168_F0
 10
-696.6211
 20
-430.8358
 30
25
 70
192
 0
VERTEX
 8
MESH_168_F0
 10
-695.5441
 20
-432.147
 30
25
 70
192
 0
VERTEX
 8
MESH_168_F0
 10
-694.3843
 20
-433.385
 30
25
 70
192
 0
VERTEX
 8
MESH_168_F0
 10
-693.1464
 20
-434.5447
 30
25
 70
192
 0
VERTEX
 8
MESH_168_F0
 10
-691.8351
 20
-435.6216
 30
25
 70
192
 0
VERTEX
 8
MESH_168_F0
 10
-690.4556
 20
-436.6112
 30
25
 70
192
 0
VERTEX
 8
MESH_168_F0
 10
-689.0129
 20
-437.5091
 30
25
 70
192
 0
VERTEX
 8
MESH_168_F0
 10
-687.5101
 20
-438.3123
 30
25
 70
192
 0
VERTEX
 8
MESH_168_F0
 10
-685.9586
 20
-439.0155
 30
25
 70
192
 0
VERTEX
 8
MESH_168_F0
 10
-684.3677
 20
-439.6156
 30
25
 70
192
 0
VERTEX
 8
MESH_168_F0
 10
-682.7471
 20
-440.1092
 30
25
 70
192
 0
VERTEX
 8
MESH_168_F0
 10
-681.0989
 20
-440.4949
 30
25
 70
192
 0
VERTEX
 8
MESH_168_F0
 10
-679.4271
 20
-440.7711
 30
25
 70
192
 0
VERTEX
 8
MESH_168_F0
 10
-677.7285
 20
-440.9392
 30
25
 70
192
 0
VERTEX
 8
MESH_168_F0
 10
-676
 20
-441
 30
25
 70
192
 0
VERTEX
 8
MESH_168_F0
 10
0
 20
0
 30
0
 70
128
 71
91
 72
1
 73
60
 74
60
 0
VERTEX
 8
MESH_168_F0
 10
0
 20
0
 30
0
 70
128
 71
58
 72
91
 73
59
 74
59
 0
VERTEX
 8
MESH_168_F0
 10
0
 20
0
 30
0
 70
128
 71
91
 72
60
 73
59
 74
59
 0
VERTEX
 8
MESH_168_F0
 10
0
 20
0
 30
0
 70
128
 71
91
 72
2
 73
1
 74
1
 0
VERTEX
 8
MESH_168_F0
 10
0
 20
0
 30
0
 70
128
 71
3
 72
2
 73
91
 74
91
 0
VERTEX
 8
MESH_168_F0
 10
0
 20
0
 30
0
 70
128
 71
3
 72
91
 73
4
 74
4
 0
VERTEX
 8
MESH_168_F0
 10
0
 20
0
 30
0
 70
128
 71
91
 72
5
 73
4
 74
4
 0
VERTEX
 8
MESH_168_F0
 10
0
 20
0
 30
0
 70
128
 71
6
 72
5
 73
91
 74
91
 0
VERTEX
 8
MESH_168_F0
 10
0
 20
0
 30
0
 70
128
 71
6
 72
91
 73
7
 74
7
 0
VERTEX
 8
MESH_168_F0
 10
0
 20
0
 30
0
 70
128
 71
91
 72
8
 73
7
 74
7
 0
VERTEX
 8
MESH_168_F0
 10
0
 20
0
 30
0
 70
128
 71
9
 72
8
 73
91
 74
91
 0
VERTEX
 8
MESH_168_F0
 10
0
 20
0
 30
0
 70
128
 71
9
 72
91
 73
10
 74
10
 0
VERTEX
 8
MESH_168_F0
 10
0
 20
0
 30
0
 70
128
 71
91
 72
11
 73
10
 74
10
 0
VERTEX
 8
MESH_168_F0
 10
0
 20
0
 30
0
 70
128
 71
90
 72
11
 73
91
 74
91
 0
VERTEX
 8
MESH_168_F0
 10
0
 20
0
 30
0
 70
128
 71
12
 72
11
 73
90
 74
90
 0
VERTEX
 8
MESH_168_F0
 10
0
 20
0
 30
0
 70
128
 71
12
 72
90
 73
13
 74
13
 0
VERTEX
 8
MESH_168_F0
 10
0
 20
0
 30
0
 70
128
 71
90
 72
14
 73
13
 74
13
 0
VERTEX
 8
MESH_168_F0
 10
0
 20
0
 30
0
 70
128
 71
89
 72
14
 73
90
 74
90
 0
VERTEX
 8
MESH_168_F0
 10
0
 20
0
 30
0
 70
128
 71
88
 72
14
 73
89
 74
89
 0
VERTEX
 8
MESH_168_F0
 10
0
 20
0
 30
0
 70
128
 71
87
 72
14
 73
88
 74
88
 0
VERTEX
 8
MESH_168_F0
 10
0
 20
0
 30
0
 70
128
 71
86
 72
14
 73
87
 74
87
 0
VERTEX
 8
MESH_168_F0
 10
0
 20
0
 30
0
 70
128
 71
85
 72
14
 73
86
 74
86
 0
VERTEX
 8
MESH_168_F0
 10
0
 20
0
 30
0
 70
128
 71
84
 72
14
 73
85
 74
85
 0
VERTEX
 8
MESH_168_F0
 10
0
 20
0
 30
0
 70
128
 71
83
 72
14
 73
84
 74
84
 0
VERTEX
 8
MESH_168_F0
 10
0
 20
0
 30
0
 70
128
 71
82
 72
14
 73
83
 74
83
 0
VERTEX
 8
MESH_168_F0
 10
0
 20
0
 30
0
 70
128
 71
81
 72
14
 73
82
 74
82
 0
VERTEX
 8
MESH_168_F0
 10
0
 20
0
 30
0
 70
128
 71
80
 72
14
 73
81
 74
81
 0
VERTEX
 8
MESH_168_F0
 10
0
 20
0
 30
0
 70
128
 71
79
 72
14
 73
80
 74
80
 0
VERTEX
 8
MESH_168_F0
 10
0
 20
0
 30
0
 70
128
 71
78
 72
14
 73
79
 74
79
 0
VERTEX
 8
MESH_168_F0
 10
0
 20
0
 30
0
 70
128
 71
77
 72
14
 73
78
 74
78
 0
VERTEX
 8
MESH_168_F0
 10
0
 20
0
 30
0
 70
128
 71
172
 72
14
 73
77
 74
77
 0
VERTEX
 8
MESH_168_F0
 10
0
 20
0
 30
0
 70
128
 71
172
 72
77
 73
121
 74
121
 0
VERTEX
 8
MESH_168_F0
 10
0
 20
0
 30
0
 70
128
 71
77
 72
76
 73
121
 74
121
 0
VERTEX
 8
MESH_168_F0
 10
0
 20
0
 30
0
 70
128
 71
76
 72
75
 73
121
 74
121
 0
VERTEX
 8
MESH_168_F0
 10
0
 20
0
 30
0
 70
128
 71
75
 72
74
 73
121
 74
121
 0
VERTEX
 8
MESH_168_F0
 10
0
 20
0
 30
0
 70
128
 71
74
 72
73
 73
121
 74
121
 0
VERTEX
 8
MESH_168_F0
 10
0
 20
0
 30
0
 70
128
 71
73
 72
72
 73
121
 74
121
 0
VERTEX
 8
MESH_168_F0
 10
0
 20
0
 30
0
 70
128
 71
72
 72
71
 73
121
 74
121
 0
VERTEX
 8
MESH_168_F0
 10
0
 20
0
 30
0
 70
128
 71
71
 72
70
 73
121
 74
121
 0
VERTEX
 8
MESH_168_F0
 10
0
 20
0
 30
0
 70
128
 71
70
 72
69
 73
121
 74
121
 0
VERTEX
 8
MESH_168_F0
 10
0
 20
0
 30
0
 70
128
 71
69
 72
68
 73
121
 74
121
 0
VERTEX
 8
MESH_168_F0
 10
0
 20
0
 30
0
 70
128
 71
68
 72
67
 73
121
 74
121
 0
VERTEX
 8
MESH_168_F0
 10
0
 20
0
 30
0
 70
128
 71
67
 72
66
 73
121
 74
121
 0
VERTEX
 8
MESH_168_F0
 10
0
 20
0
 30
0
 70
128
 71
66
 72
65
 73
121
 74
121
 0
VERTEX
 8
MESH_168_F0
 10
0
 20
0
 30
0
 70
128
 71
65
 72
64
 73
121
 74
121
 0
VERTEX
 8
MESH_168_F0
 10
0
 20
0
 30
0
 70
128
 71
64
 72
63
 73
121
 74
121
 0
VERTEX
 8
MESH_168_F0
 10
0
 20
0
 30
0
 70
128
 71
63
 72
62
 73
121
 74
121
 0
VERTEX
 8
MESH_168_F0
 10
0
 20
0
 30
0
 70
128
 71
62
 72
61
 73
121
 74
121
 0
VERTEX
 8
MESH_168_F0
 10
0
 20
0
 30
0
 70
128
 71
61
 72
145
 73
121
 74
121
 0
VERTEX
 8
MESH_168_F0
 10
0
 20
0
 30
0
 70
128
 71
145
 72
144
 73
121
 74
121
 0
VERTEX
 8
MESH_168_F0
 10
0
 20
0
 30
0
 70
128
 71
144
 72
143
 73
121
 74
121
 0
VERTEX
 8
MESH_168_F0
 10
0
 20
0
 30
0
 70
128
 71
143
 72
142
 73
121
 74
121
 0
VERTEX
 8
MESH_168_F0
 10
0
 20
0
 30
0
 70
128
 71
142
 72
141
 73
121
 74
121
 0
VERTEX
 8
MESH_168_F0
 10
0
 20
0
 30
0
 70
128
 71
141
 72
140
 73
121
 74
121
 0
VERTEX
 8
MESH_168_F0
 10
0
 20
0
 30
0
 70
128
 71
140
 72
139
 73
121
 74
121
 0
VERTEX
 8
MESH_168_F0
 10
0
 20
0
 30
0
 70
128
 71
139
 72
138
 73
121
 74
121
 0
VERTEX
 8
MESH_168_F0
 10
0
 20
0
 30
0
 70
128
 71
138
 72
137
 73
121
 74
121
 0
VERTEX
 8
MESH_168_F0
 10
0
 20
0
 30
0
 70
128
 71
137
 72
136
 73
121
 74
121
 0
VERTEX
 8
MESH_168_F0
 10
0
 20
0
 30
0
 70
128
 71
136
 72
135
 73
121
 74
121
 0
VERTEX
 8
MESH_168_F0
 10
0
 20
0
 30
0
 70
128
 71
135
 72
134
 73
121
 74
121
 0
VERTEX
 8
MESH_168_F0
 10
0
 20
0
 30
0
 70
128
 71
134
 72
133
 73
121
 74
121
 0
VERTEX
 8
MESH_168_F0
 10
0
 20
0
 30
0
 70
128
 71
133
 72
132
 73
121
 74
121
 0
VERTEX
 8
MESH_168_F0
 10
0
 20
0
 30
0
 70
128
 71
132
 72
131
 73
121
 74
121
 0
VERTEX
 8
MESH_168_F0
 10
0
 20
0
 30
0
 70
128
 71
131
 72
130
 73
121
 74
121
 0
VERTEX
 8
MESH_168_F0
 10
0
 20
0
 30
0
 70
128
 71
130
 72
129
 73
121
 74
121
 0
VERTEX
 8
MESH_168_F0
 10
0
 20
0
 30
0
 70
128
 71
129
 72
128
 73
121
 74
121
 0
VERTEX
 8
MESH_168_F0
 10
0
 20
0
 30
0
 70
128
 71
128
 72
127
 73
121
 74
121
 0
VERTEX
 8
MESH_168_F0
 10
0
 20
0
 30
0
 70
128
 71
127
 72
126
 73
121
 74
121
 0
VERTEX
 8
MESH_168_F0
 10
0
 20
0
 30
0
 70
128
 71
126
 72
125
 73
121
 74
121
 0
VERTEX
 8
MESH_168_F0
 10
0
 20
0
 30
0
 70
128
 71
125
 72
124
 73
121
 74
121
 0
VERTEX
 8
MESH_168_F0
 10
0
 20
0
 30
0
 70
128
 71
124
 72
123
 73
121
 74
121
 0
VERTEX
 8
MESH_168_F0
 10
0
 20
0
 30
0
 70
128
 71
123
 72
122
 73
121
 74
121
 0
VERTEX
 8
MESH_168_F0
 10
0
 20
0
 30
0
 70
128
 71
172
 72
15
 73
14
 74
14
 0
VERTEX
 8
MESH_168_F0
 10
0
 20
0
 30
0
 70
128
 71
16
 72
15
 73
172
 74
172
 0
VERTEX
 8
MESH_168_F0
 10
0
 20
0
 30
0
 70
128
 71
16
 72
172
 73
17
 74
17
 0
VERTEX
 8
MESH_168_F0
 10
0
 20
0
 30
0
 70
128
 71
172
 72
18
 73
17
 74
17
 0
VERTEX
 8
MESH_168_F0
 10
0
 20
0
 30
0
 70
128
 71
19
 72
18
 73
172
 74
172
 0
VERTEX
 8
MESH_168_F0
 10
0
 20
0
 30
0
 70
128
 71
19
 72
172
 73
20
 74
20
 0
VERTEX
 8
MESH_168_F0
 10
0
 20
0
 30
0
 70
128
 71
172
 72
21
 73
20
 74
20
 0
VERTEX
 8
MESH_168_F0
 10
0
 20
0
 30
0
 70
128
 71
22
 72
21
 73
172
 74
172
 0
VERTEX
 8
MESH_168_F0
 10
0
 20
0
 30
0
 70
128
 71
22
 72
172
 73
23
 74
23
 0
VERTEX
 8
MESH_168_F0
 10
0
 20
0
 30
0
 70
128
 71
172
 72
24
 73
23
 74
23
 0
VERTEX
 8
MESH_168_F0
 10
0
 20
0
 30
0
 70
128
 71
25
 72
24
 73
172
 74
172
 0
VERTEX
 8
MESH_168_F0
 10
0
 20
0
 30
0
 70
128
 71
25
 72
172
 73
26
 74
26
 0
VERTEX
 8
MESH_168_F0
 10
0
 20
0
 30
0
 70
128
 71
172
 72
27
 73
26
 74
26
 0
VERTEX
 8
MESH_168_F0
 10
0
 20
0
 30
0
 70
128
 71
28
 72
27
 73
172
 74
172
 0
VERTEX
 8
MESH_168_F0
 10
0
 20
0
 30
0
 70
128
 71
28
 72
172
 73
29
 74
29
 0
VERTEX
 8
MESH_168_F0
 10
0
 20
0
 30
0
 70
128
 71
172
 72
30
 73
29
 74
29
 0
VERTEX
 8
MESH_168_F0
 10
0
 20
0
 30
0
 70
128
 71
31
 72
30
 73
172
 74
172
 0
VERTEX
 8
MESH_168_F0
 10
0
 20
0
 30
0
 70
128
 71
147
 72
31
 73
148
 74
148
 0
VERTEX
 8
MESH_168_F0
 10
0
 20
0
 30
0
 70
128
 71
31
 72
172
 73
148
 74
148
 0
VERTEX
 8
MESH_168_F0
 10
0
 20
0
 30
0
 70
128
 71
172
 72
149
 73
148
 74
148
 0
VERTEX
 8
MESH_168_F0
 10
0
 20
0
 30
0
 70
128
 71
150
 72
149
 73
172
 74
172
 0
VERTEX
 8
MESH_168_F0
 10
0
 20
0
 30
0
 70
128
 71
150
 72
172
 73
151
 74
151
 0
VERTEX
 8
MESH_168_F0
 10
0
 20
0
 30
0
 70
128
 71
172
 72
152
 73
151
 74
151
 0
VERTEX
 8
MESH_168_F0
 10
0
 20
0
 30
0
 70
128
 71
153
 72
152
 73
172
 74
172
 0
VERTEX
 8
MESH_168_F0
 10
0
 20
0
 30
0
 70
128
 71
153
 72
172
 73
154
 74
154
 0
VERTEX
 8
MESH_168_F0
 10
0
 20
0
 30
0
 70
128
 71
172
 72
155
 73
154
 74
154
 0
VERTEX
 8
MESH_168_F0
 10
0
 20
0
 30
0
 70
128
 71
156
 72
155
 73
172
 74
172
 0
VERTEX
 8
MESH_168_F0
 10
0
 20
0
 30
0
 70
128
 71
156
 72
172
 73
157
 74
157
 0
VERTEX
 8
MESH_168_F0
 10
0
 20
0
 30
0
 70
128
 71
172
 72
158
 73
157
 74
157
 0
VERTEX
 8
MESH_168_F0
 10
0
 20
0
 30
0
 70
128
 71
159
 72
158
 73
172
 74
172
 0
VERTEX
 8
MESH_168_F0
 10
0
 20
0
 30
0
 70
128
 71
159
 72
172
 73
160
 74
160
 0
VERTEX
 8
MESH_168_F0
 10
0
 20
0
 30
0
 70
128
 71
172
 72
161
 73
160
 74
160
 0
VERTEX
 8
MESH_168_F0
 10
0
 20
0
 30
0
 70
128
 71
162
 72
161
 73
172
 74
172
 0
VERTEX
 8
MESH_168_F0
 10
0
 20
0
 30
0
 70
128
 71
162
 72
172
 73
163
 74
163
 0
VERTEX
 8
MESH_168_F0
 10
0
 20
0
 30
0
 70
128
 71
172
 72
164
 73
163
 74
163
 0
VERTEX
 8
MESH_168_F0
 10
0
 20
0
 30
0
 70
128
 71
165
 72
164
 73
172
 74
172
 0
VERTEX
 8
MESH_168_F0
 10
0
 20
0
 30
0
 70
128
 71
165
 72
172
 73
166
 74
166
 0
VERTEX
 8
MESH_168_F0
 10
0
 20
0
 30
0
 70
128
 71
172
 72
167
 73
166
 74
166
 0
VERTEX
 8
MESH_168_F0
 10
0
 20
0
 30
0
 70
128
 71
168
 72
167
 73
172
 74
172
 0
VERTEX
 8
MESH_168_F0
 10
0
 20
0
 30
0
 70
128
 71
168
 72
172
 73
169
 74
169
 0
VERTEX
 8
MESH_168_F0
 10
0
 20
0
 30
0
 70
128
 71
172
 72
170
 73
169
 74
169
 0
VERTEX
 8
MESH_168_F0
 10
0
 20
0
 30
0
 70
128
 71
171
 72
170
 73
172
 74
172
 0
VERTEX
 8
MESH_168_F0
 10
0
 20
0
 30
0
 70
128
 71
147
 72
32
 73
31
 74
31
 0
VERTEX
 8
MESH_168_F0
 10
0
 20
0
 30
0
 70
128
 71
33
 72
32
 73
147
 74
147
 0
VERTEX
 8
MESH_168_F0
 10
0
 20
0
 30
0
 70
128
 71
33
 72
147
 73
34
 74
34
 0
VERTEX
 8
MESH_168_F0
 10
0
 20
0
 30
0
 70
128
 71
147
 72
35
 73
34
 74
34
 0
VERTEX
 8
MESH_168_F0
 10
0
 20
0
 30
0
 70
128
 71
36
 72
35
 73
147
 74
147
 0
VERTEX
 8
MESH_168_F0
 10
0
 20
0
 30
0
 70
128
 71
36
 72
147
 73
37
 74
37
 0
VERTEX
 8
MESH_168_F0
 10
0
 20
0
 30
0
 70
128
 71
147
 72
38
 73
37
 74
37
 0
VERTEX
 8
MESH_168_F0
 10
0
 20
0
 30
0
 70
128
 71
39
 72
38
 73
147
 74
147
 0
VERTEX
 8
MESH_168_F0
 10
0
 20
0
 30
0
 70
128
 71
39
 72
147
 73
40
 74
40
 0
VERTEX
 8
MESH_168_F0
 10
0
 20
0
 30
0
 70
128
 71
147
 72
41
 73
40
 74
40
 0
VERTEX
 8
MESH_168_F0
 10
0
 20
0
 30
0
 70
128
 71
42
 72
41
 73
147
 74
147
 0
VERTEX
 8
MESH_168_F0
 10
0
 20
0
 30
0
 70
128
 71
42
 72
147
 73
43
 74
43
 0
VERTEX
 8
MESH_168_F0
 10
0
 20
0
 30
0
 70
128
 71
147
 72
44
 73
43
 74
43
 0
VERTEX
 8
MESH_168_F0
 10
0
 20
0
 30
0
 70
128
 71
45
 72
44
 73
147
 74
147
 0
VERTEX
 8
MESH_168_F0
 10
0
 20
0
 30
0
 70
128
 71
45
 72
147
 73
46
 74
46
 0
VERTEX
 8
MESH_168_F0
 10
0
 20
0
 30
0
 70
128
 71
147
 72
47
 73
46
 74
46
 0
VERTEX
 8
MESH_168_F0
 10
0
 20
0
 30
0
 70
128
 71
104
 72
47
 73
147
 74
147
 0
VERTEX
 8
MESH_168_F0
 10
0
 20
0
 30
0
 70
128
 71
105
 72
104
 73
146
 74
146
 0
VERTEX
 8
MESH_168_F0
 10
0
 20
0
 30
0
 70
128
 71
105
 72
146
 73
106
 74
106
 0
VERTEX
 8
MESH_168_F0
 10
0
 20
0
 30
0
 70
128
 71
146
 72
107
 73
106
 74
106
 0
VERTEX
 8
MESH_168_F0
 10
0
 20
0
 30
0
 70
128
 71
108
 72
107
 73
146
 74
146
 0
VERTEX
 8
MESH_168_F0
 10
0
 20
0
 30
0
 70
128
 71
108
 72
146
 73
109
 74
109
 0
VERTEX
 8
MESH_168_F0
 10
0
 20
0
 30
0
 70
128
 71
146
 72
110
 73
109
 74
109
 0
VERTEX
 8
MESH_168_F0
 10
0
 20
0
 30
0
 70
128
 71
111
 72
110
 73
146
 74
146
 0
VERTEX
 8
MESH_168_F0
 10
0
 20
0
 30
0
 70
128
 71
111
 72
146
 73
112
 74
112
 0
VERTEX
 8
MESH_168_F0
 10
0
 20
0
 30
0
 70
128
 71
146
 72
113
 73
112
 74
112
 0
VERTEX
 8
MESH_168_F0
 10
0
 20
0
 30
0
 70
128
 71
114
 72
113
 73
146
 74
146
 0
VERTEX
 8
MESH_168_F0
 10
0
 20
0
 30
0
 70
128
 71
114
 72
146
 73
115
 74
115
 0
VERTEX
 8
MESH_168_F0
 10
0
 20
0
 30
0
 70
128
 71
146
 72
116
 73
115
 74
115
 0
VERTEX
 8
MESH_168_F0
 10
0
 20
0
 30
0
 70
128
 71
117
 72
116
 73
146
 74
146
 0
VERTEX
 8
MESH_168_F0
 10
0
 20
0
 30
0
 70
128
 71
117
 72
146
 73
118
 74
118
 0
VERTEX
 8
MESH_168_F0
 10
0
 20
0
 30
0
 70
128
 71
146
 72
119
 73
118
 74
118
 0
VERTEX
 8
MESH_168_F0
 10
0
 20
0
 30
0
 70
128
 71
120
 72
119
 73
146
 74
146
 0
VERTEX
 8
MESH_168_F0
 10
0
 20
0
 30
0
 70
128
 71
61
 72
120
 73
145
 74
145
 0
VERTEX
 8
MESH_168_F0
 10
0
 20
0
 30
0
 70
128
 71
120
 72
146
 73
145
 74
145
 0
VERTEX
 8
MESH_168_F0
 10
0
 20
0
 30
0
 70
128
 71
48
 72
96
 73
95
 74
95
 0
VERTEX
 8
MESH_168_F0
 10
0
 20
0
 30
0
 70
128
 71
49
 72
48
 73
94
 74
94
 0
VERTEX
 8
MESH_168_F0
 10
0
 20
0
 30
0
 70
128
 71
92
 72
49
 73
93
 74
93
 0
VERTEX
 8
MESH_168_F0
 10
0
 20
0
 30
0
 70
128
 71
49
 72
94
 73
93
 74
93
 0
VERTEX
 8
MESH_168_F0
 10
0
 20
0
 30
0
 70
128
 71
91
 72
49
 73
92
 74
92
 0
VERTEX
 8
MESH_168_F0
 10
0
 20
0
 30
0
 70
128
 71
50
 72
49
 73
91
 74
91
 0
VERTEX
 8
MESH_168_F0
 10
0
 20
0
 30
0
 70
128
 71
50
 72
91
 73
51
 74
51
 0
VERTEX
 8
MESH_168_F0
 10
0
 20
0
 30
0
 70
128
 71
91
 72
52
 73
51
 74
51
 0
VERTEX
 8
MESH_168_F0
 10
0
 20
0
 30
0
 70
128
 71
53
 72
52
 73
91
 74
91
 0
VERTEX
 8
MESH_168_F0
 10
0
 20
0
 30
0
 70
128
 71
53
 72
91
 73
54
 74
54
 0
VERTEX
 8
MESH_168_F0
 10
0
 20
0
 30
0
 70
128
 71
91
 72
55
 73
54
 74
54
 0
VERTEX
 8
MESH_168_F0
 10
0
 20
0
 30
0
 70
128
 71
56
 72
55
 73
91
 74
91
 0
VERTEX
 8
MESH_168_F0
 10
0
 20
0
 30
0
 70
128
 71
56
 72
91
 73
57
 74
57
 0
VERTEX
 8
MESH_168_F0
 10
0
 20
0
 30
0
 70
128
 71
91
 72
58
 73
57
 74
57
 0
VERTEX
 8
MESH_168_F0
 10
0
 20
0
 30
0
 70
128
 71
48
 72
95
 73
94
 74
94
 0
VERTEX
 8
MESH_168_F0
 10
0
 20
0
 30
0
 70
128
 71
48
 72
97
 73
96
 74
96
 0
VERTEX
 8
MESH_168_F0
 10
0
 20
0
 30
0
 70
128
 71
47
 72
97
 73
48
 74
48
 0
VERTEX
 8
MESH_168_F0
 10
0
 20
0
 30
0
 70
128
 71
98
 72
97
 73
47
 74
47
 0
VERTEX
 8
MESH_168_F0
 10
0
 20
0
 30
0
 70
128
 71
98
 72
47
 73
99
 74
99
 0
VERTEX
 8
MESH_168_F0
 10
0
 20
0
 30
0
 70
128
 71
47
 72
100
 73
99
 74
99
 0
VERTEX
 8
MESH_168_F0
 10
0
 20
0
 30
0
 70
128
 71
101
 72
100
 73
47
 74
47
 0
VERTEX
 8
MESH_168_F0
 10
0
 20
0
 30
0
 70
128
 71
101
 72
47
 73
102
 74
102
 0
VERTEX
 8
MESH_168_F0
 10
0
 20
0
 30
0
 70
128
 71
47
 72
103
 73
102
 74
102
 0
VERTEX
 8
MESH_168_F0
 10
0
 20
0
 30
0
 70
128
 71
104
 72
103
 73
47
 74
47
 0
VERTEX
 8
MESH_168_F0
 10
0
 20
0
 30
0
 70
128
 71
104
 72
147
 73
146
 74
146
 0
SEQEND
 0
POLYLINE
 8
MESH_167_F0
 66
1
 10
0.0
 20
0.0
 30
0.0
 70
64
 71
30
 72
28
 0
VERTEX
 8
MESH_167_F0
 10
-266
 20
-350
 30
25
 70
192
 0
VERTEX
 8
MESH_167_F0
 10
-266
 20
-350
 30
0
 70
192
 0
VERTEX
 8
MESH_167_F0
 10
-266.3229
 20
-355.6553
 30
0
 70
192
 0
VERTEX
 8
MESH_167_F0
 10
-267.266
 20
-361.1798
 30
0
 70
192
 0
VERTEX
 8
MESH_167_F0
 10
-268.8232
 20
-366.558
 30
0
 70
192
 0
VERTEX
 8
MESH_167_F0
 10
-270.9756
 20
-371.7439
 30
0
 70
192
 0
VERTEX
 8
MESH_167_F0
 10
-273.685
 20
-376.6362
 30
0
 70
192
 0
VERTEX
 8
MESH_167_F0
 10
-276.9223
 20
-381.1917
 30
0
 70
192
 0
VERTEX
 8
MESH_167_F0
 10
-280.6455
 20
-385.3545
 30
0
 70
192
 0
VERTEX
 8
MESH_167_F0
 10
-284.8083
 20
-389.0777
 30
0
 70
192
 0
VERTEX
 8
MESH_167_F0
 10
-289.3638
 20
-392.315
 30
0
 70
192
 0
VERTEX
 8
MESH_167_F0
 10
-294.2561
 20
-395.0244
 30
0
 70
192
 0
VERTEX
 8
MESH_167_F0
 10
-299.442
 20
-397.1768
 30
0
 70
192
 0
VERTEX
 8
MESH_167_F0
 10
-304.8202
 20
-398.734
 30
0
 70
192
 0
VERTEX
 8
MESH_167_F0
 10
-310.3447
 20
-399.6771
 30
0
 70
192
 0
VERTEX
 8
MESH_167_F0
 10
-316
 20
-400
 30
0
 70
192
 0
VERTEX
 8
MESH_167_F0
 10
-316
 20
-400
 30
25
 70
192
 0
VERTEX
 8
MESH_167_F0
 10
-310.3447
 20
-399.6771
 30
25
 70
192
 0
VERTEX
 8
MESH_167_F0
 10
-304.8202
 20
-398.734
 30
25
 70
192
 0
VERTEX
 8
MESH_167_F0
 10
-299.442
 20
-397.1768
 30
25
 70
192
 0
VERTEX
 8
MESH_167_F0
 10
-294.2561
 20
-395.0244
 30
25
 70
192
 0
VERTEX
 8
MESH_167_F0
 10
-289.3638
 20
-392.315
 30
25
 70
192
 0
VERTEX
 8
MESH_167_F0
 10
-284.8083
 20
-389.0777
 30
25
 70
192
 0
VERTEX
 8
MESH_167_F0
 10
-280.6455
 20
-385.3545
 30
25
 70
192
 0
VERTEX
 8
MESH_167_F0
 10
-276.9223
 20
-381.1917
 30
25
 70
192
 0
VERTEX
 8
MESH_167_F0
 10
-273.685
 20
-376.6362
 30
25
 70
192
 0
VERTEX
 8
MESH_167_F0
 10
-270.9756
 20
-371.7439
 30
25
 70
192
 0
VERTEX
 8
MESH_167_F0
 10
-268.8232
 20
-366.558
 30
25
 70
192
 0
VERTEX
 8
MESH_167_F0
 10
-267.266
 20
-361.1798
 30
25
 70
192
 0
VERTEX
 8
MESH_167_F0
 10
-266.3229
 20
-355.6553
 30
25
 70
192
 0
VERTEX
 8
MESH_167_F0
 10
0
 20
0
 30
0
 70
128
 71
30
 72
2
 73
1
 74
1
 0
VERTEX
 8
MESH_167_F0
 10
0
 20
0
 30
0
 70
128
 71
3
 72
2
 73
30
 74
30
 0
VERTEX
 8
MESH_167_F0
 10
0
 20
0
 30
0
 70
128
 71
3
 72
30
 73
4
 74
4
 0
VERTEX
 8
MESH_167_F0
 10
0
 20
0
 30
0
 70
128
 71
30
 72
29
 73
4
 74
4
 0
VERTEX
 8
MESH_167_F0
 10
0
 20
0
 30
0
 70
128
 71
29
 72
5
 73
4
 74
4
 0
VERTEX
 8
MESH_167_F0
 10
0
 20
0
 30
0
 70
128
 71
28
 72
5
 73
29
 74
29
 0
VERTEX
 8
MESH_167_F0
 10
0
 20
0
 30
0
 70
128
 71
6
 72
5
 73
28
 74
28
 0
VERTEX
 8
MESH_167_F0
 10
0
 20
0
 30
0
 70
128
 71
7
 72
6
 73
27
 74
27
 0
VERTEX
 8
MESH_167_F0
 10
0
 20
0
 30
0
 70
128
 71
8
 72
7
 73
26
 74
26
 0
VERTEX
 8
MESH_167_F0
 10
0
 20
0
 30
0
 70
128
 71
9
 72
8
 73
25
 74
25
 0
VERTEX
 8
MESH_167_F0
 10
0
 20
0
 30
0
 70
128
 71
10
 72
9
 73
24
 74
24
 0
VERTEX
 8
MESH_167_F0
 10
0
 20
0
 30
0
 70
128
 71
11
 72
10
 73
23
 74
23
 0
VERTEX
 8
MESH_167_F0
 10
0
 20
0
 30
0
 70
128
 71
12
 72
11
 73
22
 74
22
 0
VERTEX
 8
MESH_167_F0
 10
0
 20
0
 30
0
 70
128
 71
13
 72
12
 73
21
 74
21
 0
VERTEX
 8
MESH_167_F0
 10
0
 20
0
 30
0
 70
128
 71
14
 72
13
 73
20
 74
20
 0
VERTEX
 8
MESH_167_F0
 10
0
 20
0
 30
0
 70
128
 71
15
 72
14
 73
19
 74
19
 0
VERTEX
 8
MESH_167_F0
 10
0
 20
0
 30
0
 70
128
 71
17
 72
15
 73
18
 74
18
 0
VERTEX
 8
MESH_167_F0
 10
0
 20
0
 30
0
 70
128
 71
15
 72
19
 73
18
 74
18
 0
VERTEX
 8
MESH_167_F0
 10
0
 20
0
 30
0
 70
128
 71
17
 72
16
 73
15
 74
15
 0
VERTEX
 8
MESH_167_F0
 10
0
 20
0
 30
0
 70
128
 71
14
 72
20
 73
19
 74
19
 0
VERTEX
 8
MESH_167_F0
 10
0
 20
0
 30
0
 70
128
 71
13
 72
21
 73
20
 74
20
 0
VERTEX
 8
MESH_167_F0
 10
0
 20
0
 30
0
 70
128
 71
12
 72
22
 73
21
 74
21
 0
VERTEX
 8
MESH_167_F0
 10
0
 20
0
 30
0
 70
128
 71
11
 72
23
 73
22
 74
22
 0
VERTEX
 8
MESH_167_F0
 10
0
 20
0
 30
0
 70
128
 71
10
 72
24
 73
23
 74
23
 0
VERTEX
 8
MESH_167_F0
 10
0
 20
0
 30
0
 70
128
 71
9
 72
25
 73
24
 74
24
 0
VERTEX
 8
MESH_167_F0
 10
0
 20
0
 30
0
 70
128
 71
8
 72
26
 73
25
 74
25
 0
VERTEX
 8
MESH_167_F0
 10
0
 20
0
 30
0
 70
128
 71
7
 72
27
 73
26
 74
26
 0
VERTEX
 8
MESH_167_F0
 10
0
 20
0
 30
0
 70
128
 71
6
 72
28
 73
27
 74
27
 0
SEQEND
 0
POLYLINE
 8
MESH_166_F0
 66
1
 10
0.0
 20
0.0
 30
0.0
 70
64
 71
4
 72
2
 0
VERTEX
 8
MESH_166_F0
 10
-316
 20
-400
 30
25
 70
192
 0
VERTEX
 8
MESH_166_F0
 10
-316
 20
-400
 30
0
 70
192
 0
VERTEX
 8
MESH_166_F0
 10
-336
 20
-400
 30
0
 70
192
 0
VERTEX
 8
MESH_166_F0
 10
-336
 20
-400
 30
25
 70
192
 0
VERTEX
 8
MESH_166_F0
 10
0
 20
0
 30
0
 70
128
 71
1
 72
3
 73
2
 74
2
 0
VERTEX
 8
MESH_166_F0
 10
0
 20
0
 30
0
 70
128
 71
4
 72
3
 73
1
 74
1
 0
SEQEND
 0
POLYLINE
 8
MESH_165_F0
 66
1
 10
0.0
 20
0.0
 30
0.0
 70
64
 71
30
 72
28
 0
VERTEX
 8
MESH_165_F0
 10
-336
 20
-400
 30
25
 70
192
 0
VERTEX
 8
MESH_165_F0
 10
-336
 20
-400
 30
0
 70
192
 0
VERTEX
 8
MESH_165_F0
 10
-341.6553
 20
-399.6771
 30
0
 70
192
 0
VERTEX
 8
MESH_165_F0
 10
-347.1798
 20
-398.734
 30
0
 70
192
 0
VERTEX
 8
MESH_165_F0
 10
-352.558
 20
-397.1768
 30
0
 70
192
 0
VERTEX
 8
MESH_165_F0
 10
-357.7439
 20
-395.0244
 30
0
 70
192
 0
VERTEX
 8
MESH_165_F0
 10
-362.6362
 20
-392.315
 30
0
 70
192
 0
VERTEX
 8
MESH_165_F0
 10
-367.1917
 20
-389.0777
 30
0
 70
192
 0
VERTEX
 8
MESH_165_F0
 10
-371.3545
 20
-385.3545
 30
0
 70
192
 0
VERTEX
 8
MESH_165_F0
 10
-375.0777
 20
-381.1917
 30
0
 70
192
 0
VERTEX
 8
MESH_165_F0
 10
-378.315
 20
-376.6362
 30
0
 70
192
 0
VERTEX
 8
MESH_165_F0
 10
-381.0244
 20
-371.7439
 30
0
 70
192
 0
VERTEX
 8
MESH_165_F0
 10
-383.1768
 20
-366.558
 30
0
 70
192
 0
VERTEX
 8
MESH_165_F0
 10
-384.734
 20
-361.1798
 30
0
 70
192
 0
VERTEX
 8
MESH_165_F0
 10
-385.6771
 20
-355.6553
 30
0
 70
192
 0
VERTEX
 8
MESH_165_F0
 10
-386
 20
-350
 30
0
 70
192
 0
VERTEX
 8
MESH_165_F0
 10
-386
 20
-350
 30
25
 70
192
 0
VERTEX
 8
MESH_165_F0
 10
-385.6771
 20
-355.6553
 30
25
 70
192
 0
VERTEX
 8
MESH_165_F0
 10
-384.734
 20
-361.1798
 30
25
 70
192
 0
VERTEX
 8
MESH_165_F0
 10
-383.1768
 20
-366.558
 30
25
 70
192
 0
VERTEX
 8
MESH_165_F0
 10
-381.0244
 20
-371.7439
 30
25
 70
192
 0
VERTEX
 8
MESH_165_F0
 10
-378.315
 20
-376.6362
 30
25
 70
192
 0
VERTEX
 8
MESH_165_F0
 10
-375.0777
 20
-381.1917
 30
25
 70
192
 0
VERTEX
 8
MESH_165_F0
 10
-371.3545
 20
-385.3545
 30
25
 70
192
 0
VERTEX
 8
MESH_165_F0
 10
-367.1917
 20
-389.0777
 30
25
 70
192
 0
VERTEX
 8
MESH_165_F0
 10
-362.6362
 20
-392.315
 30
25
 70
192
 0
VERTEX
 8
MESH_165_F0
 10
-357.7439
 20
-395.0244
 30
25
 70
192
 0
VERTEX
 8
MESH_165_F0
 10
-352.558
 20
-397.1768
 30
25
 70
192
 0
VERTEX
 8
MESH_165_F0
 10
-347.1798
 20
-398.734
 30
25
 70
192
 0
VERTEX
 8
MESH_165_F0
 10
-341.6553
 20
-399.6771
 30
25
 70
192
 0
VERTEX
 8
MESH_165_F0
 10
0
 20
0
 30
0
 70
128
 71
30
 72
2
 73
1
 74
1
 0
VERTEX
 8
MESH_165_F0
 10
0
 20
0
 30
0
 70
128
 71
3
 72
2
 73
30
 74
30
 0
VERTEX
 8
MESH_165_F0
 10
0
 20
0
 30
0
 70
128
 71
3
 72
30
 73
4
 74
4
 0
VERTEX
 8
MESH_165_F0
 10
0
 20
0
 30
0
 70
128
 71
30
 72
29
 73
4
 74
4
 0
VERTEX
 8
MESH_165_F0
 10
0
 20
0
 30
0
 70
128
 71
29
 72
5
 73
4
 74
4
 0
VERTEX
 8
MESH_165_F0
 10
0
 20
0
 30
0
 70
128
 71
28
 72
5
 73
29
 74
29
 0
VERTEX
 8
MESH_165_F0
 10
0
 20
0
 30
0
 70
128
 71
6
 72
5
 73
28
 74
28
 0
VERTEX
 8
MESH_165_F0
 10
0
 20
0
 30
0
 70
128
 71
7
 72
6
 73
27
 74
27
 0
VERTEX
 8
MESH_165_F0
 10
0
 20
0
 30
0
 70
128
 71
8
 72
7
 73
26
 74
26
 0
VERTEX
 8
MESH_165_F0
 10
0
 20
0
 30
0
 70
128
 71
9
 72
8
 73
25
 74
25
 0
VERTEX
 8
MESH_165_F0
 10
0
 20
0
 30
0
 70
128
 71
10
 72
9
 73
24
 74
24
 0
VERTEX
 8
MESH_165_F0
 10
0
 20
0
 30
0
 70
128
 71
11
 72
10
 73
23
 74
23
 0
VERTEX
 8
MESH_165_F0
 10
0
 20
0
 30
0
 70
128
 71
12
 72
11
 73
22
 74
22
 0
VERTEX
 8
MESH_165_F0
 10
0
 20
0
 30
0
 70
128
 71
13
 72
12
 73
21
 74
21
 0
VERTEX
 8
MESH_165_F0
 10
0
 20
0
 30
0
 70
128
 71
14
 72
13
 73
20
 74
20
 0
VERTEX
 8
MESH_165_F0
 10
0
 20
0
 30
0
 70
128
 71
15
 72
14
 73
19
 74
19
 0
VERTEX
 8
MESH_165_F0
 10
0
 20
0
 30
0
 70
128
 71
17
 72
15
 73
18
 74
18
 0
VERTEX
 8
MESH_165_F0
 10
0
 20
0
 30
0
 70
128
 71
15
 72
19
 73
18
 74
18
 0
VERTEX
 8
MESH_165_F0
 10
0
 20
0
 30
0
 70
128
 71
17
 72
16
 73
15
 74
15
 0
VERTEX
 8
MESH_165_F0
 10
0
 20
0
 30
0
 70
128
 71
14
 72
20
 73
19
 74
19
 0
VERTEX
 8
MESH_165_F0
 10
0
 20
0
 30
0
 70
128
 71
13
 72
21
 73
20
 74
20
 0
VERTEX
 8
MESH_165_F0
 10
0
 20
0
 30
0
 70
128
 71
12
 72
22
 73
21
 74
21
 0
VERTEX
 8
MESH_165_F0
 10
0
 20
0
 30
0
 70
128
 71
11
 72
23
 73
22
 74
22
 0
VERTEX
 8
MESH_165_F0
 10
0
 20
0
 30
0
 70
128
 71
10
 72
24
 73
23
 74
23
 0
VERTEX
 8
MESH_165_F0
 10
0
 20
0
 30
0
 70
128
 71
9
 72
25
 73
24
 74
24
 0
VERTEX
 8
MESH_165_F0
 10
0
 20
0
 30
0
 70
128
 71
8
 72
26
 73
25
 74
25
 0
VERTEX
 8
MESH_165_F0
 10
0
 20
0
 30
0
 70
128
 71
7
 72
27
 73
26
 74
26
 0
VERTEX
 8
MESH_165_F0
 10
0
 20
0
 30
0
 70
128
 71
6
 72
28
 73
27
 74
27
 0
SEQEND
 0
POLYLINE
 8
MESH_164_F0
 66
1
 10
0.0
 20
0.0
 30
0.0
 70
64
 71
4
 72
2
 0
VERTEX
 8
MESH_164_F0
 10
-386
 20
-350
 30
25
 70
192
 0
VERTEX
 8
MESH_164_F0
 10
-386
 20
-350
 30
0
 70
192
 0
VERTEX
 8
MESH_164_F0
 10
-386
 20
-100
 30
0
 70
192
 0
VERTEX
 8
MESH_164_F0
 10
-386
 20
-100
 30
25
 70
192
 0
VERTEX
 8
MESH_164_F0
 10
0
 20
0
 30
0
 70
128
 71
1
 72
3
 73
2
 74
2
 0
VERTEX
 8
MESH_164_F0
 10
0
 20
0
 30
0
 70
128
 71
4
 72
3
 73
1
 74
1
 0
SEQEND
 0
POLYLINE
 8
MESH_163_F0
 66
1
 10
0.0
 20
0.0
 30
0.0
 70
64
 71
30
 72
28
 0
VERTEX
 8
MESH_163_F0
 10
-386
 20
-100
 30
25
 70
192
 0
VERTEX
 8
MESH_163_F0
 10
-386
 20
-100
 30
0
 70
192
 0
VERTEX
 8
MESH_163_F0
 10
-385.6771
 20
-94.3447
 30
0
 70
192
 0
VERTEX
 8
MESH_163_F0
 10
-384.734
 20
-88.8202
 30
0
 70
192
 0
VERTEX
 8
MESH_163_F0
 10
-383.1768
 20
-83.442
 30
0
 70
192
 0
VERTEX
 8
MESH_163_F0
 10
-381.0244
 20
-78.2561
 30
0
 70
192
 0
VERTEX
 8
MESH_163_F0
 10
-378.315
 20
-73.3638
 30
0
 70
192
 0
VERTEX
 8
MESH_163_F0
 10
-375.0777
 20
-68.8083
 30
0
 70
192
 0
VERTEX
 8
MESH_163_F0
 10
-371.3545
 20
-64.6455
 30
0
 70
192
 0
VERTEX
 8
MESH_163_F0
 10
-367.1917
 20
-60.9223
 30
0
 70
192
 0
VERTEX
 8
MESH_163_F0
 10
-362.6362
 20
-57.685
 30
0
 70
192
 0
VERTEX
 8
MESH_163_F0
 10
-357.7439
 20
-54.9756
 30
0
 70
192
 0
VERTEX
 8
MESH_163_F0
 10
-352.558
 20
-52.8232
 30
0
 70
192
 0
VERTEX
 8
MESH_163_F0
 10
-347.1798
 20
-51.2659
 30
0
 70
192
 0
VERTEX
 8
MESH_163_F0
 10
-341.6553
 20
-50.3229
 30
0
 70
192
 0
VERTEX
 8
MESH_163_F0
 10
-336
 20
-50
 30
0
 70
192
 0
VERTEX
 8
MESH_163_F0
 10
-336
 20
-50
 30
25
 70
192
 0
VERTEX
 8
MESH_163_F0
 10
-341.6553
 20
-50.3229
 30
25
 70
192
 0
VERTEX
 8
MESH_163_F0
 10
-347.1798
 20
-51.2659
 30
25
 70
192
 0
VERTEX
 8
MESH_163_F0
 10
-352.558
 20
-52.8232
 30
25
 70
192
 0
VERTEX
 8
MESH_163_F0
 10
-357.7439
 20
-54.9756
 30
25
 70
192
 0
VERTEX
 8
MESH_163_F0
 10
-362.6362
 20
-57.685
 30
25
 70
192
 0
VERTEX
 8
MESH_163_F0
 10
-367.1917
 20
-60.9223
 30
25
 70
192
 0
VERTEX
 8
MESH_163_F0
 10
-371.3545
 20
-64.6455
 30
25
 70
192
 0
VERTEX
 8
MESH_163_F0
 10
-375.0777
 20
-68.8083
 30
25
 70
192
 0
VERTEX
 8
MESH_163_F0
 10
-378.315
 20
-73.3638
 30
25
 70
192
 0
VERTEX
 8
MESH_163_F0
 10
-381.0244
 20
-78.2561
 30
25
 70
192
 0
VERTEX
 8
MESH_163_F0
 10
-383.1768
 20
-83.442
 30
25
 70
192
 0
VERTEX
 8
MESH_163_F0
 10
-384.734
 20
-88.8202
 30
25
 70
192
 0
VERTEX
 8
MESH_163_F0
 10
-385.6771
 20
-94.3447
 30
25
 70
192
 0
VERTEX
 8
MESH_163_F0
 10
0
 20
0
 30
0
 70
128
 71
30
 72
2
 73
1
 74
1
 0
VERTEX
 8
MESH_163_F0
 10
0
 20
0
 30
0
 70
128
 71
3
 72
2
 73
30
 74
30
 0
VERTEX
 8
MESH_163_F0
 10
0
 20
0
 30
0
 70
128
 71
3
 72
30
 73
4
 74
4
 0
VERTEX
 8
MESH_163_F0
 10
0
 20
0
 30
0
 70
128
 71
30
 72
29
 73
4
 74
4
 0
VERTEX
 8
MESH_163_F0
 10
0
 20
0
 30
0
 70
128
 71
29
 72
5
 73
4
 74
4
 0
VERTEX
 8
MESH_163_F0
 10
0
 20
0
 30
0
 70
128
 71
28
 72
5
 73
29
 74
29
 0
VERTEX
 8
MESH_163_F0
 10
0
 20
0
 30
0
 70
128
 71
6
 72
5
 73
28
 74
28
 0
VERTEX
 8
MESH_163_F0
 10
0
 20
0
 30
0
 70
128
 71
7
 72
6
 73
27
 74
27
 0
VERTEX
 8
MESH_163_F0
 10
0
 20
0
 30
0
 70
128
 71
8
 72
7
 73
26
 74
26
 0
VERTEX
 8
MESH_163_F0
 10
0
 20
0
 30
0
 70
128
 71
9
 72
8
 73
25
 74
25
 0
VERTEX
 8
MESH_163_F0
 10
0
 20
0
 30
0
 70
128
 71
10
 72
9
 73
24
 74
24
 0
VERTEX
 8
MESH_163_F0
 10
0
 20
0
 30
0
 70
128
 71
11
 72
10
 73
23
 74
23
 0
VERTEX
 8
MESH_163_F0
 10
0
 20
0
 30
0
 70
128
 71
12
 72
11
 73
22
 74
22
 0
VERTEX
 8
MESH_163_F0
 10
0
 20
0
 30
0
 70
128
 71
13
 72
12
 73
21
 74
21
 0
VERTEX
 8
MESH_163_F0
 10
0
 20
0
 30
0
 70
128
 71
14
 72
13
 73
20
 74
20
 0
VERTEX
 8
MESH_163_F0
 10
0
 20
0
 30
0
 70
128
 71
15
 72
14
 73
19
 74
19
 0
VERTEX
 8
MESH_163_F0
 10
0
 20
0
 30
0
 70
128
 71
17
 72
15
 73
18
 74
18
 0
VERTEX
 8
MESH_163_F0
 10
0
 20
0
 30
0
 70
128
 71
15
 72
19
 73
18
 74
18
 0
VERTEX
 8
MESH_163_F0
 10
0
 20
0
 30
0
 70
128
 71
17
 72
16
 73
15
 74
15
 0
VERTEX
 8
MESH_163_F0
 10
0
 20
0
 30
0
 70
128
 71
14
 72
20
 73
19
 74
19
 0
VERTEX
 8
MESH_163_F0
 10
0
 20
0
 30
0
 70
128
 71
13
 72
21
 73
20
 74
20
 0
VERTEX
 8
MESH_163_F0
 10
0
 20
0
 30
0
 70
128
 71
12
 72
22
 73
21
 74
21
 0
VERTEX
 8
MESH_163_F0
 10
0
 20
0
 30
0
 70
128
 71
11
 72
23
 73
22
 74
22
 0
VERTEX
 8
MESH_163_F0
 10
0
 20
0
 30
0
 70
128
 71
10
 72
24
 73
23
 74
23
 0
VERTEX
 8
MESH_163_F0
 10
0
 20
0
 30
0
 70
128
 71
9
 72
25
 73
24
 74
24
 0
VERTEX
 8
MESH_163_F0
 10
0
 20
0
 30
0
 70
128
 71
8
 72
26
 73
25
 74
25
 0
VERTEX
 8
MESH_163_F0
 10
0
 20
0
 30
0
 70
128
 71
7
 72
27
 73
26
 74
26
 0
VERTEX
 8
MESH_163_F0
 10
0
 20
0
 30
0
 70
128
 71
6
 72
28
 73
27
 74
27
 0
SEQEND
 0
POLYLINE
 8
MESH_162_F0
 66
1
 10
0.0
 20
0.0
 30
0.0
 70
64
 71
4
 72
2
 0
VERTEX
 8
MESH_162_F0
 10
-336
 20
-50
 30
25
 70
192
 0
VERTEX
 8
MESH_162_F0
 10
-336
 20
-50
 30
0
 70
192
 0
VERTEX
 8
MESH_162_F0
 10
-316
 20
-50
 30
0
 70
192
 0
VERTEX
 8
MESH_162_F0
 10
-316
 20
-50
 30
25
 70
192
 0
VERTEX
 8
MESH_162_F0
 10
0
 20
0
 30
0
 70
128
 71
1
 72
3
 73
2
 74
2
 0
VERTEX
 8
MESH_162_F0
 10
0
 20
0
 30
0
 70
128
 71
4
 72
3
 73
1
 74
1
 0
SEQEND
 0
POLYLINE
 8
MESH_161_F0
 66
1
 10
0.0
 20
0.0
 30
0.0
 70
64
 71
30
 72
28
 0
VERTEX
 8
MESH_161_F0
 10
-316
 20
-50
 30
25
 70
192
 0
VERTEX
 8
MESH_161_F0
 10
-316
 20
-50
 30
0
 70
192
 0
VERTEX
 8
MESH_161_F0
 10
-310.3447
 20
-50.3229
 30
0
 70
192
 0
VERTEX
 8
MESH_161_F0
 10
-304.8202
 20
-51.2659
 30
0
 70
192
 0
VERTEX
 8
MESH_161_F0
 10
-299.442
 20
-52.8232
 30
0
 70
192
 0
VERTEX
 8
MESH_161_F0
 10
-294.2561
 20
-54.9756
 30
0
 70
192
 0
VERTEX
 8
MESH_161_F0
 10
-289.3638
 20
-57.685
 30
0
 70
192
 0
VERTEX
 8
MESH_161_F0
 10
-284.8083
 20
-60.9223
 30
0
 70
192
 0
VERTEX
 8
MESH_161_F0
 10
-280.6455
 20
-64.6455
 30
0
 70
192
 0
VERTEX
 8
MESH_161_F0
 10
-276.9223
 20
-68.8083
 30
0
 70
192
 0
VERTEX
 8
MESH_161_F0
 10
-273.685
 20
-73.3638
 30
0
 70
192
 0
VERTEX
 8
MESH_161_F0
 10
-270.9756
 20
-78.2561
 30
0
 70
192
 0
VERTEX
 8
MESH_161_F0
 10
-268.8232
 20
-83.442
 30
0
 70
192
 0
VERTEX
 8
MESH_161_F0
 10
-267.266
 20
-88.8202
 30
0
 70
192
 0
VERTEX
 8
MESH_161_F0
 10
-266.3229
 20
-94.3447
 30
0
 70
192
 0
VERTEX
 8
MESH_161_F0
 10
-266
 20
-100
 30
0
 70
192
 0
VERTEX
 8
MESH_161_F0
 10
-266
 20
-100
 30
25
 70
192
 0
VERTEX
 8
MESH_161_F0
 10
-266.3229
 20
-94.3447
 30
25
 70
192
 0
VERTEX
 8
MESH_161_F0
 10
-267.266
 20
-88.8202
 30
25
 70
192
 0
VERTEX
 8
MESH_161_F0
 10
-268.8232
 20
-83.442
 30
25
 70
192
 0
VERTEX
 8
MESH_161_F0
 10
-270.9756
 20
-78.2561
 30
25
 70
192
 0
VERTEX
 8
MESH_161_F0
 10
-273.685
 20
-73.3638
 30
25
 70
192
 0
VERTEX
 8
MESH_161_F0
 10
-276.9223
 20
-68.8083
 30
25
 70
192
 0
VERTEX
 8
MESH_161_F0
 10
-280.6455
 20
-64.6455
 30
25
 70
192
 0
VERTEX
 8
MESH_161_F0
 10
-284.8083
 20
-60.9223
 30
25
 70
192
 0
VERTEX
 8
MESH_161_F0
 10
-289.3638
 20
-57.685
 30
25
 70
192
 0
VERTEX
 8
MESH_161_F0
 10
-294.2561
 20
-54.9756
 30
25
 70
192
 0
VERTEX
 8
MESH_161_F0
 10
-299.442
 20
-52.8232
 30
25
 70
192
 0
VERTEX
 8
MESH_161_F0
 10
-304.8202
 20
-51.2659
 30
25
 70
192
 0
VERTEX
 8
MESH_161_F0
 10
-310.3447
 20
-50.3229
 30
25
 70
192
 0
VERTEX
 8
MESH_161_F0
 10
0
 20
0
 30
0
 70
128
 71
30
 72
2
 73
1
 74
1
 0
VERTEX
 8
MESH_161_F0
 10
0
 20
0
 30
0
 70
128
 71
3
 72
2
 73
30
 74
30
 0
VERTEX
 8
MESH_161_F0
 10
0
 20
0
 30
0
 70
128
 71
3
 72
30
 73
4
 74
4
 0
VERTEX
 8
MESH_161_F0
 10
0
 20
0
 30
0
 70
128
 71
30
 72
29
 73
4
 74
4
 0
VERTEX
 8
MESH_161_F0
 10
0
 20
0
 30
0
 70
128
 71
29
 72
5
 73
4
 74
4
 0
VERTEX
 8
MESH_161_F0
 10
0
 20
0
 30
0
 70
128
 71
28
 72
5
 73
29
 74
29
 0
VERTEX
 8
MESH_161_F0
 10
0
 20
0
 30
0
 70
128
 71
6
 72
5
 73
28
 74
28
 0
VERTEX
 8
MESH_161_F0
 10
0
 20
0
 30
0
 70
128
 71
7
 72
6
 73
27
 74
27
 0
VERTEX
 8
MESH_161_F0
 10
0
 20
0
 30
0
 70
128
 71
8
 72
7
 73
26
 74
26
 0
VERTEX
 8
MESH_161_F0
 10
0
 20
0
 30
0
 70
128
 71
9
 72
8
 73
25
 74
25
 0
VERTEX
 8
MESH_161_F0
 10
0
 20
0
 30
0
 70
128
 71
10
 72
9
 73
24
 74
24
 0
VERTEX
 8
MESH_161_F0
 10
0
 20
0
 30
0
 70
128
 71
11
 72
10
 73
23
 74
23
 0
VERTEX
 8
MESH_161_F0
 10
0
 20
0
 30
0
 70
128
 71
12
 72
11
 73
22
 74
22
 0
VERTEX
 8
MESH_161_F0
 10
0
 20
0
 30
0
 70
128
 71
13
 72
12
 73
21
 74
21
 0
VERTEX
 8
MESH_161_F0
 10
0
 20
0
 30
0
 70
128
 71
14
 72
13
 73
20
 74
20
 0
VERTEX
 8
MESH_161_F0
 10
0
 20
0
 30
0
 70
128
 71
15
 72
14
 73
19
 74
19
 0
VERTEX
 8
MESH_161_F0
 10
0
 20
0
 30
0
 70
128
 71
17
 72
15
 73
18
 74
18
 0
VERTEX
 8
MESH_161_F0
 10
0
 20
0
 30
0
 70
128
 71
15
 72
19
 73
18
 74
18
 0
VERTEX
 8
MESH_161_F0
 10
0
 20
0
 30
0
 70
128
 71
17
 72
16
 73
15
 74
15
 0
VERTEX
 8
MESH_161_F0
 10
0
 20
0
 30
0
 70
128
 71
14
 72
20
 73
19
 74
19
 0
VERTEX
 8
MESH_161_F0
 10
0
 20
0
 30
0
 70
128
 71
13
 72
21
 73
20
 74
20
 0
VERTEX
 8
MESH_161_F0
 10
0
 20
0
 30
0
 70
128
 71
12
 72
22
 73
21
 74
21
 0
VERTEX
 8
MESH_161_F0
 10
0
 20
0
 30
0
 70
128
 71
11
 72
23
 73
22
 74
22
 0
VERTEX
 8
MESH_161_F0
 10
0
 20
0
 30
0
 70
128
 71
10
 72
24
 73
23
 74
23
 0
VERTEX
 8
MESH_161_F0
 10
0
 20
0
 30
0
 70
128
 71
9
 72
25
 73
24
 74
24
 0
VERTEX
 8
MESH_161_F0
 10
0
 20
0
 30
0
 70
128
 71
8
 72
26
 73
25
 74
25
 0
VERTEX
 8
MESH_161_F0
 10
0
 20
0
 30
0
 70
128
 71
7
 72
27
 73
26
 74
26
 0
VERTEX
 8
MESH_161_F0
 10
0
 20
0
 30
0
 70
128
 71
6
 72
28
 73
27
 74
27
 0
SEQEND
 0
POLYLINE
 8
MESH_160_F0
 66
1
 10
0.0
 20
0.0
 30
0.0
 70
64
 71
4
 72
2
 0
VERTEX
 8
MESH_160_F0
 10
-266
 20
-100
 30
25
 70
192
 0
VERTEX
 8
MESH_160_F0
 10
-266
 20
-100
 30
0
 70
192
 0
VERTEX
 8
MESH_160_F0
 10
-266
 20
-350
 30
0
 70
192
 0
VERTEX
 8
MESH_160_F0
 10
-266
 20
-350
 30
25
 70
192
 0
VERTEX
 8
MESH_160_F0
 10
0
 20
0
 30
0
 70
128
 71
1
 72
3
 73
2
 74
2
 0
VERTEX
 8
MESH_160_F0
 10
0
 20
0
 30
0
 70
128
 71
4
 72
3
 73
1
 74
1
 0
SEQEND
 0
POLYLINE
 8
MESH_159_F0
 66
1
 10
0.0
 20
0.0
 30
0.0
 70
64
 71
172
 72
174
 0
VERTEX
 8
MESH_159_F0
 10
-266
 20
-350
 30
0
 70
192
 0
VERTEX
 8
MESH_159_F0
 10
-266
 20
-100
 30
0
 70
192
 0
VERTEX
 8
MESH_159_F0
 10
-266.3229
 20
-94.3447
 30
0
 70
192
 0
VERTEX
 8
MESH_159_F0
 10
-267.266
 20
-88.8202
 30
0
 70
192
 0
VERTEX
 8
MESH_159_F0
 10
-268.8232
 20
-83.442
 30
0
 70
192
 0
VERTEX
 8
MESH_159_F0
 10
-270.9756
 20
-78.2561
 30
0
 70
192
 0
VERTEX
 8
MESH_159_F0
 10
-273.685
 20
-73.3638
 30
0
 70
192
 0
VERTEX
 8
MESH_159_F0
 10
-276.9223
 20
-68.8083
 30
0
 70
192
 0
VERTEX
 8
MESH_159_F0
 10
-280.6455
 20
-64.6455
 30
0
 70
192
 0
VERTEX
 8
MESH_159_F0
 10
-284.8083
 20
-60.9223
 30
0
 70
192
 0
VERTEX
 8
MESH_159_F0
 10
-289.3638
 20
-57.685
 30
0
 70
192
 0
VERTEX
 8
MESH_159_F0
 10
-294.2561
 20
-54.9756
 30
0
 70
192
 0
VERTEX
 8
MESH_159_F0
 10
-299.442
 20
-52.8232
 30
0
 70
192
 0
VERTEX
 8
MESH_159_F0
 10
-304.8202
 20
-51.2659
 30
0
 70
192
 0
VERTEX
 8
MESH_159_F0
 10
-310.3447
 20
-50.3229
 30
0
 70
192
 0
VERTEX
 8
MESH_159_F0
 10
-316
 20
-50
 30
0
 70
192
 0
VERTEX
 8
MESH_159_F0
 10
-336
 20
-50
 30
0
 70
192
 0
VERTEX
 8
MESH_159_F0
 10
-341.6553
 20
-50.3229
 30
0
 70
192
 0
VERTEX
 8
MESH_159_F0
 10
-347.1798
 20
-51.2659
 30
0
 70
192
 0
VERTEX
 8
MESH_159_F0
 10
-352.558
 20
-52.8232
 30
0
 70
192
 0
VERTEX
 8
MESH_159_F0
 10
-357.7439
 20
-54.9756
 30
0
 70
192
 0
VERTEX
 8
MESH_159_F0
 10
-362.6362
 20
-57.685
 30
0
 70
192
 0
VERTEX
 8
MESH_159_F0
 10
-367.1917
 20
-60.9223
 30
0
 70
192
 0
VERTEX
 8
MESH_159_F0
 10
-371.3545
 20
-64.6455
 30
0
 70
192
 0
VERTEX
 8
MESH_159_F0
 10
-375.0777
 20
-68.8083
 30
0
 70
192
 0
VERTEX
 8
MESH_159_F0
 10
-378.315
 20
-73.3638
 30
0
 70
192
 0
VERTEX
 8
MESH_159_F0
 10
-381.0244
 20
-78.2561
 30
0
 70
192
 0
VERTEX
 8
MESH_159_F0
 10
-383.1768
 20
-83.442
 30
0
 70
192
 0
VERTEX
 8
MESH_159_F0
 10
-384.734
 20
-88.8202
 30
0
 70
192
 0
VERTEX
 8
MESH_159_F0
 10
-385.6771
 20
-94.3447
 30
0
 70
192
 0
VERTEX
 8
MESH_159_F0
 10
-386
 20
-100
 30
0
 70
192
 0
VERTEX
 8
MESH_159_F0
 10
-386
 20
-350
 30
0
 70
192
 0
VERTEX
 8
MESH_159_F0
 10
-385.6771
 20
-355.6553
 30
0
 70
192
 0
VERTEX
 8
MESH_159_F0
 10
-384.734
 20
-361.1798
 30
0
 70
192
 0
VERTEX
 8
MESH_159_F0
 10
-383.1768
 20
-366.558
 30
0
 70
192
 0
VERTEX
 8
MESH_159_F0
 10
-381.0244
 20
-371.7439
 30
0
 70
192
 0
VERTEX
 8
MESH_159_F0
 10
-378.315
 20
-376.6362
 30
0
 70
192
 0
VERTEX
 8
MESH_159_F0
 10
-375.0777
 20
-381.1917
 30
0
 70
192
 0
VERTEX
 8
MESH_159_F0
 10
-371.3545
 20
-385.3545
 30
0
 70
192
 0
VERTEX
 8
MESH_159_F0
 10
-367.1917
 20
-389.0777
 30
0
 70
192
 0
VERTEX
 8
MESH_159_F0
 10
-362.6362
 20
-392.315
 30
0
 70
192
 0
VERTEX
 8
MESH_159_F0
 10
-357.7439
 20
-395.0244
 30
0
 70
192
 0
VERTEX
 8
MESH_159_F0
 10
-352.558
 20
-397.1768
 30
0
 70
192
 0
VERTEX
 8
MESH_159_F0
 10
-347.1798
 20
-398.734
 30
0
 70
192
 0
VERTEX
 8
MESH_159_F0
 10
-341.6553
 20
-399.6771
 30
0
 70
192
 0
VERTEX
 8
MESH_159_F0
 10
-336
 20
-400
 30
0
 70
192
 0
VERTEX
 8
MESH_159_F0
 10
-316
 20
-400
 30
0
 70
192
 0
VERTEX
 8
MESH_159_F0
 10
-310.3447
 20
-399.6771
 30
0
 70
192
 0
VERTEX
 8
MESH_159_F0
 10
-304.8202
 20
-398.734
 30
0
 70
192
 0
VERTEX
 8
MESH_159_F0
 10
-299.442
 20
-397.1768
 30
0
 70
192
 0
VERTEX
 8
MESH_159_F0
 10
-294.2561
 20
-395.0244
 30
0
 70
192
 0
VERTEX
 8
MESH_159_F0
 10
-289.3638
 20
-392.315
 30
0
 70
192
 0
VERTEX
 8
MESH_159_F0
 10
-284.8083
 20
-389.0777
 30
0
 70
192
 0
VERTEX
 8
MESH_159_F0
 10
-280.6455
 20
-385.3545
 30
0
 70
192
 0
VERTEX
 8
MESH_159_F0
 10
-276.9223
 20
-381.1917
 30
0
 70
192
 0
VERTEX
 8
MESH_159_F0
 10
-273.685
 20
-376.6362
 30
0
 70
192
 0
VERTEX
 8
MESH_159_F0
 10
-270.9756
 20
-371.7439
 30
0
 70
192
 0
VERTEX
 8
MESH_159_F0
 10
-268.8232
 20
-366.558
 30
0
 70
192
 0
VERTEX
 8
MESH_159_F0
 10
-267.266
 20
-361.1798
 30
0
 70
192
 0
VERTEX
 8
MESH_159_F0
 10
-266.3229
 20
-355.6553
 30
0
 70
192
 0
VERTEX
 8
MESH_159_F0
 10
384
 20
-350
 30
0
 70
192
 0
VERTEX
 8
MESH_159_F0
 10
384
 20
-100
 30
0
 70
192
 0
VERTEX
 8
MESH_159_F0
 10
383.6771
 20
-94.3447
 30
0
 70
192
 0
VERTEX
 8
MESH_159_F0
 10
382.734
 20
-88.8202
 30
0
 70
192
 0
VERTEX
 8
MESH_159_F0
 10
381.1768
 20
-83.442
 30
0
 70
192
 0
VERTEX
 8
MESH_159_F0
 10
379.0244
 20
-78.2561
 30
0
 70
192
 0
VERTEX
 8
MESH_159_F0
 10
376.315
 20
-73.3638
 30
0
 70
192
 0
VERTEX
 8
MESH_159_F0
 10
373.0777
 20
-68.8083
 30
0
 70
192
 0
VERTEX
 8
MESH_159_F0
 10
369.3545
 20
-64.6455
 30
0
 70
192
 0
VERTEX
 8
MESH_159_F0
 10
365.1917
 20
-60.9223
 30
0
 70
192
 0
VERTEX
 8
MESH_159_F0
 10
360.6362
 20
-57.685
 30
0
 70
192
 0
VERTEX
 8
MESH_159_F0
 10
355.7439
 20
-54.9756
 30
0
 70
192
 0
VERTEX
 8
MESH_159_F0
 10
350.558
 20
-52.8232
 30
0
 70
192
 0
VERTEX
 8
MESH_159_F0
 10
345.1798
 20
-51.2659
 30
0
 70
192
 0
VERTEX
 8
MESH_159_F0
 10
339.6553
 20
-50.3229
 30
0
 70
192
 0
VERTEX
 8
MESH_159_F0
 10
334
 20
-50
 30
0
 70
192
 0
VERTEX
 8
MESH_159_F0
 10
314
 20
-50
 30
0
 70
192
 0
VERTEX
 8
MESH_159_F0
 10
308.3447
 20
-50.3229
 30
0
 70
192
 0
VERTEX
 8
MESH_159_F0
 10
302.8202
 20
-51.2659
 30
0
 70
192
 0
VERTEX
 8
MESH_159_F0
 10
297.442
 20
-52.8232
 30
0
 70
192
 0
VERTEX
 8
MESH_159_F0
 10
292.2561
 20
-54.9756
 30
0
 70
192
 0
VERTEX
 8
MESH_159_F0
 10
287.3638
 20
-57.685
 30
0
 70
192
 0
VERTEX
 8
MESH_159_F0
 10
282.8083
 20
-60.9223
 30
0
 70
192
 0
VERTEX
 8
MESH_159_F0
 10
278.6455
 20
-64.6455
 30
0
 70
192
 0
VERTEX
 8
MESH_159_F0
 10
274.9223
 20
-68.8083
 30
0
 70
192
 0
VERTEX
 8
MESH_159_F0
 10
271.685
 20
-73.3638
 30
0
 70
192
 0
VERTEX
 8
MESH_159_F0
 10
268.9756
 20
-78.2561
 30
0
 70
192
 0
VERTEX
 8
MESH_159_F0
 10
266.8232
 20
-83.442
 30
0
 70
192
 0
VERTEX
 8
MESH_159_F0
 10
265.266
 20
-88.8202
 30
0
 70
192
 0
VERTEX
 8
MESH_159_F0
 10
264.3229
 20
-94.3447
 30
0
 70
192
 0
VERTEX
 8
MESH_159_F0
 10
264
 20
-100
 30
0
 70
192
 0
VERTEX
 8
MESH_159_F0
 10
264
 20
-350
 30
0
 70
192
 0
VERTEX
 8
MESH_159_F0
 10
264.3229
 20
-355.6553
 30
0
 70
192
 0
VERTEX
 8
MESH_159_F0
 10
265.266
 20
-361.1798
 30
0
 70
192
 0
VERTEX
 8
MESH_159_F0
 10
266.8232
 20
-366.558
 30
0
 70
192
 0
VERTEX
 8
MESH_159_F0
 10
268.9756
 20
-371.7439
 30
0
 70
192
 0
VERTEX
 8
MESH_159_F0
 10
271.685
 20
-376.6362
 30
0
 70
192
 0
VERTEX
 8
MESH_159_F0
 10
274.9223
 20
-381.1917
 30
0
 70
192
 0
VERTEX
 8
MESH_159_F0
 10
278.6455
 20
-385.3545
 30
0
 70
192
 0
VERTEX
 8
MESH_159_F0
 10
282.8083
 20
-389.0777
 30
0
 70
192
 0
VERTEX
 8
MESH_159_F0
 10
287.3638
 20
-392.315
 30
0
 70
192
 0
VERTEX
 8
MESH_159_F0
 10
292.2561
 20
-395.0244
 30
0
 70
192
 0
VERTEX
 8
MESH_159_F0
 10
297.442
 20
-397.1768
 30
0
 70
192
 0
VERTEX
 8
MESH_159_F0
 10
302.8202
 20
-398.734
 30
0
 70
192
 0
VERTEX
 8
MESH_159_F0
 10
308.3447
 20
-399.6771
 30
0
 70
192
 0
VERTEX
 8
MESH_159_F0
 10
314
 20
-400
 30
0
 70
192
 0
VERTEX
 8
MESH_159_F0
 10
334
 20
-400
 30
0
 70
192
 0
VERTEX
 8
MESH_159_F0
 10
339.6553
 20
-399.6771
 30
0
 70
192
 0
VERTEX
 8
MESH_159_F0
 10
345.1798
 20
-398.734
 30
0
 70
192
 0
VERTEX
 8
MESH_159_F0
 10
350.558
 20
-397.1768
 30
0
 70
192
 0
VERTEX
 8
MESH_159_F0
 10
355.7439
 20
-395.0244
 30
0
 70
192
 0
VERTEX
 8
MESH_159_F0
 10
360.6362
 20
-392.315
 30
0
 70
192
 0
VERTEX
 8
MESH_159_F0
 10
365.1917
 20
-389.0777
 30
0
 70
192
 0
VERTEX
 8
MESH_159_F0
 10
369.3545
 20
-385.3545
 30
0
 70
192
 0
VERTEX
 8
MESH_159_F0
 10
373.0777
 20
-381.1917
 30
0
 70
192
 0
VERTEX
 8
MESH_159_F0
 10
376.315
 20
-376.6362
 30
0
 70
192
 0
VERTEX
 8
MESH_159_F0
 10
379.0244
 20
-371.7439
 30
0
 70
192
 0
VERTEX
 8
MESH_159_F0
 10
381.1768
 20
-366.558
 30
0
 70
192
 0
VERTEX
 8
MESH_159_F0
 10
382.734
 20
-361.1798
 30
0
 70
192
 0
VERTEX
 8
MESH_159_F0
 10
383.6771
 20
-355.6553
 30
0
 70
192
 0
VERTEX
 8
MESH_159_F0
 10
700
 20
-415
 30
0
 70
192
 0
VERTEX
 8
MESH_159_F0
 10
699.9391
 20
-416.7286
 30
0
 70
192
 0
VERTEX
 8
MESH_159_F0
 10
699.7711
 20
-418.4273
 30
0
 70
192
 0
VERTEX
 8
MESH_159_F0
 10
699.4948
 20
-420.0992
 30
0
 70
192
 0
VERTEX
 8
MESH_159_F0
 10
699.1091
 20
-421.7477
 30
0
 70
192
 0
VERTEX
 8
MESH_159_F0
 10
698.6154
 20
-423.3683
 30
0
 70
192
 0
VERTEX
 8
MESH_159_F0
 10
698.0153
 20
-424.9592
 30
0
 70
192
 0
VERTEX
 8
MESH_159_F0
 10
697.3119
 20
-426.5108
 30
0
 70
192
 0
VERTEX
 8
MESH_159_F0
 10
696.5087
 20
-428.0136
 30
0
 70
192
 0
VERTEX
 8
MESH_159_F0
 10
695.6108
 20
-429.4563
 30
0
 70
192
 0
VERTEX
 8
MESH_159_F0
 10
694.621
 20
-430.8358
 30
0
 70
192
 0
VERTEX
 8
MESH_159_F0
 10
693.5441
 20
-432.147
 30
0
 70
192
 0
VERTEX
 8
MESH_159_F0
 10
692.3843
 20
-433.385
 30
0
 70
192
 0
VERTEX
 8
MESH_159_F0
 10
691.1464
 20
-434.5447
 30
0
 70
192
 0
VERTEX
 8
MESH_159_F0
 10
689.8351
 20
-435.6216
 30
0
 70
192
 0
VERTEX
 8
MESH_159_F0
 10
688.4556
 20
-436.6112
 30
0
 70
192
 0
VERTEX
 8
MESH_159_F0
 10
687.0129
 20
-437.5091
 30
0
 70
192
 0
VERTEX
 8
MESH_159_F0
 10
685.5101
 20
-438.3123
 30
0
 70
192
 0
VERTEX
 8
MESH_159_F0
 10
683.9586
 20
-439.0155
 30
0
 70
192
 0
VERTEX
 8
MESH_159_F0
 10
682.3677
 20
-439.6156
 30
0
 70
192
 0
VERTEX
 8
MESH_159_F0
 10
680.7471
 20
-440.1092
 30
0
 70
192
 0
VERTEX
 8
MESH_159_F0
 10
679.0989
 20
-440.4949
 30
0
 70
192
 0
VERTEX
 8
MESH_159_F0
 10
677.4271
 20
-440.7711
 30
0
 70
192
 0
VERTEX
 8
MESH_159_F0
 10
675.7285
 20
-440.9392
 30
0
 70
192
 0
VERTEX
 8
MESH_159_F0
 10
674
 20
-441
 30
0
 70
192
 0
VERTEX
 8
MESH_159_F0
 10
-676
 20
-441
 30
0
 70
192
 0
VERTEX
 8
MESH_159_F0
 10
-677.7286
 20
-440.9392
 30
0
 70
192
 0
VERTEX
 8
MESH_159_F0
 10
-679.4273
 20
-440.7711
 30
0
 70
192
 0
VERTEX
 8
MESH_159_F0
 10
-681.0992
 20
-440.4948
 30
0
 70
192
 0
VERTEX
 8
MESH_159_F0
 10
-682.7477
 20
-440.1091
 30
0
 70
192
 0
VERTEX
 8
MESH_159_F0
 10
-684.3683
 20
-439.6154
 30
0
 70
192
 0
VERTEX
 8
MESH_159_F0
 10
-685.9592
 20
-439.0153
 30
0
 70
192
 0
VERTEX
 8
MESH_159_F0
 10
-687.5108
 20
-438.3119
 30
0
 70
192
 0
VERTEX
 8
MESH_159_F0
 10
-689.0136
 20
-437.5087
 30
0
 70
192
 0
VERTEX
 8
MESH_159_F0
 10
-690.4563
 20
-436.6107
 30
0
 70
192
 0
VERTEX
 8
MESH_159_F0
 10
-691.8358
 20
-435.6211
 30
0
 70
192
 0
VERTEX
 8
MESH_159_F0
 10
-693.147
 20
-434.5441
 30
0
 70
192
 0
VERTEX
 8
MESH_159_F0
 10
-694.3849
 20
-433.3843
 30
0
 70
192
 0
VERTEX
 8
MESH_159_F0
 10
-695.5447
 20
-432.1463
 30
0
 70
192
 0
VERTEX
 8
MESH_159_F0
 10
-696.6216
 20
-430.8351
 30
0
 70
192
 0
VERTEX
 8
MESH_159_F0
 10
-697.6112
 20
-429.4556
 30
0
 70
192
 0
VERTEX
 8
MESH_159_F0
 10
-698.5091
 20
-428.0129
 30
0
 70
192
 0
VERTEX
 8
MESH_159_F0
 10
-699.3123
 20
-426.5102
 30
0
 70
192
 0
VERTEX
 8
MESH_159_F0
 10
-700.0155
 20
-424.9586
 30
0
 70
192
 0
VERTEX
 8
MESH_159_F0
 10
-700.6156
 20
-423.3678
 30
0
 70
192
 0
VERTEX
 8
MESH_159_F0
 10
-701.1093
 20
-421.7472
 30
0
 70
192
 0
VERTEX
 8
MESH_159_F0
 10
-701.4949
 20
-420.0989
 30
0
 70
192
 0
VERTEX
 8
MESH_159_F0
 10
-701.7712
 20
-418.4271
 30
0
 70
192
 0
VERTEX
 8
MESH_159_F0
 10
-701.9391
 20
-416.7285
 30
0
 70
192
 0
VERTEX
 8
MESH_159_F0
 10
-702
 20
-415
 30
0
 70
192
 0
VERTEX
 8
MESH_159_F0
 10
-702
 20
0
 30
0
 70
192
 0
VERTEX
 8
MESH_159_F0
 10
700
 20
0
 30
0
 70
192
 0
VERTEX
 8
MESH_159_F0
 10
0
 20
0
 30
0
 70
128
 71
92
 72
1
 73
60
 74
60
 0
VERTEX
 8
MESH_159_F0
 10
0
 20
0
 30
0
 70
128
 71
58
 72
92
 73
59
 74
59
 0
VERTEX
 8
MESH_159_F0
 10
0
 20
0
 30
0
 70
128
 71
92
 72
60
 73
59
 74
59
 0
VERTEX
 8
MESH_159_F0
 10
0
 20
0
 30
0
 70
128
 71
2
 72
91
 73
3
 74
3
 0
VERTEX
 8
MESH_159_F0
 10
0
 20
0
 30
0
 70
128
 71
91
 72
4
 73
3
 74
3
 0
VERTEX
 8
MESH_159_F0
 10
0
 20
0
 30
0
 70
128
 71
5
 72
4
 73
91
 74
91
 0
VERTEX
 8
MESH_159_F0
 10
0
 20
0
 30
0
 70
128
 71
5
 72
91
 73
6
 74
6
 0
VERTEX
 8
MESH_159_F0
 10
0
 20
0
 30
0
 70
128
 71
91
 72
7
 73
6
 74
6
 0
VERTEX
 8
MESH_159_F0
 10
0
 20
0
 30
0
 70
128
 71
8
 72
7
 73
91
 74
91
 0
VERTEX
 8
MESH_159_F0
 10
0
 20
0
 30
0
 70
128
 71
8
 72
91
 73
9
 74
9
 0
VERTEX
 8
MESH_159_F0
 10
0
 20
0
 30
0
 70
128
 71
91
 72
10
 73
9
 74
9
 0
VERTEX
 8
MESH_159_F0
 10
0
 20
0
 30
0
 70
128
 71
11
 72
10
 73
91
 74
91
 0
VERTEX
 8
MESH_159_F0
 10
0
 20
0
 30
0
 70
128
 71
11
 72
91
 73
12
 74
12
 0
VERTEX
 8
MESH_159_F0
 10
0
 20
0
 30
0
 70
128
 71
91
 72
13
 73
12
 74
12
 0
VERTEX
 8
MESH_159_F0
 10
0
 20
0
 30
0
 70
128
 71
90
 72
13
 73
91
 74
91
 0
VERTEX
 8
MESH_159_F0
 10
0
 20
0
 30
0
 70
128
 71
89
 72
13
 73
90
 74
90
 0
VERTEX
 8
MESH_159_F0
 10
0
 20
0
 30
0
 70
128
 71
88
 72
13
 73
89
 74
89
 0
VERTEX
 8
MESH_159_F0
 10
0
 20
0
 30
0
 70
128
 71
14
 72
13
 73
88
 74
88
 0
VERTEX
 8
MESH_159_F0
 10
0
 20
0
 30
0
 70
128
 71
86
 72
14
 73
87
 74
87
 0
VERTEX
 8
MESH_159_F0
 10
0
 20
0
 30
0
 70
128
 71
14
 72
88
 73
87
 74
87
 0
VERTEX
 8
MESH_159_F0
 10
0
 20
0
 30
0
 70
128
 71
85
 72
14
 73
86
 74
86
 0
VERTEX
 8
MESH_159_F0
 10
0
 20
0
 30
0
 70
128
 71
15
 72
14
 73
85
 74
85
 0
VERTEX
 8
MESH_159_F0
 10
0
 20
0
 30
0
 70
128
 71
83
 72
15
 73
84
 74
84
 0
VERTEX
 8
MESH_159_F0
 10
0
 20
0
 30
0
 70
128
 71
15
 72
85
 73
84
 74
84
 0
VERTEX
 8
MESH_159_F0
 10
0
 20
0
 30
0
 70
128
 71
15
 72
171
 73
16
 74
16
 0
VERTEX
 8
MESH_159_F0
 10
0
 20
0
 30
0
 70
128
 71
171
 72
17
 73
16
 74
16
 0
VERTEX
 8
MESH_159_F0
 10
0
 20
0
 30
0
 70
128
 71
18
 72
17
 73
171
 74
171
 0
VERTEX
 8
MESH_159_F0
 10
0
 20
0
 30
0
 70
128
 71
18
 72
171
 73
19
 74
19
 0
VERTEX
 8
MESH_159_F0
 10
0
 20
0
 30
0
 70
128
 71
171
 72
20
 73
19
 74
19
 0
VERTEX
 8
MESH_159_F0
 10
0
 20
0
 30
0
 70
128
 71
21
 72
20
 73
171
 74
171
 0
VERTEX
 8
MESH_159_F0
 10
0
 20
0
 30
0
 70
128
 71
21
 72
171
 73
22
 74
22
 0
VERTEX
 8
MESH_159_F0
 10
0
 20
0
 30
0
 70
128
 71
171
 72
23
 73
22
 74
22
 0
VERTEX
 8
MESH_159_F0
 10
0
 20
0
 30
0
 70
128
 71
24
 72
23
 73
171
 74
171
 0
VERTEX
 8
MESH_159_F0
 10
0
 20
0
 30
0
 70
128
 71
24
 72
171
 73
25
 74
25
 0
VERTEX
 8
MESH_159_F0
 10
0
 20
0
 30
0
 70
128
 71
171
 72
26
 73
25
 74
25
 0
VERTEX
 8
MESH_159_F0
 10
0
 20
0
 30
0
 70
128
 71
27
 72
26
 73
171
 74
171
 0
VERTEX
 8
MESH_159_F0
 10
0
 20
0
 30
0
 70
128
 71
27
 72
171
 73
28
 74
28
 0
VERTEX
 8
MESH_159_F0
 10
0
 20
0
 30
0
 70
128
 71
171
 72
29
 73
28
 74
28
 0
VERTEX
 8
MESH_159_F0
 10
0
 20
0
 30
0
 70
128
 71
30
 72
29
 73
171
 74
171
 0
VERTEX
 8
MESH_159_F0
 10
0
 20
0
 30
0
 70
128
 71
30
 72
171
 73
31
 74
31
 0
VERTEX
 8
MESH_159_F0
 10
0
 20
0
 30
0
 70
128
 71
171
 72
170
 73
31
 74
31
 0
VERTEX
 8
MESH_159_F0
 10
0
 20
0
 30
0
 70
128
 71
170
 72
32
 73
31
 74
31
 0
VERTEX
 8
MESH_159_F0
 10
0
 20
0
 30
0
 70
128
 71
146
 72
32
 73
170
 74
170
 0
VERTEX
 8
MESH_159_F0
 10
0
 20
0
 30
0
 70
128
 71
168
 72
146
 73
169
 74
169
 0
VERTEX
 8
MESH_159_F0
 10
0
 20
0
 30
0
 70
128
 71
146
 72
170
 73
169
 74
169
 0
VERTEX
 8
MESH_159_F0
 10
0
 20
0
 30
0
 70
128
 71
146
 72
33
 73
32
 74
32
 0
VERTEX
 8
MESH_159_F0
 10
0
 20
0
 30
0
 70
128
 71
34
 72
33
 73
146
 74
146
 0
VERTEX
 8
MESH_159_F0
 10
0
 20
0
 30
0
 70
128
 71
34
 72
146
 73
35
 74
35
 0
VERTEX
 8
MESH_159_F0
 10
0
 20
0
 30
0
 70
128
 71
146
 72
36
 73
35
 74
35
 0
VERTEX
 8
MESH_159_F0
 10
0
 20
0
 30
0
 70
128
 71
37
 72
36
 73
146
 74
146
 0
VERTEX
 8
MESH_159_F0
 10
0
 20
0
 30
0
 70
128
 71
37
 72
146
 73
38
 74
38
 0
VERTEX
 8
MESH_159_F0
 10
0
 20
0
 30
0
 70
128
 71
146
 72
39
 73
38
 74
38
 0
VERTEX
 8
MESH_159_F0
 10
0
 20
0
 30
0
 70
128
 71
40
 72
39
 73
146
 74
146
 0
VERTEX
 8
MESH_159_F0
 10
0
 20
0
 30
0
 70
128
 71
40
 72
146
 73
41
 74
41
 0
VERTEX
 8
MESH_159_F0
 10
0
 20
0
 30
0
 70
128
 71
146
 72
42
 73
41
 74
41
 0
VERTEX
 8
MESH_159_F0
 10
0
 20
0
 30
0
 70
128
 71
43
 72
42
 73
146
 74
146
 0
VERTEX
 8
MESH_159_F0
 10
0
 20
0
 30
0
 70
128
 71
43
 72
146
 73
44
 74
44
 0
VERTEX
 8
MESH_159_F0
 10
0
 20
0
 30
0
 70
128
 71
146
 72
45
 73
44
 74
44
 0
VERTEX
 8
MESH_159_F0
 10
0
 20
0
 30
0
 70
128
 71
46
 72
45
 73
146
 74
146
 0
VERTEX
 8
MESH_159_F0
 10
0
 20
0
 30
0
 70
128
 71
46
 72
146
 73
47
 74
47
 0
VERTEX
 8
MESH_159_F0
 10
0
 20
0
 30
0
 70
128
 71
146
 72
48
 73
47
 74
47
 0
VERTEX
 8
MESH_159_F0
 10
0
 20
0
 30
0
 70
128
 71
105
 72
48
 73
146
 74
146
 0
VERTEX
 8
MESH_159_F0
 10
0
 20
0
 30
0
 70
128
 71
106
 72
105
 73
145
 74
145
 0
VERTEX
 8
MESH_159_F0
 10
0
 20
0
 30
0
 70
128
 71
106
 72
145
 73
107
 74
107
 0
VERTEX
 8
MESH_159_F0
 10
0
 20
0
 30
0
 70
128
 71
145
 72
108
 73
107
 74
107
 0
VERTEX
 8
MESH_159_F0
 10
0
 20
0
 30
0
 70
128
 71
109
 72
108
 73
145
 74
145
 0
VERTEX
 8
MESH_159_F0
 10
0
 20
0
 30
0
 70
128
 71
109
 72
145
 73
110
 74
110
 0
VERTEX
 8
MESH_159_F0
 10
0
 20
0
 30
0
 70
128
 71
145
 72
111
 73
110
 74
110
 0
VERTEX
 8
MESH_159_F0
 10
0
 20
0
 30
0
 70
128
 71
112
 72
111
 73
145
 74
145
 0
VERTEX
 8
MESH_159_F0
 10
0
 20
0
 30
0
 70
128
 71
112
 72
145
 73
113
 74
113
 0
VERTEX
 8
MESH_159_F0
 10
0
 20
0
 30
0
 70
128
 71
145
 72
114
 73
113
 74
113
 0
VERTEX
 8
MESH_159_F0
 10
0
 20
0
 30
0
 70
128
 71
115
 72
114
 73
145
 74
145
 0
VERTEX
 8
MESH_159_F0
 10
0
 20
0
 30
0
 70
128
 71
115
 72
145
 73
116
 74
116
 0
VERTEX
 8
MESH_159_F0
 10
0
 20
0
 30
0
 70
128
 71
145
 72
117
 73
116
 74
116
 0
VERTEX
 8
MESH_159_F0
 10
0
 20
0
 30
0
 70
128
 71
118
 72
117
 73
145
 74
145
 0
VERTEX
 8
MESH_159_F0
 10
0
 20
0
 30
0
 70
128
 71
118
 72
145
 73
119
 74
119
 0
VERTEX
 8
MESH_159_F0
 10
0
 20
0
 30
0
 70
128
 71
145
 72
120
 73
119
 74
119
 0
VERTEX
 8
MESH_159_F0
 10
0
 20
0
 30
0
 70
128
 71
61
 72
120
 73
145
 74
145
 0
VERTEX
 8
MESH_159_F0
 10
0
 20
0
 30
0
 70
128
 71
61
 72
145
 73
62
 74
62
 0
VERTEX
 8
MESH_159_F0
 10
0
 20
0
 30
0
 70
128
 71
145
 72
121
 73
62
 74
62
 0
VERTEX
 8
MESH_159_F0
 10
0
 20
0
 30
0
 70
128
 71
121
 72
172
 73
62
 74
62
 0
VERTEX
 8
MESH_159_F0
 10
0
 20
0
 30
0
 70
128
 71
172
 72
63
 73
62
 74
62
 0
VERTEX
 8
MESH_159_F0
 10
0
 20
0
 30
0
 70
128
 71
64
 72
63
 73
172
 74
172
 0
VERTEX
 8
MESH_159_F0
 10
0
 20
0
 30
0
 70
128
 71
64
 72
172
 73
65
 74
65
 0
VERTEX
 8
MESH_159_F0
 10
0
 20
0
 30
0
 70
128
 71
172
 72
66
 73
65
 74
65
 0
VERTEX
 8
MESH_159_F0
 10
0
 20
0
 30
0
 70
128
 71
67
 72
66
 73
172
 74
172
 0
VERTEX
 8
MESH_159_F0
 10
0
 20
0
 30
0
 70
128
 71
67
 72
172
 73
68
 74
68
 0
VERTEX
 8
MESH_159_F0
 10
0
 20
0
 30
0
 70
128
 71
172
 72
69
 73
68
 74
68
 0
VERTEX
 8
MESH_159_F0
 10
0
 20
0
 30
0
 70
128
 71
70
 72
69
 73
172
 74
172
 0
VERTEX
 8
MESH_159_F0
 10
0
 20
0
 30
0
 70
128
 71
70
 72
172
 73
71
 74
71
 0
VERTEX
 8
MESH_159_F0
 10
0
 20
0
 30
0
 70
128
 71
172
 72
72
 73
71
 74
71
 0
VERTEX
 8
MESH_159_F0
 10
0
 20
0
 30
0
 70
128
 71
73
 72
72
 73
172
 74
172
 0
VERTEX
 8
MESH_159_F0
 10
0
 20
0
 30
0
 70
128
 71
73
 72
172
 73
74
 74
74
 0
VERTEX
 8
MESH_159_F0
 10
0
 20
0
 30
0
 70
128
 71
172
 72
75
 73
74
 74
74
 0
VERTEX
 8
MESH_159_F0
 10
0
 20
0
 30
0
 70
128
 71
76
 72
75
 73
172
 74
172
 0
VERTEX
 8
MESH_159_F0
 10
0
 20
0
 30
0
 70
128
 71
76
 72
172
 73
77
 74
77
 0
VERTEX
 8
MESH_159_F0
 10
0
 20
0
 30
0
 70
128
 71
172
 72
78
 73
77
 74
77
 0
VERTEX
 8
MESH_159_F0
 10
0
 20
0
 30
0
 70
128
 71
171
 72
78
 73
172
 74
172
 0
VERTEX
 8
MESH_159_F0
 10
0
 20
0
 30
0
 70
128
 71
15
 72
78
 73
171
 74
171
 0
VERTEX
 8
MESH_159_F0
 10
0
 20
0
 30
0
 70
128
 71
79
 72
78
 73
15
 74
15
 0
VERTEX
 8
MESH_159_F0
 10
0
 20
0
 30
0
 70
128
 71
79
 72
15
 73
80
 74
80
 0
VERTEX
 8
MESH_159_F0
 10
0
 20
0
 30
0
 70
128
 71
15
 72
81
 73
80
 74
80
 0
VERTEX
 8
MESH_159_F0
 10
0
 20
0
 30
0
 70
128
 71
82
 72
81
 73
15
 74
15
 0
VERTEX
 8
MESH_159_F0
 10
0
 20
0
 30
0
 70
128
 71
82
 72
15
 73
83
 74
83
 0
VERTEX
 8
MESH_159_F0
 10
0
 20
0
 30
0
 70
128
 71
49
 72
96
 73
95
 74
95
 0
VERTEX
 8
MESH_159_F0
 10
0
 20
0
 30
0
 70
128
 71
93
 72
49
 73
94
 74
94
 0
VERTEX
 8
MESH_159_F0
 10
0
 20
0
 30
0
 70
128
 71
49
 72
95
 73
94
 74
94
 0
VERTEX
 8
MESH_159_F0
 10
0
 20
0
 30
0
 70
128
 71
92
 72
49
 73
93
 74
93
 0
VERTEX
 8
MESH_159_F0
 10
0
 20
0
 30
0
 70
128
 71
50
 72
49
 73
92
 74
92
 0
VERTEX
 8
MESH_159_F0
 10
0
 20
0
 30
0
 70
128
 71
50
 72
92
 73
51
 74
51
 0
VERTEX
 8
MESH_159_F0
 10
0
 20
0
 30
0
 70
128
 71
92
 72
52
 73
51
 74
51
 0
VERTEX
 8
MESH_159_F0
 10
0
 20
0
 30
0
 70
128
 71
53
 72
52
 73
92
 74
92
 0
VERTEX
 8
MESH_159_F0
 10
0
 20
0
 30
0
 70
128
 71
53
 72
92
 73
54
 74
54
 0
VERTEX
 8
MESH_159_F0
 10
0
 20
0
 30
0
 70
128
 71
92
 72
55
 73
54
 74
54
 0
VERTEX
 8
MESH_159_F0
 10
0
 20
0
 30
0
 70
128
 71
56
 72
55
 73
92
 74
92
 0
VERTEX
 8
MESH_159_F0
 10
0
 20
0
 30
0
 70
128
 71
56
 72
92
 73
57
 74
57
 0
VERTEX
 8
MESH_159_F0
 10
0
 20
0
 30
0
 70
128
 71
92
 72
58
 73
57
 74
57
 0
VERTEX
 8
MESH_159_F0
 10
0
 20
0
 30
0
 70
128
 71
2
 72
92
 73
91
 74
91
 0
VERTEX
 8
MESH_159_F0
 10
0
 20
0
 30
0
 70
128
 71
1
 72
92
 73
2
 74
2
 0
VERTEX
 8
MESH_159_F0
 10
0
 20
0
 30
0
 70
128
 71
49
 72
97
 73
96
 74
96
 0
VERTEX
 8
MESH_159_F0
 10
0
 20
0
 30
0
 70
128
 71
48
 72
97
 73
49
 74
49
 0
VERTEX
 8
MESH_159_F0
 10
0
 20
0
 30
0
 70
128
 71
98
 72
97
 73
48
 74
48
 0
VERTEX
 8
MESH_159_F0
 10
0
 20
0
 30
0
 70
128
 71
98
 72
48
 73
99
 74
99
 0
VERTEX
 8
MESH_159_F0
 10
0
 20
0
 30
0
 70
128
 71
48
 72
100
 73
99
 74
99
 0
VERTEX
 8
MESH_159_F0
 10
0
 20
0
 30
0
 70
128
 71
101
 72
100
 73
48
 74
48
 0
VERTEX
 8
MESH_159_F0
 10
0
 20
0
 30
0
 70
128
 71
101
 72
48
 73
102
 74
102
 0
VERTEX
 8
MESH_159_F0
 10
0
 20
0
 30
0
 70
128
 71
48
 72
103
 73
102
 74
102
 0
VERTEX
 8
MESH_159_F0
 10
0
 20
0
 30
0
 70
128
 71
104
 72
103
 73
48
 74
48
 0
VERTEX
 8
MESH_159_F0
 10
0
 20
0
 30
0
 70
128
 71
104
 72
48
 73
105
 74
105
 0
VERTEX
 8
MESH_159_F0
 10
0
 20
0
 30
0
 70
128
 71
145
 72
122
 73
121
 74
121
 0
VERTEX
 8
MESH_159_F0
 10
0
 20
0
 30
0
 70
128
 71
123
 72
122
 73
145
 74
145
 0
VERTEX
 8
MESH_159_F0
 10
0
 20
0
 30
0
 70
128
 71
123
 72
145
 73
124
 74
124
 0
VERTEX
 8
MESH_159_F0
 10
0
 20
0
 30
0
 70
128
 71
145
 72
125
 73
124
 74
124
 0
VERTEX
 8
MESH_159_F0
 10
0
 20
0
 30
0
 70
128
 71
126
 72
125
 73
145
 74
145
 0
VERTEX
 8
MESH_159_F0
 10
0
 20
0
 30
0
 70
128
 71
126
 72
145
 73
127
 74
127
 0
VERTEX
 8
MESH_159_F0
 10
0
 20
0
 30
0
 70
128
 71
145
 72
128
 73
127
 74
127
 0
VERTEX
 8
MESH_159_F0
 10
0
 20
0
 30
0
 70
128
 71
129
 72
128
 73
145
 74
145
 0
VERTEX
 8
MESH_159_F0
 10
0
 20
0
 30
0
 70
128
 71
129
 72
145
 73
130
 74
130
 0
VERTEX
 8
MESH_159_F0
 10
0
 20
0
 30
0
 70
128
 71
145
 72
131
 73
130
 74
130
 0
VERTEX
 8
MESH_159_F0
 10
0
 20
0
 30
0
 70
128
 71
132
 72
131
 73
145
 74
145
 0
VERTEX
 8
MESH_159_F0
 10
0
 20
0
 30
0
 70
128
 71
132
 72
145
 73
133
 74
133
 0
VERTEX
 8
MESH_159_F0
 10
0
 20
0
 30
0
 70
128
 71
145
 72
134
 73
133
 74
133
 0
VERTEX
 8
MESH_159_F0
 10
0
 20
0
 30
0
 70
128
 71
135
 72
134
 73
145
 74
145
 0
VERTEX
 8
MESH_159_F0
 10
0
 20
0
 30
0
 70
128
 71
135
 72
145
 73
136
 74
136
 0
VERTEX
 8
MESH_159_F0
 10
0
 20
0
 30
0
 70
128
 71
145
 72
137
 73
136
 74
136
 0
VERTEX
 8
MESH_159_F0
 10
0
 20
0
 30
0
 70
128
 71
138
 72
137
 73
145
 74
145
 0
VERTEX
 8
MESH_159_F0
 10
0
 20
0
 30
0
 70
128
 71
138
 72
145
 73
139
 74
139
 0
VERTEX
 8
MESH_159_F0
 10
0
 20
0
 30
0
 70
128
 71
145
 72
140
 73
139
 74
139
 0
VERTEX
 8
MESH_159_F0
 10
0
 20
0
 30
0
 70
128
 71
141
 72
140
 73
145
 74
145
 0
VERTEX
 8
MESH_159_F0
 10
0
 20
0
 30
0
 70
128
 71
141
 72
145
 73
142
 74
142
 0
VERTEX
 8
MESH_159_F0
 10
0
 20
0
 30
0
 70
128
 71
145
 72
143
 73
142
 74
142
 0
VERTEX
 8
MESH_159_F0
 10
0
 20
0
 30
0
 70
128
 71
144
 72
143
 73
145
 74
145
 0
VERTEX
 8
MESH_159_F0
 10
0
 20
0
 30
0
 70
128
 71
105
 72
146
 73
145
 74
145
 0
VERTEX
 8
MESH_159_F0
 10
0
 20
0
 30
0
 70
128
 71
146
 72
148
 73
147
 74
147
 0
VERTEX
 8
MESH_159_F0
 10
0
 20
0
 30
0
 70
128
 71
149
 72
148
 73
146
 74
146
 0
VERTEX
 8
MESH_159_F0
 10
0
 20
0
 30
0
 70
128
 71
149
 72
146
 73
150
 74
150
 0
VERTEX
 8
MESH_159_F0
 10
0
 20
0
 30
0
 70
128
 71
146
 72
151
 73
150
 74
150
 0
VERTEX
 8
MESH_159_F0
 10
0
 20
0
 30
0
 70
128
 71
152
 72
151
 73
146
 74
146
 0
VERTEX
 8
MESH_159_F0
 10
0
 20
0
 30
0
 70
128
 71
152
 72
146
 73
153
 74
153
 0
VERTEX
 8
MESH_159_F0
 10
0
 20
0
 30
0
 70
128
 71
146
 72
154
 73
153
 74
153
 0
VERTEX
 8
MESH_159_F0
 10
0
 20
0
 30
0
 70
128
 71
155
 72
154
 73
146
 74
146
 0
VERTEX
 8
MESH_159_F0
 10
0
 20
0
 30
0
 70
128
 71
155
 72
146
 73
156
 74
156
 0
VERTEX
 8
MESH_159_F0
 10
0
 20
0
 30
0
 70
128
 71
146
 72
157
 73
156
 74
156
 0
VERTEX
 8
MESH_159_F0
 10
0
 20
0
 30
0
 70
128
 71
158
 72
157
 73
146
 74
146
 0
VERTEX
 8
MESH_159_F0
 10
0
 20
0
 30
0
 70
128
 71
158
 72
146
 73
159
 74
159
 0
VERTEX
 8
MESH_159_F0
 10
0
 20
0
 30
0
 70
128
 71
146
 72
160
 73
159
 74
159
 0
VERTEX
 8
MESH_159_F0
 10
0
 20
0
 30
0
 70
128
 71
161
 72
160
 73
146
 74
146
 0
VERTEX
 8
MESH_159_F0
 10
0
 20
0
 30
0
 70
128
 71
161
 72
146
 73
162
 74
162
 0
VERTEX
 8
MESH_159_F0
 10
0
 20
0
 30
0
 70
128
 71
146
 72
163
 73
162
 74
162
 0
VERTEX
 8
MESH_159_F0
 10
0
 20
0
 30
0
 70
128
 71
164
 72
163
 73
146
 74
146
 0
VERTEX
 8
MESH_159_F0
 10
0
 20
0
 30
0
 70
128
 71
164
 72
146
 73
165
 74
165
 0
VERTEX
 8
MESH_159_F0
 10
0
 20
0
 30
0
 70
128
 71
146
 72
166
 73
165
 74
165
 0
VERTEX
 8
MESH_159_F0
 10
0
 20
0
 30
0
 70
128
 71
167
 72
166
 73
146
 74
146
 0
VERTEX
 8
MESH_159_F0
 10
0
 20
0
 30
0
 70
128
 71
167
 72
146
 73
168
 74
168
 0
SEQEND
 0
ENDSEC
 0
EOF
