 0
SECTION
 2
HEADER
 9
$ACADVER
 1
AC1009
 0
ENDSEC
 0
SECTION
 2
TABLES
 0
TABLE
 2
LTYPE
 70
1
 0
LTYPE
 2
CONTINUOUS
 70
64
 3
solid line
 72
65
 73
0
 40
0.0
 0
ENDTAB
 0
TABLE
 2
LAYER
 70
6
 0
LAYER
 2
0
 70
0
 62
7
 6
CONTINUOUS
 0
LAYER
 2
MESH_135_F0
 70
64
 62
7
 6
CONTINUOUS
 0
LAYER
 2
MESH_134_F0
 70
64
 62
7
 6
CONTINUOUS
 0
LAYER
 2
MESH_133_F0
 70
64
 62
7
 6
CONTINUOUS
 0
LAYER
 2
MESH_132_F0
 70
64
 62
7
 6
CONTINUOUS
 0
LAYER
 2
MESH_131_F0
 70
64
 62
7
 6
CONTINUOUS
 0
LAYER
 2
MESH_130_F0
 70
64
 62
7
 6
CONTINUOUS
 0
LAYER
 2
MESH_129_F0
 70
64
 62
7
 6
CONTINUOUS
 0
LAYER
 2
MESH_128_F0
 70
64
 62
7
 6
CONTINUOUS
 0
LAYER
 2
MESH_127_F0
 70
64
 62
7
 6
CONTINUOUS
 0
LAYER
 2
MESH_126_F0
 70
64
 62
7
 6
CONTINUOUS
 0
LAYER
 2
MESH_125_F0
 70
64
 62
7
 6
CONTINUOUS
 0
LAYER
 2
MESH_124_F0
 70
64
 62
7
 6
CONTINUOUS
 0
LAYER
 2
MESH_123_F0
 70
64
 62
7
 6
CONTINUOUS
 0
LAYER
 2
MESH_122_F0
 70
64
 62
7
 6
CONTINUOUS
 0
LAYER
 2
MESH_121_F0
 70
64
 62
7
 6
CONTINUOUS
 0
LAYER
 2
MESH_120_F0
 70
64
 62
7
 6
CONTINUOUS
 0
ENDTAB
 0
ENDSEC
 0
SECTION
 2
BLOCKS
 0
ENDSEC
 0
SECTION
 2
ENTITIES
 0
POLYLINE
 8
MESH_135_F0
 66
1
 10
0.0
 20
0.0
 30
0.0
 70
64
 71
4
 72
2
 0
VERTEX
 8
MESH_135_F0
 10
299.7232
 20
0.2769
 30
1.0755
 70
192
 0
VERTEX
 8
MESH_135_F0
 10
299.7232
 20
0.2769
 30
-23.9245
 70
192
 0
VERTEX
 8
MESH_135_F0
 10
-300.2768
 20
0.2769
 30
-23.9245
 70
192
 0
VERTEX
 8
MESH_135_F0
 10
-300.2768
 20
0.2769
 30
1.0755
 70
192
 0
VERTEX
 8
MESH_135_F0
 10
0
 20
0
 30
0
 70
128
 71
1
 72
3
 73
2
 74
2
 0
VERTEX
 8
MESH_135_F0
 10
0
 20
0
 30
0
 70
128
 71
4
 72
3
 73
1
 74
1
 0
SEQEND
 0
POLYLINE
 8
MESH_134_F0
 66
1
 10
0.0
 20
0.0
 30
0.0
 70
64
 71
4
 72
2
 0
VERTEX
 8
MESH_134_F0
 10
-300
 20
0
 30
0
 70
192
 0
VERTEX
 8
MESH_134_F0
 10
-300
 20
0
 30
-25
 70
192
 0
VERTEX
 8
MESH_134_F0
 10
-300
 20
-417
 30
-25
 70
192
 0
VERTEX
 8
MESH_134_F0
 10
-300
 20
-417
 30
0
 70
192
 0
VERTEX
 8
MESH_134_F0
 10
0
 20
0
 30
0
 70
128
 71
1
 72
3
 73
2
 74
2
 0
VERTEX
 8
MESH_134_F0
 10
0
 20
0
 30
0
 70
128
 71
4
 72
3
 73
1
 74
1
 0
SEQEND
 0
POLYLINE
 8
MESH_133_F0
 66
1
 10
0.0
 20
0.0
 30
0.0
 70
64
 71
30
 72
28
 0
VERTEX
 8
MESH_133_F0
 10
-300
 20
-417
 30
0
 70
192
 0
VERTEX
 8
MESH_133_F0
 10
-300
 20
-417
 30
-25
 70
192
 0
VERTEX
 8
MESH_133_F0
 10
-299.8515
 20
-419.6014
 30
-25
 70
192
 0
VERTEX
 8
MESH_133_F0
 10
-299.4177
 20
-422.1427
 30
-25
 70
192
 0
VERTEX
 8
MESH_133_F0
 10
-298.7013
 20
-424.6167
 30
-25
 70
192
 0
VERTEX
 8
MESH_133_F0
 10
-297.7112
 20
-427.0022
 30
-25
 70
192
 0
VERTEX
 8
MESH_133_F0
 10
-296.4649
 20
-429.2526
 30
-25
 70
192
 0
VERTEX
 8
MESH_133_F0
 10
-294.9757
 20
-431.3482
 30
-25
 70
192
 0
VERTEX
 8
MESH_133_F0
 10
-293.2631
 20
-433.2631
 30
-25
 70
192
 0
VERTEX
 8
MESH_133_F0
 10
-291.3482
 20
-434.9757
 30
-25
 70
192
 0
VERTEX
 8
MESH_133_F0
 10
-289.2527
 20
-436.4649
 30
-25
 70
192
 0
VERTEX
 8
MESH_133_F0
 10
-287.0022
 20
-437.7112
 30
-25
 70
192
 0
VERTEX
 8
MESH_133_F0
 10
-284.6167
 20
-438.7013
 30
-25
 70
192
 0
VERTEX
 8
MESH_133_F0
 10
-282.1427
 20
-439.4177
 30
-25
 70
192
 0
VERTEX
 8
MESH_133_F0
 10
-279.6014
 20
-439.8514
 30
-25
 70
192
 0
VERTEX
 8
MESH_133_F0
 10
-277
 20
-440
 30
-25
 70
192
 0
VERTEX
 8
MESH_133_F0
 10
-277
 20
-440
 30
0
 70
192
 0
VERTEX
 8
MESH_133_F0
 10
-279.6014
 20
-439.8514
 30
0
 70
192
 0
VERTEX
 8
MESH_133_F0
 10
-282.1427
 20
-439.4177
 30
0
 70
192
 0
VERTEX
 8
MESH_133_F0
 10
-284.6167
 20
-438.7013
 30
0
 70
192
 0
VERTEX
 8
MESH_133_F0
 10
-287.0022
 20
-437.7112
 30
0
 70
192
 0
VERTEX
 8
MESH_133_F0
 10
-289.2527
 20
-436.4649
 30
0
 70
192
 0
VERTEX
 8
MESH_133_F0
 10
-291.3482
 20
-434.9757
 30
0
 70
192
 0
VERTEX
 8
MESH_133_F0
 10
-293.2631
 20
-433.2631
 30
0
 70
192
 0
VERTEX
 8
MESH_133_F0
 10
-294.9757
 20
-431.3482
 30
0
 70
192
 0
VERTEX
 8
MESH_133_F0
 10
-296.4649
 20
-429.2526
 30
0
 70
192
 0
VERTEX
 8
MESH_133_F0
 10
-297.7112
 20
-427.0022
 30
0
 70
192
 0
VERTEX
 8
MESH_133_F0
 10
-298.7013
 20
-424.6167
 30
0
 70
192
 0
VERTEX
 8
MESH_133_F0
 10
-299.4177
 20
-422.1427
 30
0
 70
192
 0
VERTEX
 8
MESH_133_F0
 10
-299.8515
 20
-419.6014
 30
0
 70
192
 0
VERTEX
 8
MESH_133_F0
 10
0
 20
0
 30
0
 70
128
 71
30
 72
2
 73
1
 74
1
 0
VERTEX
 8
MESH_133_F0
 10
0
 20
0
 30
0
 70
128
 71
3
 72
2
 73
30
 74
30
 0
VERTEX
 8
MESH_133_F0
 10
0
 20
0
 30
0
 70
128
 71
3
 72
30
 73
4
 74
4
 0
VERTEX
 8
MESH_133_F0
 10
0
 20
0
 30
0
 70
128
 71
30
 72
29
 73
4
 74
4
 0
VERTEX
 8
MESH_133_F0
 10
0
 20
0
 30
0
 70
128
 71
29
 72
5
 73
4
 74
4
 0
VERTEX
 8
MESH_133_F0
 10
0
 20
0
 30
0
 70
128
 71
28
 72
5
 73
29
 74
29
 0
VERTEX
 8
MESH_133_F0
 10
0
 20
0
 30
0
 70
128
 71
6
 72
5
 73
28
 74
28
 0
VERTEX
 8
MESH_133_F0
 10
0
 20
0
 30
0
 70
128
 71
7
 72
6
 73
27
 74
27
 0
VERTEX
 8
MESH_133_F0
 10
0
 20
0
 30
0
 70
128
 71
8
 72
7
 73
26
 74
26
 0
VERTEX
 8
MESH_133_F0
 10
0
 20
0
 30
0
 70
128
 71
9
 72
8
 73
25
 74
25
 0
VERTEX
 8
MESH_133_F0
 10
0
 20
0
 30
0
 70
128
 71
10
 72
9
 73
24
 74
24
 0
VERTEX
 8
MESH_133_F0
 10
0
 20
0
 30
0
 70
128
 71
11
 72
10
 73
23
 74
23
 0
VERTEX
 8
MESH_133_F0
 10
0
 20
0
 30
0
 70
128
 71
12
 72
11
 73
22
 74
22
 0
VERTEX
 8
MESH_133_F0
 10
0
 20
0
 30
0
 70
128
 71
13
 72
12
 73
21
 74
21
 0
VERTEX
 8
MESH_133_F0
 10
0
 20
0
 30
0
 70
128
 71
14
 72
13
 73
20
 74
20
 0
VERTEX
 8
MESH_133_F0
 10
0
 20
0
 30
0
 70
128
 71
15
 72
14
 73
19
 74
19
 0
VERTEX
 8
MESH_133_F0
 10
0
 20
0
 30
0
 70
128
 71
17
 72
15
 73
18
 74
18
 0
VERTEX
 8
MESH_133_F0
 10
0
 20
0
 30
0
 70
128
 71
15
 72
19
 73
18
 74
18
 0
VERTEX
 8
MESH_133_F0
 10
0
 20
0
 30
0
 70
128
 71
17
 72
16
 73
15
 74
15
 0
VERTEX
 8
MESH_133_F0
 10
0
 20
0
 30
0
 70
128
 71
14
 72
20
 73
19
 74
19
 0
VERTEX
 8
MESH_133_F0
 10
0
 20
0
 30
0
 70
128
 71
13
 72
21
 73
20
 74
20
 0
VERTEX
 8
MESH_133_F0
 10
0
 20
0
 30
0
 70
128
 71
12
 72
22
 73
21
 74
21
 0
VERTEX
 8
MESH_133_F0
 10
0
 20
0
 30
0
 70
128
 71
11
 72
23
 73
22
 74
22
 0
VERTEX
 8
MESH_133_F0
 10
0
 20
0
 30
0
 70
128
 71
10
 72
24
 73
23
 74
23
 0
VERTEX
 8
MESH_133_F0
 10
0
 20
0
 30
0
 70
128
 71
9
 72
25
 73
24
 74
24
 0
VERTEX
 8
MESH_133_F0
 10
0
 20
0
 30
0
 70
128
 71
8
 72
26
 73
25
 74
25
 0
VERTEX
 8
MESH_133_F0
 10
0
 20
0
 30
0
 70
128
 71
7
 72
27
 73
26
 74
26
 0
VERTEX
 8
MESH_133_F0
 10
0
 20
0
 30
0
 70
128
 71
6
 72
28
 73
27
 74
27
 0
SEQEND
 0
POLYLINE
 8
MESH_132_F0
 66
1
 10
0.0
 20
0.0
 30
0.0
 70
64
 71
4
 72
2
 0
VERTEX
 8
MESH_132_F0
 10
-277
 20
-440
 30
0
 70
192
 0
VERTEX
 8
MESH_132_F0
 10
-277
 20
-440
 30
-25
 70
192
 0
VERTEX
 8
MESH_132_F0
 10
277
 20
-440
 30
-25
 70
192
 0
VERTEX
 8
MESH_132_F0
 10
277
 20
-440
 30
0
 70
192
 0
VERTEX
 8
MESH_132_F0
 10
0
 20
0
 30
0
 70
128
 71
1
 72
3
 73
2
 74
2
 0
VERTEX
 8
MESH_132_F0
 10
0
 20
0
 30
0
 70
128
 71
4
 72
3
 73
1
 74
1
 0
SEQEND
 0
POLYLINE
 8
MESH_131_F0
 66
1
 10
0.0
 20
0.0
 30
0.0
 70
64
 71
30
 72
28
 0
VERTEX
 8
MESH_131_F0
 10
277
 20
-440
 30
0
 70
192
 0
VERTEX
 8
MESH_131_F0
 10
277
 20
-440
 30
-25
 70
192
 0
VERTEX
 8
MESH_131_F0
 10
279.6014
 20
-439.8514
 30
-25
 70
192
 0
VERTEX
 8
MESH_131_F0
 10
282.1427
 20
-439.4177
 30
-25
 70
192
 0
VERTEX
 8
MESH_131_F0
 10
284.6167
 20
-438.7013
 30
-25
 70
192
 0
VERTEX
 8
MESH_131_F0
 10
287.0022
 20
-437.7112
 30
-25
 70
192
 0
VERTEX
 8
MESH_131_F0
 10
289.2527
 20
-436.4649
 30
-25
 70
192
 0
VERTEX
 8
MESH_131_F0
 10
291.3482
 20
-434.9757
 30
-25
 70
192
 0
VERTEX
 8
MESH_131_F0
 10
293.2631
 20
-433.2631
 30
-25
 70
192
 0
VERTEX
 8
MESH_131_F0
 10
294.9757
 20
-431.3482
 30
-25
 70
192
 0
VERTEX
 8
MESH_131_F0
 10
296.4649
 20
-429.2526
 30
-25
 70
192
 0
VERTEX
 8
MESH_131_F0
 10
297.7112
 20
-427.0022
 30
-25
 70
192
 0
VERTEX
 8
MESH_131_F0
 10
298.7013
 20
-424.6167
 30
-25
 70
192
 0
VERTEX
 8
MESH_131_F0
 10
299.4177
 20
-422.1427
 30
-25
 70
192
 0
VERTEX
 8
MESH_131_F0
 10
299.8515
 20
-419.6014
 30
-25
 70
192
 0
VERTEX
 8
MESH_131_F0
 10
300
 20
-417
 30
-25
 70
192
 0
VERTEX
 8
MESH_131_F0
 10
300
 20
-417
 30
0
 70
192
 0
VERTEX
 8
MESH_131_F0
 10
299.8515
 20
-419.6014
 30
0
 70
192
 0
VERTEX
 8
MESH_131_F0
 10
299.4177
 20
-422.1427
 30
0
 70
192
 0
VERTEX
 8
MESH_131_F0
 10
298.7013
 20
-424.6167
 30
0
 70
192
 0
VERTEX
 8
MESH_131_F0
 10
297.7112
 20
-427.0022
 30
0
 70
192
 0
VERTEX
 8
MESH_131_F0
 10
296.4649
 20
-429.2526
 30
0
 70
192
 0
VERTEX
 8
MESH_131_F0
 10
294.9757
 20
-431.3482
 30
0
 70
192
 0
VERTEX
 8
MESH_131_F0
 10
293.2631
 20
-433.2631
 30
0
 70
192
 0
VERTEX
 8
MESH_131_F0
 10
291.3482
 20
-434.9757
 30
0
 70
192
 0
VERTEX
 8
MESH_131_F0
 10
289.2527
 20
-436.4649
 30
0
 70
192
 0
VERTEX
 8
MESH_131_F0
 10
287.0022
 20
-437.7112
 30
0
 70
192
 0
VERTEX
 8
MESH_131_F0
 10
284.6167
 20
-438.7013
 30
0
 70
192
 0
VERTEX
 8
MESH_131_F0
 10
282.1427
 20
-439.4177
 30
0
 70
192
 0
VERTEX
 8
MESH_131_F0
 10
279.6014
 20
-439.8514
 30
0
 70
192
 0
VERTEX
 8
MESH_131_F0
 10
0
 20
0
 30
0
 70
128
 71
30
 72
2
 73
1
 74
1
 0
VERTEX
 8
MESH_131_F0
 10
0
 20
0
 30
0
 70
128
 71
3
 72
2
 73
30
 74
30
 0
VERTEX
 8
MESH_131_F0
 10
0
 20
0
 30
0
 70
128
 71
3
 72
30
 73
4
 74
4
 0
VERTEX
 8
MESH_131_F0
 10
0
 20
0
 30
0
 70
128
 71
30
 72
29
 73
4
 74
4
 0
VERTEX
 8
MESH_131_F0
 10
0
 20
0
 30
0
 70
128
 71
29
 72
5
 73
4
 74
4
 0
VERTEX
 8
MESH_131_F0
 10
0
 20
0
 30
0
 70
128
 71
28
 72
5
 73
29
 74
29
 0
VERTEX
 8
MESH_131_F0
 10
0
 20
0
 30
0
 70
128
 71
6
 72
5
 73
28
 74
28
 0
VERTEX
 8
MESH_131_F0
 10
0
 20
0
 30
0
 70
128
 71
7
 72
6
 73
27
 74
27
 0
VERTEX
 8
MESH_131_F0
 10
0
 20
0
 30
0
 70
128
 71
8
 72
7
 73
26
 74
26
 0
VERTEX
 8
MESH_131_F0
 10
0
 20
0
 30
0
 70
128
 71
9
 72
8
 73
25
 74
25
 0
VERTEX
 8
MESH_131_F0
 10
0
 20
0
 30
0
 70
128
 71
10
 72
9
 73
24
 74
24
 0
VERTEX
 8
MESH_131_F0
 10
0
 20
0
 30
0
 70
128
 71
11
 72
10
 73
23
 74
23
 0
VERTEX
 8
MESH_131_F0
 10
0
 20
0
 30
0
 70
128
 71
12
 72
11
 73
22
 74
22
 0
VERTEX
 8
MESH_131_F0
 10
0
 20
0
 30
0
 70
128
 71
13
 72
12
 73
21
 74
21
 0
VERTEX
 8
MESH_131_F0
 10
0
 20
0
 30
0
 70
128
 71
14
 72
13
 73
20
 74
20
 0
VERTEX
 8
MESH_131_F0
 10
0
 20
0
 30
0
 70
128
 71
15
 72
14
 73
19
 74
19
 0
VERTEX
 8
MESH_131_F0
 10
0
 20
0
 30
0
 70
128
 71
17
 72
15
 73
18
 74
18
 0
VERTEX
 8
MESH_131_F0
 10
0
 20
0
 30
0
 70
128
 71
15
 72
19
 73
18
 74
18
 0
VERTEX
 8
MESH_131_F0
 10
0
 20
0
 30
0
 70
128
 71
17
 72
16
 73
15
 74
15
 0
VERTEX
 8
MESH_131_F0
 10
0
 20
0
 30
0
 70
128
 71
14
 72
20
 73
19
 74
19
 0
VERTEX
 8
MESH_131_F0
 10
0
 20
0
 30
0
 70
128
 71
13
 72
21
 73
20
 74
20
 0
VERTEX
 8
MESH_131_F0
 10
0
 20
0
 30
0
 70
128
 71
12
 72
22
 73
21
 74
21
 0
VERTEX
 8
MESH_131_F0
 10
0
 20
0
 30
0
 70
128
 71
11
 72
23
 73
22
 74
22
 0
VERTEX
 8
MESH_131_F0
 10
0
 20
0
 30
0
 70
128
 71
10
 72
24
 73
23
 74
23
 0
VERTEX
 8
MESH_131_F0
 10
0
 20
0
 30
0
 70
128
 71
9
 72
25
 73
24
 74
24
 0
VERTEX
 8
MESH_131_F0
 10
0
 20
0
 30
0
 70
128
 71
8
 72
26
 73
25
 74
25
 0
VERTEX
 8
MESH_131_F0
 10
0
 20
0
 30
0
 70
128
 71
7
 72
27
 73
26
 74
26
 0
VERTEX
 8
MESH_131_F0
 10
0
 20
0
 30
0
 70
128
 71
6
 72
28
 73
27
 74
27
 0
SEQEND
 0
POLYLINE
 8
MESH_130_F0
 66
1
 10
0.0
 20
0.0
 30
0.0
 70
64
 71
4
 72
2
 0
VERTEX
 8
MESH_130_F0
 10
300
 20
-417
 30
0
 70
192
 0
VERTEX
 8
MESH_130_F0
 10
300
 20
-417
 30
-25
 70
192
 0
VERTEX
 8
MESH_130_F0
 10
300
 20
0
 30
-25
 70
192
 0
VERTEX
 8
MESH_130_F0
 10
300
 20
0
 30
0
 70
192
 0
VERTEX
 8
MESH_130_F0
 10
0
 20
0
 30
0
 70
128
 71
1
 72
3
 73
2
 74
2
 0
VERTEX
 8
MESH_130_F0
 10
0
 20
0
 30
0
 70
128
 71
4
 72
3
 73
1
 74
1
 0
SEQEND
 0
POLYLINE
 8
MESH_129_F0
 66
1
 10
0.0
 20
0.0
 30
0.0
 70
64
 71
92
 72
92
 0
VERTEX
 8
MESH_129_F0
 10
-60
 20
-309
 30
-25
 70
192
 0
VERTEX
 8
MESH_129_F0
 10
-59.8385
 20
-311.8276
 30
-25
 70
192
 0
VERTEX
 8
MESH_129_F0
 10
-59.367
 20
-314.5899
 30
-25
 70
192
 0
VERTEX
 8
MESH_129_F0
 10
-58.5884
 20
-317.279
 30
-25
 70
192
 0
VERTEX
 8
MESH_129_F0
 10
-57.5122
 20
-319.8719
 30
-25
 70
192
 0
VERTEX
 8
MESH_129_F0
 10
-56.1575
 20
-322.3181
 30
-25
 70
192
 0
VERTEX
 8
MESH_129_F0
 10
-54.5388
 20
-324.5958
 30
-25
 70
192
 0
VERTEX
 8
MESH_129_F0
 10
-52.6773
 20
-326.6773
 30
-25
 70
192
 0
VERTEX
 8
MESH_129_F0
 10
-50.5958
 20
-328.5388
 30
-25
 70
192
 0
VERTEX
 8
MESH_129_F0
 10
-48.3181
 20
-330.1575
 30
-25
 70
192
 0
VERTEX
 8
MESH_129_F0
 10
-45.8719
 20
-331.5122
 30
-25
 70
192
 0
VERTEX
 8
MESH_129_F0
 10
-43.279
 20
-332.5884
 30
-25
 70
192
 0
VERTEX
 8
MESH_129_F0
 10
-40.5899
 20
-333.367
 30
-25
 70
192
 0
VERTEX
 8
MESH_129_F0
 10
-37.8277
 20
-333.8385
 30
-25
 70
192
 0
VERTEX
 8
MESH_129_F0
 10
-35
 20
-334
 30
-25
 70
192
 0
VERTEX
 8
MESH_129_F0
 10
35
 20
-334
 30
-25
 70
192
 0
VERTEX
 8
MESH_129_F0
 10
37.8277
 20
-333.8385
 30
-25
 70
192
 0
VERTEX
 8
MESH_129_F0
 10
40.5899
 20
-333.367
 30
-25
 70
192
 0
VERTEX
 8
MESH_129_F0
 10
43.279
 20
-332.5884
 30
-25
 70
192
 0
VERTEX
 8
MESH_129_F0
 10
45.8719
 20
-331.5122
 30
-25
 70
192
 0
VERTEX
 8
MESH_129_F0
 10
48.3181
 20
-330.1575
 30
-25
 70
192
 0
VERTEX
 8
MESH_129_F0
 10
50.5958
 20
-328.5388
 30
-25
 70
192
 0
VERTEX
 8
MESH_129_F0
 10
52.6773
 20
-326.6773
 30
-25
 70
192
 0
VERTEX
 8
MESH_129_F0
 10
54.5388
 20
-324.5958
 30
-25
 70
192
 0
VERTEX
 8
MESH_129_F0
 10
56.1575
 20
-322.3181
 30
-25
 70
192
 0
VERTEX
 8
MESH_129_F0
 10
57.5122
 20
-319.8719
 30
-25
 70
192
 0
VERTEX
 8
MESH_129_F0
 10
58.5884
 20
-317.279
 30
-25
 70
192
 0
VERTEX
 8
MESH_129_F0
 10
59.367
 20
-314.5899
 30
-25
 70
192
 0
VERTEX
 8
MESH_129_F0
 10
59.8385
 20
-311.8276
 30
-25
 70
192
 0
VERTEX
 8
MESH_129_F0
 10
60
 20
-309
 30
-25
 70
192
 0
VERTEX
 8
MESH_129_F0
 10
60
 20
-131
 30
-25
 70
192
 0
VERTEX
 8
MESH_129_F0
 10
59.8385
 20
-128.1723
 30
-25
 70
192
 0
VERTEX
 8
MESH_129_F0
 10
59.367
 20
-125.4101
 30
-25
 70
192
 0
VERTEX
 8
MESH_129_F0
 10
58.5884
 20
-122.721
 30
-25
 70
192
 0
VERTEX
 8
MESH_129_F0
 10
57.5122
 20
-120.1281
 30
-25
 70
192
 0
VERTEX
 8
MESH_129_F0
 10
56.1575
 20
-117.6819
 30
-25
 70
192
 0
VERTEX
 8
MESH_129_F0
 10
54.5388
 20
-115.4042
 30
-25
 70
192
 0
VERTEX
 8
MESH_129_F0
 10
52.6773
 20
-113.3227
 30
-25
 70
192
 0
VERTEX
 8
MESH_129_F0
 10
50.5958
 20
-111.4612
 30
-25
 70
192
 0
VERTEX
 8
MESH_129_F0
 10
48.3181
 20
-109.8425
 30
-25
 70
192
 0
VERTEX
 8
MESH_129_F0
 10
45.8719
 20
-108.4878
 30
-25
 70
192
 0
VERTEX
 8
MESH_129_F0
 10
43.279
 20
-107.4116
 30
-25
 70
192
 0
VERTEX
 8
MESH_129_F0
 10
40.5899
 20
-106.633
 30
-25
 70
192
 0
VERTEX
 8
MESH_129_F0
 10
37.8277
 20
-106.1614
 30
-25
 70
192
 0
VERTEX
 8
MESH_129_F0
 10
35
 20
-106
 30
-25
 70
192
 0
VERTEX
 8
MESH_129_F0
 10
-35
 20
-106
 30
-25
 70
192
 0
VERTEX
 8
MESH_129_F0
 10
-37.8277
 20
-106.1614
 30
-25
 70
192
 0
VERTEX
 8
MESH_129_F0
 10
-40.5899
 20
-106.633
 30
-25
 70
192
 0
VERTEX
 8
MESH_129_F0
 10
-43.279
 20
-107.4116
 30
-25
 70
192
 0
VERTEX
 8
MESH_129_F0
 10
-45.8719
 20
-108.4878
 30
-25
 70
192
 0
VERTEX
 8
MESH_129_F0
 10
-48.3181
 20
-109.8425
 30
-25
 70
192
 0
VERTEX
 8
MESH_129_F0
 10
-50.5958
 20
-111.4612
 30
-25
 70
192
 0
VERTEX
 8
MESH_129_F0
 10
-52.6773
 20
-113.3227
 30
-25
 70
192
 0
VERTEX
 8
MESH_129_F0
 10
-54.5388
 20
-115.4042
 30
-25
 70
192
 0
VERTEX
 8
MESH_129_F0
 10
-56.1575
 20
-117.6819
 30
-25
 70
192
 0
VERTEX
 8
MESH_129_F0
 10
-57.5122
 20
-120.1281
 30
-25
 70
192
 0
VERTEX
 8
MESH_129_F0
 10
-58.5884
 20
-122.721
 30
-25
 70
192
 0
VERTEX
 8
MESH_129_F0
 10
-59.367
 20
-125.4101
 30
-25
 70
192
 0
VERTEX
 8
MESH_129_F0
 10
-59.8385
 20
-128.1723
 30
-25
 70
192
 0
VERTEX
 8
MESH_129_F0
 10
-60
 20
-131
 30
-25
 70
192
 0
VERTEX
 8
MESH_129_F0
 10
300
 20
0
 30
-25
 70
192
 0
VERTEX
 8
MESH_129_F0
 10
300
 20
-417
 30
-25
 70
192
 0
VERTEX
 8
MESH_129_F0
 10
299.8515
 20
-419.6014
 30
-25
 70
192
 0
VERTEX
 8
MESH_129_F0
 10
299.4177
 20
-422.1427
 30
-25
 70
192
 0
VERTEX
 8
MESH_129_F0
 10
298.7013
 20
-424.6167
 30
-25
 70
192
 0
VERTEX
 8
MESH_129_F0
 10
297.7112
 20
-427.0022
 30
-25
 70
192
 0
VERTEX
 8
MESH_129_F0
 10
296.4649
 20
-429.2526
 30
-25
 70
192
 0
VERTEX
 8
MESH_129_F0
 10
294.9757
 20
-431.3482
 30
-25
 70
192
 0
VERTEX
 8
MESH_129_F0
 10
293.2631
 20
-433.2631
 30
-25
 70
192
 0
VERTEX
 8
MESH_129_F0
 10
291.3482
 20
-434.9757
 30
-25
 70
192
 0
VERTEX
 8
MESH_129_F0
 10
289.2527
 20
-436.4649
 30
-25
 70
192
 0
VERTEX
 8
MESH_129_F0
 10
287.0022
 20
-437.7112
 30
-25
 70
192
 0
VERTEX
 8
MESH_129_F0
 10
284.6167
 20
-438.7013
 30
-25
 70
192
 0
VERTEX
 8
MESH_129_F0
 10
282.1427
 20
-439.4177
 30
-25
 70
192
 0
VERTEX
 8
MESH_129_F0
 10
279.6014
 20
-439.8514
 30
-25
 70
192
 0
VERTEX
 8
MESH_129_F0
 10
277
 20
-440
 30
-25
 70
192
 0
VERTEX
 8
MESH_129_F0
 10
-277
 20
-440
 30
-25
 70
192
 0
VERTEX
 8
MESH_129_F0
 10
-279.6014
 20
-439.8514
 30
-25
 70
192
 0
VERTEX
 8
MESH_129_F0
 10
-282.1427
 20
-439.4177
 30
-25
 70
192
 0
VERTEX
 8
MESH_129_F0
 10
-284.6167
 20
-438.7013
 30
-25
 70
192
 0
VERTEX
 8
MESH_129_F0
 10
-287.0022
 20
-437.7112
 30
-25
 70
192
 0
VERTEX
 8
MESH_129_F0
 10
-289.2527
 20
-436.4649
 30
-25
 70
192
 0
VERTEX
 8
MESH_129_F0
 10
-291.3482
 20
-434.9757
 30
-25
 70
192
 0
VERTEX
 8
MESH_129_F0
 10
-293.2631
 20
-433.2631
 30
-25
 70
192
 0
VERTEX
 8
MESH_129_F0
 10
-294.9757
 20
-431.3482
 30
-25
 70
192
 0
VERTEX
 8
MESH_129_F0
 10
-296.4649
 20
-429.2526
 30
-25
 70
192
 0
VERTEX
 8
MESH_129_F0
 10
-297.7112
 20
-427.0022
 30
-25
 70
192
 0
VERTEX
 8
MESH_129_F0
 10
-298.7013
 20
-424.6167
 30
-25
 70
192
 0
VERTEX
 8
MESH_129_F0
 10
-299.4177
 20
-422.1427
 30
-25
 70
192
 0
VERTEX
 8
MESH_129_F0
 10
-299.8515
 20
-419.6014
 30
-25
 70
192
 0
VERTEX
 8
MESH_129_F0
 10
-300
 20
-417
 30
-25
 70
192
 0
VERTEX
 8
MESH_129_F0
 10
-300
 20
0
 30
-25
 70
192
 0
VERTEX
 8
MESH_129_F0
 10
0
 20
0
 30
0
 70
128
 71
91
 72
1
 73
60
 74
60
 0
VERTEX
 8
MESH_129_F0
 10
0
 20
0
 30
0
 70
128
 71
91
 72
60
 73
92
 74
92
 0
VERTEX
 8
MESH_129_F0
 10
0
 20
0
 30
0
 70
128
 71
60
 72
59
 73
92
 74
92
 0
VERTEX
 8
MESH_129_F0
 10
0
 20
0
 30
0
 70
128
 71
59
 72
58
 73
92
 74
92
 0
VERTEX
 8
MESH_129_F0
 10
0
 20
0
 30
0
 70
128
 71
58
 72
57
 73
92
 74
92
 0
VERTEX
 8
MESH_129_F0
 10
0
 20
0
 30
0
 70
128
 71
57
 72
56
 73
92
 74
92
 0
VERTEX
 8
MESH_129_F0
 10
0
 20
0
 30
0
 70
128
 71
56
 72
55
 73
92
 74
92
 0
VERTEX
 8
MESH_129_F0
 10
0
 20
0
 30
0
 70
128
 71
55
 72
54
 73
92
 74
92
 0
VERTEX
 8
MESH_129_F0
 10
0
 20
0
 30
0
 70
128
 71
54
 72
53
 73
92
 74
92
 0
VERTEX
 8
MESH_129_F0
 10
0
 20
0
 30
0
 70
128
 71
53
 72
52
 73
92
 74
92
 0
VERTEX
 8
MESH_129_F0
 10
0
 20
0
 30
0
 70
128
 71
52
 72
51
 73
92
 74
92
 0
VERTEX
 8
MESH_129_F0
 10
0
 20
0
 30
0
 70
128
 71
51
 72
50
 73
92
 74
92
 0
VERTEX
 8
MESH_129_F0
 10
0
 20
0
 30
0
 70
128
 71
50
 72
49
 73
92
 74
92
 0
VERTEX
 8
MESH_129_F0
 10
0
 20
0
 30
0
 70
128
 71
49
 72
48
 73
92
 74
92
 0
VERTEX
 8
MESH_129_F0
 10
0
 20
0
 30
0
 70
128
 71
48
 72
47
 73
92
 74
92
 0
VERTEX
 8
MESH_129_F0
 10
0
 20
0
 30
0
 70
128
 71
47
 72
46
 73
92
 74
92
 0
VERTEX
 8
MESH_129_F0
 10
0
 20
0
 30
0
 70
128
 71
46
 72
61
 73
92
 74
92
 0
VERTEX
 8
MESH_129_F0
 10
0
 20
0
 30
0
 70
128
 71
45
 72
61
 73
46
 74
46
 0
VERTEX
 8
MESH_129_F0
 10
0
 20
0
 30
0
 70
128
 71
44
 72
61
 73
45
 74
45
 0
VERTEX
 8
MESH_129_F0
 10
0
 20
0
 30
0
 70
128
 71
43
 72
61
 73
44
 74
44
 0
VERTEX
 8
MESH_129_F0
 10
0
 20
0
 30
0
 70
128
 71
42
 72
61
 73
43
 74
43
 0
VERTEX
 8
MESH_129_F0
 10
0
 20
0
 30
0
 70
128
 71
41
 72
61
 73
42
 74
42
 0
VERTEX
 8
MESH_129_F0
 10
0
 20
0
 30
0
 70
128
 71
40
 72
61
 73
41
 74
41
 0
VERTEX
 8
MESH_129_F0
 10
0
 20
0
 30
0
 70
128
 71
39
 72
61
 73
40
 74
40
 0
VERTEX
 8
MESH_129_F0
 10
0
 20
0
 30
0
 70
128
 71
38
 72
61
 73
39
 74
39
 0
VERTEX
 8
MESH_129_F0
 10
0
 20
0
 30
0
 70
128
 71
37
 72
61
 73
38
 74
38
 0
VERTEX
 8
MESH_129_F0
 10
0
 20
0
 30
0
 70
128
 71
36
 72
61
 73
37
 74
37
 0
VERTEX
 8
MESH_129_F0
 10
0
 20
0
 30
0
 70
128
 71
35
 72
61
 73
36
 74
36
 0
VERTEX
 8
MESH_129_F0
 10
0
 20
0
 30
0
 70
128
 71
34
 72
61
 73
35
 74
35
 0
VERTEX
 8
MESH_129_F0
 10
0
 20
0
 30
0
 70
128
 71
33
 72
61
 73
34
 74
34
 0
VERTEX
 8
MESH_129_F0
 10
0
 20
0
 30
0
 70
128
 71
32
 72
61
 73
33
 74
33
 0
VERTEX
 8
MESH_129_F0
 10
0
 20
0
 30
0
 70
128
 71
31
 72
61
 73
32
 74
32
 0
VERTEX
 8
MESH_129_F0
 10
0
 20
0
 30
0
 70
128
 71
62
 72
61
 73
31
 74
31
 0
VERTEX
 8
MESH_129_F0
 10
0
 20
0
 30
0
 70
128
 71
29
 72
62
 73
30
 74
30
 0
VERTEX
 8
MESH_129_F0
 10
0
 20
0
 30
0
 70
128
 71
62
 72
31
 73
30
 74
30
 0
VERTEX
 8
MESH_129_F0
 10
0
 20
0
 30
0
 70
128
 71
91
 72
2
 73
1
 74
1
 0
VERTEX
 8
MESH_129_F0
 10
0
 20
0
 30
0
 70
128
 71
3
 72
2
 73
91
 74
91
 0
VERTEX
 8
MESH_129_F0
 10
0
 20
0
 30
0
 70
128
 71
3
 72
91
 73
4
 74
4
 0
VERTEX
 8
MESH_129_F0
 10
0
 20
0
 30
0
 70
128
 71
91
 72
77
 73
4
 74
4
 0
VERTEX
 8
MESH_129_F0
 10
0
 20
0
 30
0
 70
128
 71
77
 72
5
 73
4
 74
4
 0
VERTEX
 8
MESH_129_F0
 10
0
 20
0
 30
0
 70
128
 71
6
 72
5
 73
77
 74
77
 0
VERTEX
 8
MESH_129_F0
 10
0
 20
0
 30
0
 70
128
 71
6
 72
77
 73
7
 74
7
 0
VERTEX
 8
MESH_129_F0
 10
0
 20
0
 30
0
 70
128
 71
77
 72
8
 73
7
 74
7
 0
VERTEX
 8
MESH_129_F0
 10
0
 20
0
 30
0
 70
128
 71
9
 72
8
 73
77
 74
77
 0
VERTEX
 8
MESH_129_F0
 10
0
 20
0
 30
0
 70
128
 71
9
 72
77
 73
10
 74
10
 0
VERTEX
 8
MESH_129_F0
 10
0
 20
0
 30
0
 70
128
 71
77
 72
11
 73
10
 74
10
 0
VERTEX
 8
MESH_129_F0
 10
0
 20
0
 30
0
 70
128
 71
12
 72
11
 73
77
 74
77
 0
VERTEX
 8
MESH_129_F0
 10
0
 20
0
 30
0
 70
128
 71
12
 72
77
 73
13
 74
13
 0
VERTEX
 8
MESH_129_F0
 10
0
 20
0
 30
0
 70
128
 71
77
 72
14
 73
13
 74
13
 0
VERTEX
 8
MESH_129_F0
 10
0
 20
0
 30
0
 70
128
 71
15
 72
14
 73
77
 74
77
 0
VERTEX
 8
MESH_129_F0
 10
0
 20
0
 30
0
 70
128
 71
16
 72
15
 73
76
 74
76
 0
VERTEX
 8
MESH_129_F0
 10
0
 20
0
 30
0
 70
128
 71
16
 72
76
 73
17
 74
17
 0
VERTEX
 8
MESH_129_F0
 10
0
 20
0
 30
0
 70
128
 71
76
 72
18
 73
17
 74
17
 0
VERTEX
 8
MESH_129_F0
 10
0
 20
0
 30
0
 70
128
 71
19
 72
18
 73
76
 74
76
 0
VERTEX
 8
MESH_129_F0
 10
0
 20
0
 30
0
 70
128
 71
19
 72
76
 73
20
 74
20
 0
VERTEX
 8
MESH_129_F0
 10
0
 20
0
 30
0
 70
128
 71
76
 72
21
 73
20
 74
20
 0
VERTEX
 8
MESH_129_F0
 10
0
 20
0
 30
0
 70
128
 71
22
 72
21
 73
76
 74
76
 0
VERTEX
 8
MESH_129_F0
 10
0
 20
0
 30
0
 70
128
 71
22
 72
76
 73
23
 74
23
 0
VERTEX
 8
MESH_129_F0
 10
0
 20
0
 30
0
 70
128
 71
76
 72
24
 73
23
 74
23
 0
VERTEX
 8
MESH_129_F0
 10
0
 20
0
 30
0
 70
128
 71
25
 72
24
 73
76
 74
76
 0
VERTEX
 8
MESH_129_F0
 10
0
 20
0
 30
0
 70
128
 71
25
 72
76
 73
26
 74
26
 0
VERTEX
 8
MESH_129_F0
 10
0
 20
0
 30
0
 70
128
 71
76
 72
27
 73
26
 74
26
 0
VERTEX
 8
MESH_129_F0
 10
0
 20
0
 30
0
 70
128
 71
62
 72
27
 73
76
 74
76
 0
VERTEX
 8
MESH_129_F0
 10
0
 20
0
 30
0
 70
128
 71
62
 72
76
 73
63
 74
63
 0
VERTEX
 8
MESH_129_F0
 10
0
 20
0
 30
0
 70
128
 71
76
 72
64
 73
63
 74
63
 0
VERTEX
 8
MESH_129_F0
 10
0
 20
0
 30
0
 70
128
 71
65
 72
64
 73
76
 74
76
 0
VERTEX
 8
MESH_129_F0
 10
0
 20
0
 30
0
 70
128
 71
65
 72
76
 73
66
 74
66
 0
VERTEX
 8
MESH_129_F0
 10
0
 20
0
 30
0
 70
128
 71
76
 72
67
 73
66
 74
66
 0
VERTEX
 8
MESH_129_F0
 10
0
 20
0
 30
0
 70
128
 71
68
 72
67
 73
76
 74
76
 0
VERTEX
 8
MESH_129_F0
 10
0
 20
0
 30
0
 70
128
 71
68
 72
76
 73
69
 74
69
 0
VERTEX
 8
MESH_129_F0
 10
0
 20
0
 30
0
 70
128
 71
76
 72
70
 73
69
 74
69
 0
VERTEX
 8
MESH_129_F0
 10
0
 20
0
 30
0
 70
128
 71
71
 72
70
 73
76
 74
76
 0
VERTEX
 8
MESH_129_F0
 10
0
 20
0
 30
0
 70
128
 71
71
 72
76
 73
72
 74
72
 0
VERTEX
 8
MESH_129_F0
 10
0
 20
0
 30
0
 70
128
 71
76
 72
73
 73
72
 74
72
 0
VERTEX
 8
MESH_129_F0
 10
0
 20
0
 30
0
 70
128
 71
74
 72
73
 73
76
 74
76
 0
VERTEX
 8
MESH_129_F0
 10
0
 20
0
 30
0
 70
128
 71
74
 72
76
 73
75
 74
75
 0
VERTEX
 8
MESH_129_F0
 10
0
 20
0
 30
0
 70
128
 71
62
 72
28
 73
27
 74
27
 0
VERTEX
 8
MESH_129_F0
 10
0
 20
0
 30
0
 70
128
 71
29
 72
28
 73
62
 74
62
 0
VERTEX
 8
MESH_129_F0
 10
0
 20
0
 30
0
 70
128
 71
15
 72
77
 73
76
 74
76
 0
VERTEX
 8
MESH_129_F0
 10
0
 20
0
 30
0
 70
128
 71
91
 72
78
 73
77
 74
77
 0
VERTEX
 8
MESH_129_F0
 10
0
 20
0
 30
0
 70
128
 71
79
 72
78
 73
91
 74
91
 0
VERTEX
 8
MESH_129_F0
 10
0
 20
0
 30
0
 70
128
 71
79
 72
91
 73
80
 74
80
 0
VERTEX
 8
MESH_129_F0
 10
0
 20
0
 30
0
 70
128
 71
91
 72
81
 73
80
 74
80
 0
VERTEX
 8
MESH_129_F0
 10
0
 20
0
 30
0
 70
128
 71
82
 72
81
 73
91
 74
91
 0
VERTEX
 8
MESH_129_F0
 10
0
 20
0
 30
0
 70
128
 71
82
 72
91
 73
83
 74
83
 0
VERTEX
 8
MESH_129_F0
 10
0
 20
0
 30
0
 70
128
 71
91
 72
84
 73
83
 74
83
 0
VERTEX
 8
MESH_129_F0
 10
0
 20
0
 30
0
 70
128
 71
85
 72
84
 73
91
 74
91
 0
VERTEX
 8
MESH_129_F0
 10
0
 20
0
 30
0
 70
128
 71
85
 72
91
 73
86
 74
86
 0
VERTEX
 8
MESH_129_F0
 10
0
 20
0
 30
0
 70
128
 71
91
 72
87
 73
86
 74
86
 0
VERTEX
 8
MESH_129_F0
 10
0
 20
0
 30
0
 70
128
 71
88
 72
87
 73
91
 74
91
 0
VERTEX
 8
MESH_129_F0
 10
0
 20
0
 30
0
 70
128
 71
88
 72
91
 73
89
 74
89
 0
VERTEX
 8
MESH_129_F0
 10
0
 20
0
 30
0
 70
128
 71
91
 72
90
 73
89
 74
89
 0
SEQEND
 0
POLYLINE
 8
MESH_128_F0
 66
1
 10
0.0
 20
0.0
 30
0.0
 70
64
 71
4
 72
2
 0
VERTEX
 8
MESH_128_F0
 10
-35
 20
-106
 30
0
 70
192
 0
VERTEX
 8
MESH_128_F0
 10
-35
 20
-106
 30
-25
 70
192
 0
VERTEX
 8
MESH_128_F0
 10
35
 20
-106
 30
-25
 70
192
 0
VERTEX
 8
MESH_128_F0
 10
35
 20
-106
 30
0
 70
192
 0
VERTEX
 8
MESH_128_F0
 10
0
 20
0
 30
0
 70
128
 71
1
 72
3
 73
2
 74
2
 0
VERTEX
 8
MESH_128_F0
 10
0
 20
0
 30
0
 70
128
 71
4
 72
3
 73
1
 74
1
 0
SEQEND
 0
POLYLINE
 8
MESH_127_F0
 66
1
 10
0.0
 20
0.0
 30
0.0
 70
64
 71
30
 72
28
 0
VERTEX
 8
MESH_127_F0
 10
35
 20
-106
 30
0
 70
192
 0
VERTEX
 8
MESH_127_F0
 10
35
 20
-106
 30
-25
 70
192
 0
VERTEX
 8
MESH_127_F0
 10
37.8277
 20
-106.1614
 30
-25
 70
192
 0
VERTEX
 8
MESH_127_F0
 10
40.5899
 20
-106.633
 30
-25
 70
192
 0
VERTEX
 8
MESH_127_F0
 10
43.279
 20
-107.4116
 30
-25
 70
192
 0
VERTEX
 8
MESH_127_F0
 10
45.8719
 20
-108.4878
 30
-25
 70
192
 0
VERTEX
 8
MESH_127_F0
 10
48.3181
 20
-109.8425
 30
-25
 70
192
 0
VERTEX
 8
MESH_127_F0
 10
50.5958
 20
-111.4612
 30
-25
 70
192
 0
VERTEX
 8
MESH_127_F0
 10
52.6773
 20
-113.3227
 30
-25
 70
192
 0
VERTEX
 8
MESH_127_F0
 10
54.5388
 20
-115.4042
 30
-25
 70
192
 0
VERTEX
 8
MESH_127_F0
 10
56.1575
 20
-117.6819
 30
-25
 70
192
 0
VERTEX
 8
MESH_127_F0
 10
57.5122
 20
-120.1281
 30
-25
 70
192
 0
VERTEX
 8
MESH_127_F0
 10
58.5884
 20
-122.721
 30
-25
 70
192
 0
VERTEX
 8
MESH_127_F0
 10
59.367
 20
-125.4101
 30
-25
 70
192
 0
VERTEX
 8
MESH_127_F0
 10
59.8385
 20
-128.1723
 30
-25
 70
192
 0
VERTEX
 8
MESH_127_F0
 10
60
 20
-131
 30
-25
 70
192
 0
VERTEX
 8
MESH_127_F0
 10
60
 20
-131
 30
0
 70
192
 0
VERTEX
 8
MESH_127_F0
 10
59.8385
 20
-128.1723
 30
0
 70
192
 0
VERTEX
 8
MESH_127_F0
 10
59.367
 20
-125.4101
 30
0
 70
192
 0
VERTEX
 8
MESH_127_F0
 10
58.5884
 20
-122.721
 30
0
 70
192
 0
VERTEX
 8
MESH_127_F0
 10
57.5122
 20
-120.1281
 30
0
 70
192
 0
VERTEX
 8
MESH_127_F0
 10
56.1575
 20
-117.6819
 30
0
 70
192
 0
VERTEX
 8
MESH_127_F0
 10
54.5388
 20
-115.4042
 30
0
 70
192
 0
VERTEX
 8
MESH_127_F0
 10
52.6773
 20
-113.3227
 30
0
 70
192
 0
VERTEX
 8
MESH_127_F0
 10
50.5958
 20
-111.4612
 30
0
 70
192
 0
VERTEX
 8
MESH_127_F0
 10
48.3181
 20
-109.8425
 30
0
 70
192
 0
VERTEX
 8
MESH_127_F0
 10
45.8719
 20
-108.4878
 30
0
 70
192
 0
VERTEX
 8
MESH_127_F0
 10
43.279
 20
-107.4116
 30
0
 70
192
 0
VERTEX
 8
MESH_127_F0
 10
40.5899
 20
-106.633
 30
0
 70
192
 0
VERTEX
 8
MESH_127_F0
 10
37.8277
 20
-106.1614
 30
0
 70
192
 0
VERTEX
 8
MESH_127_F0
 10
0
 20
0
 30
0
 70
128
 71
30
 72
2
 73
1
 74
1
 0
VERTEX
 8
MESH_127_F0
 10
0
 20
0
 30
0
 70
128
 71
3
 72
2
 73
30
 74
30
 0
VERTEX
 8
MESH_127_F0
 10
0
 20
0
 30
0
 70
128
 71
3
 72
30
 73
4
 74
4
 0
VERTEX
 8
MESH_127_F0
 10
0
 20
0
 30
0
 70
128
 71
30
 72
29
 73
4
 74
4
 0
VERTEX
 8
MESH_127_F0
 10
0
 20
0
 30
0
 70
128
 71
29
 72
5
 73
4
 74
4
 0
VERTEX
 8
MESH_127_F0
 10
0
 20
0
 30
0
 70
128
 71
28
 72
5
 73
29
 74
29
 0
VERTEX
 8
MESH_127_F0
 10
0
 20
0
 30
0
 70
128
 71
6
 72
5
 73
28
 74
28
 0
VERTEX
 8
MESH_127_F0
 10
0
 20
0
 30
0
 70
128
 71
7
 72
6
 73
27
 74
27
 0
VERTEX
 8
MESH_127_F0
 10
0
 20
0
 30
0
 70
128
 71
8
 72
7
 73
26
 74
26
 0
VERTEX
 8
MESH_127_F0
 10
0
 20
0
 30
0
 70
128
 71
9
 72
8
 73
25
 74
25
 0
VERTEX
 8
MESH_127_F0
 10
0
 20
0
 30
0
 70
128
 71
10
 72
9
 73
24
 74
24
 0
VERTEX
 8
MESH_127_F0
 10
0
 20
0
 30
0
 70
128
 71
11
 72
10
 73
23
 74
23
 0
VERTEX
 8
MESH_127_F0
 10
0
 20
0
 30
0
 70
128
 71
12
 72
11
 73
22
 74
22
 0
VERTEX
 8
MESH_127_F0
 10
0
 20
0
 30
0
 70
128
 71
13
 72
12
 73
21
 74
21
 0
VERTEX
 8
MESH_127_F0
 10
0
 20
0
 30
0
 70
128
 71
14
 72
13
 73
20
 74
20
 0
VERTEX
 8
MESH_127_F0
 10
0
 20
0
 30
0
 70
128
 71
15
 72
14
 73
19
 74
19
 0
VERTEX
 8
MESH_127_F0
 10
0
 20
0
 30
0
 70
128
 71
17
 72
15
 73
18
 74
18
 0
VERTEX
 8
MESH_127_F0
 10
0
 20
0
 30
0
 70
128
 71
15
 72
19
 73
18
 74
18
 0
VERTEX
 8
MESH_127_F0
 10
0
 20
0
 30
0
 70
128
 71
17
 72
16
 73
15
 74
15
 0
VERTEX
 8
MESH_127_F0
 10
0
 20
0
 30
0
 70
128
 71
14
 72
20
 73
19
 74
19
 0
VERTEX
 8
MESH_127_F0
 10
0
 20
0
 30
0
 70
128
 71
13
 72
21
 73
20
 74
20
 0
VERTEX
 8
MESH_127_F0
 10
0
 20
0
 30
0
 70
128
 71
12
 72
22
 73
21
 74
21
 0
VERTEX
 8
MESH_127_F0
 10
0
 20
0
 30
0
 70
128
 71
11
 72
23
 73
22
 74
22
 0
VERTEX
 8
MESH_127_F0
 10
0
 20
0
 30
0
 70
128
 71
10
 72
24
 73
23
 74
23
 0
VERTEX
 8
MESH_127_F0
 10
0
 20
0
 30
0
 70
128
 71
9
 72
25
 73
24
 74
24
 0
VERTEX
 8
MESH_127_F0
 10
0
 20
0
 30
0
 70
128
 71
8
 72
26
 73
25
 74
25
 0
VERTEX
 8
MESH_127_F0
 10
0
 20
0
 30
0
 70
128
 71
7
 72
27
 73
26
 74
26
 0
VERTEX
 8
MESH_127_F0
 10
0
 20
0
 30
0
 70
128
 71
6
 72
28
 73
27
 74
27
 0
SEQEND
 0
POLYLINE
 8
MESH_126_F0
 66
1
 10
0.0
 20
0.0
 30
0.0
 70
64
 71
4
 72
2
 0
VERTEX
 8
MESH_126_F0
 10
60
 20
-131
 30
0
 70
192
 0
VERTEX
 8
MESH_126_F0
 10
60
 20
-131
 30
-25
 70
192
 0
VERTEX
 8
MESH_126_F0
 10
60
 20
-309
 30
-25
 70
192
 0
VERTEX
 8
MESH_126_F0
 10
60
 20
-309
 30
0
 70
192
 0
VERTEX
 8
MESH_126_F0
 10
0
 20
0
 30
0
 70
128
 71
1
 72
3
 73
2
 74
2
 0
VERTEX
 8
MESH_126_F0
 10
0
 20
0
 30
0
 70
128
 71
4
 72
3
 73
1
 74
1
 0
SEQEND
 0
POLYLINE
 8
MESH_125_F0
 66
1
 10
0.0
 20
0.0
 30
0.0
 70
64
 71
30
 72
28
 0
VERTEX
 8
MESH_125_F0
 10
60
 20
-309
 30
0
 70
192
 0
VERTEX
 8
MESH_125_F0
 10
60
 20
-309
 30
-25
 70
192
 0
VERTEX
 8
MESH_125_F0
 10
59.8385
 20
-311.8276
 30
-25
 70
192
 0
VERTEX
 8
MESH_125_F0
 10
59.367
 20
-314.5899
 30
-25
 70
192
 0
VERTEX
 8
MESH_125_F0
 10
58.5884
 20
-317.279
 30
-25
 70
192
 0
VERTEX
 8
MESH_125_F0
 10
57.5122
 20
-319.8719
 30
-25
 70
192
 0
VERTEX
 8
MESH_125_F0
 10
56.1575
 20
-322.3181
 30
-25
 70
192
 0
VERTEX
 8
MESH_125_F0
 10
54.5388
 20
-324.5958
 30
-25
 70
192
 0
VERTEX
 8
MESH_125_F0
 10
52.6773
 20
-326.6773
 30
-25
 70
192
 0
VERTEX
 8
MESH_125_F0
 10
50.5958
 20
-328.5388
 30
-25
 70
192
 0
VERTEX
 8
MESH_125_F0
 10
48.3181
 20
-330.1575
 30
-25
 70
192
 0
VERTEX
 8
MESH_125_F0
 10
45.8719
 20
-331.5122
 30
-25
 70
192
 0
VERTEX
 8
MESH_125_F0
 10
43.279
 20
-332.5884
 30
-25
 70
192
 0
VERTEX
 8
MESH_125_F0
 10
40.5899
 20
-333.367
 30
-25
 70
192
 0
VERTEX
 8
MESH_125_F0
 10
37.8277
 20
-333.8385
 30
-25
 70
192
 0
VERTEX
 8
MESH_125_F0
 10
35
 20
-334
 30
-25
 70
192
 0
VERTEX
 8
MESH_125_F0
 10
35
 20
-334
 30
0
 70
192
 0
VERTEX
 8
MESH_125_F0
 10
37.8277
 20
-333.8385
 30
0
 70
192
 0
VERTEX
 8
MESH_125_F0
 10
40.5899
 20
-333.367
 30
0
 70
192
 0
VERTEX
 8
MESH_125_F0
 10
43.279
 20
-332.5884
 30
0
 70
192
 0
VERTEX
 8
MESH_125_F0
 10
45.8719
 20
-331.5122
 30
0
 70
192
 0
VERTEX
 8
MESH_125_F0
 10
48.3181
 20
-330.1575
 30
0
 70
192
 0
VERTEX
 8
MESH_125_F0
 10
50.5958
 20
-328.5388
 30
0
 70
192
 0
VERTEX
 8
MESH_125_F0
 10
52.6773
 20
-326.6773
 30
0
 70
192
 0
VERTEX
 8
MESH_125_F0
 10
54.5388
 20
-324.5958
 30
0
 70
192
 0
VERTEX
 8
MESH_125_F0
 10
56.1575
 20
-322.3181
 30
0
 70
192
 0
VERTEX
 8
MESH_125_F0
 10
57.5122
 20
-319.8719
 30
0
 70
192
 0
VERTEX
 8
MESH_125_F0
 10
58.5884
 20
-317.279
 30
0
 70
192
 0
VERTEX
 8
MESH_125_F0
 10
59.367
 20
-314.5899
 30
0
 70
192
 0
VERTEX
 8
MESH_125_F0
 10
59.8385
 20
-311.8276
 30
0
 70
192
 0
VERTEX
 8
MESH_125_F0
 10
0
 20
0
 30
0
 70
128
 71
30
 72
2
 73
1
 74
1
 0
VERTEX
 8
MESH_125_F0
 10
0
 20
0
 30
0
 70
128
 71
3
 72
2
 73
30
 74
30
 0
VERTEX
 8
MESH_125_F0
 10
0
 20
0
 30
0
 70
128
 71
3
 72
30
 73
4
 74
4
 0
VERTEX
 8
MESH_125_F0
 10
0
 20
0
 30
0
 70
128
 71
30
 72
29
 73
4
 74
4
 0
VERTEX
 8
MESH_125_F0
 10
0
 20
0
 30
0
 70
128
 71
29
 72
5
 73
4
 74
4
 0
VERTEX
 8
MESH_125_F0
 10
0
 20
0
 30
0
 70
128
 71
28
 72
5
 73
29
 74
29
 0
VERTEX
 8
MESH_125_F0
 10
0
 20
0
 30
0
 70
128
 71
6
 72
5
 73
28
 74
28
 0
VERTEX
 8
MESH_125_F0
 10
0
 20
0
 30
0
 70
128
 71
7
 72
6
 73
27
 74
27
 0
VERTEX
 8
MESH_125_F0
 10
0
 20
0
 30
0
 70
128
 71
8
 72
7
 73
26
 74
26
 0
VERTEX
 8
MESH_125_F0
 10
0
 20
0
 30
0
 70
128
 71
9
 72
8
 73
25
 74
25
 0
VERTEX
 8
MESH_125_F0
 10
0
 20
0
 30
0
 70
128
 71
10
 72
9
 73
24
 74
24
 0
VERTEX
 8
MESH_125_F0
 10
0
 20
0
 30
0
 70
128
 71
11
 72
10
 73
23
 74
23
 0
VERTEX
 8
MESH_125_F0
 10
0
 20
0
 30
0
 70
128
 71
12
 72
11
 73
22
 74
22
 0
VERTEX
 8
MESH_125_F0
 10
0
 20
0
 30
0
 70
128
 71
13
 72
12
 73
21
 74
21
 0
VERTEX
 8
MESH_125_F0
 10
0
 20
0
 30
0
 70
128
 71
14
 72
13
 73
20
 74
20
 0
VERTEX
 8
MESH_125_F0
 10
0
 20
0
 30
0
 70
128
 71
15
 72
14
 73
19
 74
19
 0
VERTEX
 8
MESH_125_F0
 10
0
 20
0
 30
0
 70
128
 71
17
 72
15
 73
18
 74
18
 0
VERTEX
 8
MESH_125_F0
 10
0
 20
0
 30
0
 70
128
 71
15
 72
19
 73
18
 74
18
 0
VERTEX
 8
MESH_125_F0
 10
0
 20
0
 30
0
 70
128
 71
17
 72
16
 73
15
 74
15
 0
VERTEX
 8
MESH_125_F0
 10
0
 20
0
 30
0
 70
128
 71
14
 72
20
 73
19
 74
19
 0
VERTEX
 8
MESH_125_F0
 10
0
 20
0
 30
0
 70
128
 71
13
 72
21
 73
20
 74
20
 0
VERTEX
 8
MESH_125_F0
 10
0
 20
0
 30
0
 70
128
 71
12
 72
22
 73
21
 74
21
 0
VERTEX
 8
MESH_125_F0
 10
0
 20
0
 30
0
 70
128
 71
11
 72
23
 73
22
 74
22
 0
VERTEX
 8
MESH_125_F0
 10
0
 20
0
 30
0
 70
128
 71
10
 72
24
 73
23
 74
23
 0
VERTEX
 8
MESH_125_F0
 10
0
 20
0
 30
0
 70
128
 71
9
 72
25
 73
24
 74
24
 0
VERTEX
 8
MESH_125_F0
 10
0
 20
0
 30
0
 70
128
 71
8
 72
26
 73
25
 74
25
 0
VERTEX
 8
MESH_125_F0
 10
0
 20
0
 30
0
 70
128
 71
7
 72
27
 73
26
 74
26
 0
VERTEX
 8
MESH_125_F0
 10
0
 20
0
 30
0
 70
128
 71
6
 72
28
 73
27
 74
27
 0
SEQEND
 0
POLYLINE
 8
MESH_124_F0
 66
1
 10
0.0
 20
0.0
 30
0.0
 70
64
 71
4
 72
2
 0
VERTEX
 8
MESH_124_F0
 10
35
 20
-334
 30
0
 70
192
 0
VERTEX
 8
MESH_124_F0
 10
35
 20
-334
 30
-25
 70
192
 0
VERTEX
 8
MESH_124_F0
 10
-35
 20
-334
 30
-25
 70
192
 0
VERTEX
 8
MESH_124_F0
 10
-35
 20
-334
 30
0
 70
192
 0
VERTEX
 8
MESH_124_F0
 10
0
 20
0
 30
0
 70
128
 71
1
 72
3
 73
2
 74
2
 0
VERTEX
 8
MESH_124_F0
 10
0
 20
0
 30
0
 70
128
 71
4
 72
3
 73
1
 74
1
 0
SEQEND
 0
POLYLINE
 8
MESH_123_F0
 66
1
 10
0.0
 20
0.0
 30
0.0
 70
64
 71
30
 72
28
 0
VERTEX
 8
MESH_123_F0
 10
-35
 20
-334
 30
0
 70
192
 0
VERTEX
 8
MESH_123_F0
 10
-35
 20
-334
 30
-25
 70
192
 0
VERTEX
 8
MESH_123_F0
 10
-37.8277
 20
-333.8385
 30
-25
 70
192
 0
VERTEX
 8
MESH_123_F0
 10
-40.5899
 20
-333.367
 30
-25
 70
192
 0
VERTEX
 8
MESH_123_F0
 10
-43.279
 20
-332.5884
 30
-25
 70
192
 0
VERTEX
 8
MESH_123_F0
 10
-45.8719
 20
-331.5122
 30
-25
 70
192
 0
VERTEX
 8
MESH_123_F0
 10
-48.3181
 20
-330.1575
 30
-25
 70
192
 0
VERTEX
 8
MESH_123_F0
 10
-50.5958
 20
-328.5388
 30
-25
 70
192
 0
VERTEX
 8
MESH_123_F0
 10
-52.6773
 20
-326.6773
 30
-25
 70
192
 0
VERTEX
 8
MESH_123_F0
 10
-54.5388
 20
-324.5958
 30
-25
 70
192
 0
VERTEX
 8
MESH_123_F0
 10
-56.1575
 20
-322.3181
 30
-25
 70
192
 0
VERTEX
 8
MESH_123_F0
 10
-57.5122
 20
-319.8719
 30
-25
 70
192
 0
VERTEX
 8
MESH_123_F0
 10
-58.5884
 20
-317.279
 30
-25
 70
192
 0
VERTEX
 8
MESH_123_F0
 10
-59.367
 20
-314.5899
 30
-25
 70
192
 0
VERTEX
 8
MESH_123_F0
 10
-59.8385
 20
-311.8276
 30
-25
 70
192
 0
VERTEX
 8
MESH_123_F0
 10
-60
 20
-309
 30
-25
 70
192
 0
VERTEX
 8
MESH_123_F0
 10
-60
 20
-309
 30
0
 70
192
 0
VERTEX
 8
MESH_123_F0
 10
-59.8385
 20
-311.8276
 30
0
 70
192
 0
VERTEX
 8
MESH_123_F0
 10
-59.367
 20
-314.5899
 30
0
 70
192
 0
VERTEX
 8
MESH_123_F0
 10
-58.5884
 20
-317.279
 30
0
 70
192
 0
VERTEX
 8
MESH_123_F0
 10
-57.5122
 20
-319.8719
 30
0
 70
192
 0
VERTEX
 8
MESH_123_F0
 10
-56.1575
 20
-322.3181
 30
0
 70
192
 0
VERTEX
 8
MESH_123_F0
 10
-54.5388
 20
-324.5958
 30
0
 70
192
 0
VERTEX
 8
MESH_123_F0
 10
-52.6773
 20
-326.6773
 30
0
 70
192
 0
VERTEX
 8
MESH_123_F0
 10
-50.5958
 20
-328.5388
 30
0
 70
192
 0
VERTEX
 8
MESH_123_F0
 10
-48.3181
 20
-330.1575
 30
0
 70
192
 0
VERTEX
 8
MESH_123_F0
 10
-45.8719
 20
-331.5122
 30
0
 70
192
 0
VERTEX
 8
MESH_123_F0
 10
-43.279
 20
-332.5884
 30
0
 70
192
 0
VERTEX
 8
MESH_123_F0
 10
-40.5899
 20
-333.367
 30
0
 70
192
 0
VERTEX
 8
MESH_123_F0
 10
-37.8277
 20
-333.8385
 30
0
 70
192
 0
VERTEX
 8
MESH_123_F0
 10
0
 20
0
 30
0
 70
128
 71
30
 72
2
 73
1
 74
1
 0
VERTEX
 8
MESH_123_F0
 10
0
 20
0
 30
0
 70
128
 71
3
 72
2
 73
30
 74
30
 0
VERTEX
 8
MESH_123_F0
 10
0
 20
0
 30
0
 70
128
 71
3
 72
30
 73
4
 74
4
 0
VERTEX
 8
MESH_123_F0
 10
0
 20
0
 30
0
 70
128
 71
30
 72
29
 73
4
 74
4
 0
VERTEX
 8
MESH_123_F0
 10
0
 20
0
 30
0
 70
128
 71
29
 72
5
 73
4
 74
4
 0
VERTEX
 8
MESH_123_F0
 10
0
 20
0
 30
0
 70
128
 71
28
 72
5
 73
29
 74
29
 0
VERTEX
 8
MESH_123_F0
 10
0
 20
0
 30
0
 70
128
 71
6
 72
5
 73
28
 74
28
 0
VERTEX
 8
MESH_123_F0
 10
0
 20
0
 30
0
 70
128
 71
7
 72
6
 73
27
 74
27
 0
VERTEX
 8
MESH_123_F0
 10
0
 20
0
 30
0
 70
128
 71
8
 72
7
 73
26
 74
26
 0
VERTEX
 8
MESH_123_F0
 10
0
 20
0
 30
0
 70
128
 71
9
 72
8
 73
25
 74
25
 0
VERTEX
 8
MESH_123_F0
 10
0
 20
0
 30
0
 70
128
 71
10
 72
9
 73
24
 74
24
 0
VERTEX
 8
MESH_123_F0
 10
0
 20
0
 30
0
 70
128
 71
11
 72
10
 73
23
 74
23
 0
VERTEX
 8
MESH_123_F0
 10
0
 20
0
 30
0
 70
128
 71
12
 72
11
 73
22
 74
22
 0
VERTEX
 8
MESH_123_F0
 10
0
 20
0
 30
0
 70
128
 71
13
 72
12
 73
21
 74
21
 0
VERTEX
 8
MESH_123_F0
 10
0
 20
0
 30
0
 70
128
 71
14
 72
13
 73
20
 74
20
 0
VERTEX
 8
MESH_123_F0
 10
0
 20
0
 30
0
 70
128
 71
15
 72
14
 73
19
 74
19
 0
VERTEX
 8
MESH_123_F0
 10
0
 20
0
 30
0
 70
128
 71
17
 72
15
 73
18
 74
18
 0
VERTEX
 8
MESH_123_F0
 10
0
 20
0
 30
0
 70
128
 71
15
 72
19
 73
18
 74
18
 0
VERTEX
 8
MESH_123_F0
 10
0
 20
0
 30
0
 70
128
 71
17
 72
16
 73
15
 74
15
 0
VERTEX
 8
MESH_123_F0
 10
0
 20
0
 30
0
 70
128
 71
14
 72
20
 73
19
 74
19
 0
VERTEX
 8
MESH_123_F0
 10
0
 20
0
 30
0
 70
128
 71
13
 72
21
 73
20
 74
20
 0
VERTEX
 8
MESH_123_F0
 10
0
 20
0
 30
0
 70
128
 71
12
 72
22
 73
21
 74
21
 0
VERTEX
 8
MESH_123_F0
 10
0
 20
0
 30
0
 70
128
 71
11
 72
23
 73
22
 74
22
 0
VERTEX
 8
MESH_123_F0
 10
0
 20
0
 30
0
 70
128
 71
10
 72
24
 73
23
 74
23
 0
VERTEX
 8
MESH_123_F0
 10
0
 20
0
 30
0
 70
128
 71
9
 72
25
 73
24
 74
24
 0
VERTEX
 8
MESH_123_F0
 10
0
 20
0
 30
0
 70
128
 71
8
 72
26
 73
25
 74
25
 0
VERTEX
 8
MESH_123_F0
 10
0
 20
0
 30
0
 70
128
 71
7
 72
27
 73
26
 74
26
 0
VERTEX
 8
MESH_123_F0
 10
0
 20
0
 30
0
 70
128
 71
6
 72
28
 73
27
 74
27
 0
SEQEND
 0
POLYLINE
 8
MESH_122_F0
 66
1
 10
0.0
 20
0.0
 30
0.0
 70
64
 71
4
 72
2
 0
VERTEX
 8
MESH_122_F0
 10
-60
 20
-309
 30
0
 70
192
 0
VERTEX
 8
MESH_122_F0
 10
-60
 20
-309
 30
-25
 70
192
 0
VERTEX
 8
MESH_122_F0
 10
-60
 20
-131
 30
-25
 70
192
 0
VERTEX
 8
MESH_122_F0
 10
-60
 20
-131
 30
0
 70
192
 0
VERTEX
 8
MESH_122_F0
 10
0
 20
0
 30
0
 70
128
 71
1
 72
3
 73
2
 74
2
 0
VERTEX
 8
MESH_122_F0
 10
0
 20
0
 30
0
 70
128
 71
4
 72
3
 73
1
 74
1
 0
SEQEND
 0
POLYLINE
 8
MESH_121_F0
 66
1
 10
0.0
 20
0.0
 30
0.0
 70
64
 71
30
 72
28
 0
VERTEX
 8
MESH_121_F0
 10
-60
 20
-131
 30
0
 70
192
 0
VERTEX
 8
MESH_121_F0
 10
-60
 20
-131
 30
-25
 70
192
 0
VERTEX
 8
MESH_121_F0
 10
-59.8385
 20
-128.1723
 30
-25
 70
192
 0
VERTEX
 8
MESH_121_F0
 10
-59.367
 20
-125.4101
 30
-25
 70
192
 0
VERTEX
 8
MESH_121_F0
 10
-58.5884
 20
-122.721
 30
-25
 70
192
 0
VERTEX
 8
MESH_121_F0
 10
-57.5122
 20
-120.1281
 30
-25
 70
192
 0
VERTEX
 8
MESH_121_F0
 10
-56.1575
 20
-117.6819
 30
-25
 70
192
 0
VERTEX
 8
MESH_121_F0
 10
-54.5388
 20
-115.4042
 30
-25
 70
192
 0
VERTEX
 8
MESH_121_F0
 10
-52.6773
 20
-113.3227
 30
-25
 70
192
 0
VERTEX
 8
MESH_121_F0
 10
-50.5958
 20
-111.4612
 30
-25
 70
192
 0
VERTEX
 8
MESH_121_F0
 10
-48.3181
 20
-109.8425
 30
-25
 70
192
 0
VERTEX
 8
MESH_121_F0
 10
-45.8719
 20
-108.4878
 30
-25
 70
192
 0
VERTEX
 8
MESH_121_F0
 10
-43.279
 20
-107.4116
 30
-25
 70
192
 0
VERTEX
 8
MESH_121_F0
 10
-40.5899
 20
-106.633
 30
-25
 70
192
 0
VERTEX
 8
MESH_121_F0
 10
-37.8277
 20
-106.1614
 30
-25
 70
192
 0
VERTEX
 8
MESH_121_F0
 10
-35
 20
-106
 30
-25
 70
192
 0
VERTEX
 8
MESH_121_F0
 10
-35
 20
-106
 30
0
 70
192
 0
VERTEX
 8
MESH_121_F0
 10
-37.8277
 20
-106.1614
 30
0
 70
192
 0
VERTEX
 8
MESH_121_F0
 10
-40.5899
 20
-106.633
 30
0
 70
192
 0
VERTEX
 8
MESH_121_F0
 10
-43.279
 20
-107.4116
 30
0
 70
192
 0
VERTEX
 8
MESH_121_F0
 10
-45.8719
 20
-108.4878
 30
0
 70
192
 0
VERTEX
 8
MESH_121_F0
 10
-48.3181
 20
-109.8425
 30
0
 70
192
 0
VERTEX
 8
MESH_121_F0
 10
-50.5958
 20
-111.4612
 30
0
 70
192
 0
VERTEX
 8
MESH_121_F0
 10
-52.6773
 20
-113.3227
 30
0
 70
192
 0
VERTEX
 8
MESH_121_F0
 10
-54.5388
 20
-115.4042
 30
0
 70
192
 0
VERTEX
 8
MESH_121_F0
 10
-56.1575
 20
-117.6819
 30
0
 70
192
 0
VERTEX
 8
MESH_121_F0
 10
-57.5122
 20
-120.1281
 30
0
 70
192
 0
VERTEX
 8
MESH_121_F0
 10
-58.5884
 20
-122.721
 30
0
 70
192
 0
VERTEX
 8
MESH_121_F0
 10
-59.367
 20
-125.4101
 30
0
 70
192
 0
VERTEX
 8
MESH_121_F0
 10
-59.8385
 20
-128.1723
 30
0
 70
192
 0
VERTEX
 8
MESH_121_F0
 10
0
 20
0
 30
0
 70
128
 71
30
 72
2
 73
1
 74
1
 0
VERTEX
 8
MESH_121_F0
 10
0
 20
0
 30
0
 70
128
 71
3
 72
2
 73
30
 74
30
 0
VERTEX
 8
MESH_121_F0
 10
0
 20
0
 30
0
 70
128
 71
3
 72
30
 73
4
 74
4
 0
VERTEX
 8
MESH_121_F0
 10
0
 20
0
 30
0
 70
128
 71
30
 72
29
 73
4
 74
4
 0
VERTEX
 8
MESH_121_F0
 10
0
 20
0
 30
0
 70
128
 71
29
 72
5
 73
4
 74
4
 0
VERTEX
 8
MESH_121_F0
 10
0
 20
0
 30
0
 70
128
 71
28
 72
5
 73
29
 74
29
 0
VERTEX
 8
MESH_121_F0
 10
0
 20
0
 30
0
 70
128
 71
6
 72
5
 73
28
 74
28
 0
VERTEX
 8
MESH_121_F0
 10
0
 20
0
 30
0
 70
128
 71
7
 72
6
 73
27
 74
27
 0
VERTEX
 8
MESH_121_F0
 10
0
 20
0
 30
0
 70
128
 71
8
 72
7
 73
26
 74
26
 0
VERTEX
 8
MESH_121_F0
 10
0
 20
0
 30
0
 70
128
 71
9
 72
8
 73
25
 74
25
 0
VERTEX
 8
MESH_121_F0
 10
0
 20
0
 30
0
 70
128
 71
10
 72
9
 73
24
 74
24
 0
VERTEX
 8
MESH_121_F0
 10
0
 20
0
 30
0
 70
128
 71
11
 72
10
 73
23
 74
23
 0
VERTEX
 8
MESH_121_F0
 10
0
 20
0
 30
0
 70
128
 71
12
 72
11
 73
22
 74
22
 0
VERTEX
 8
MESH_121_F0
 10
0
 20
0
 30
0
 70
128
 71
13
 72
12
 73
21
 74
21
 0
VERTEX
 8
MESH_121_F0
 10
0
 20
0
 30
0
 70
128
 71
14
 72
13
 73
20
 74
20
 0
VERTEX
 8
MESH_121_F0
 10
0
 20
0
 30
0
 70
128
 71
15
 72
14
 73
19
 74
19
 0
VERTEX
 8
MESH_121_F0
 10
0
 20
0
 30
0
 70
128
 71
17
 72
15
 73
18
 74
18
 0
VERTEX
 8
MESH_121_F0
 10
0
 20
0
 30
0
 70
128
 71
15
 72
19
 73
18
 74
18
 0
VERTEX
 8
MESH_121_F0
 10
0
 20
0
 30
0
 70
128
 71
17
 72
16
 73
15
 74
15
 0
VERTEX
 8
MESH_121_F0
 10
0
 20
0
 30
0
 70
128
 71
14
 72
20
 73
19
 74
19
 0
VERTEX
 8
MESH_121_F0
 10
0
 20
0
 30
0
 70
128
 71
13
 72
21
 73
20
 74
20
 0
VERTEX
 8
MESH_121_F0
 10
0
 20
0
 30
0
 70
128
 71
12
 72
22
 73
21
 74
21
 0
VERTEX
 8
MESH_121_F0
 10
0
 20
0
 30
0
 70
128
 71
11
 72
23
 73
22
 74
22
 0
VERTEX
 8
MESH_121_F0
 10
0
 20
0
 30
0
 70
128
 71
10
 72
24
 73
23
 74
23
 0
VERTEX
 8
MESH_121_F0
 10
0
 20
0
 30
0
 70
128
 71
9
 72
25
 73
24
 74
24
 0
VERTEX
 8
MESH_121_F0
 10
0
 20
0
 30
0
 70
128
 71
8
 72
26
 73
25
 74
25
 0
VERTEX
 8
MESH_121_F0
 10
0
 20
0
 30
0
 70
128
 71
7
 72
27
 73
26
 74
26
 0
VERTEX
 8
MESH_121_F0
 10
0
 20
0
 30
0
 70
128
 71
6
 72
28
 73
27
 74
27
 0
SEQEND
 0
POLYLINE
 8
MESH_120_F0
 66
1
 10
0.0
 20
0.0
 30
0.0
 70
64
 71
92
 72
92
 0
VERTEX
 8
MESH_120_F0
 10
-60
 20
-131
 30
0
 70
192
 0
VERTEX
 8
MESH_120_F0
 10
-59.8385
 20
-128.1723
 30
0
 70
192
 0
VERTEX
 8
MESH_120_F0
 10
-59.367
 20
-125.4101
 30
0
 70
192
 0
VERTEX
 8
MESH_120_F0
 10
-58.5884
 20
-122.721
 30
0
 70
192
 0
VERTEX
 8
MESH_120_F0
 10
-57.5122
 20
-120.1281
 30
0
 70
192
 0
VERTEX
 8
MESH_120_F0
 10
-56.1575
 20
-117.6819
 30
0
 70
192
 0
VERTEX
 8
MESH_120_F0
 10
-54.5388
 20
-115.4042
 30
0
 70
192
 0
VERTEX
 8
MESH_120_F0
 10
-52.6773
 20
-113.3227
 30
0
 70
192
 0
VERTEX
 8
MESH_120_F0
 10
-50.5958
 20
-111.4612
 30
0
 70
192
 0
VERTEX
 8
MESH_120_F0
 10
-48.3181
 20
-109.8425
 30
0
 70
192
 0
VERTEX
 8
MESH_120_F0
 10
-45.8719
 20
-108.4878
 30
0
 70
192
 0
VERTEX
 8
MESH_120_F0
 10
-43.279
 20
-107.4116
 30
0
 70
192
 0
VERTEX
 8
MESH_120_F0
 10
-40.5899
 20
-106.633
 30
0
 70
192
 0
VERTEX
 8
MESH_120_F0
 10
-37.8277
 20
-106.1614
 30
0
 70
192
 0
VERTEX
 8
MESH_120_F0
 10
-35
 20
-106
 30
0
 70
192
 0
VERTEX
 8
MESH_120_F0
 10
35
 20
-106
 30
0
 70
192
 0
VERTEX
 8
MESH_120_F0
 10
37.8277
 20
-106.1614
 30
0
 70
192
 0
VERTEX
 8
MESH_120_F0
 10
40.5899
 20
-106.633
 30
0
 70
192
 0
VERTEX
 8
MESH_120_F0
 10
43.279
 20
-107.4116
 30
0
 70
192
 0
VERTEX
 8
MESH_120_F0
 10
45.8719
 20
-108.4878
 30
0
 70
192
 0
VERTEX
 8
MESH_120_F0
 10
48.3181
 20
-109.8425
 30
0
 70
192
 0
VERTEX
 8
MESH_120_F0
 10
50.5958
 20
-111.4612
 30
0
 70
192
 0
VERTEX
 8
MESH_120_F0
 10
52.6773
 20
-113.3227
 30
0
 70
192
 0
VERTEX
 8
MESH_120_F0
 10
54.5388
 20
-115.4042
 30
0
 70
192
 0
VERTEX
 8
MESH_120_F0
 10
56.1575
 20
-117.6819
 30
0
 70
192
 0
VERTEX
 8
MESH_120_F0
 10
57.5122
 20
-120.1281
 30
0
 70
192
 0
VERTEX
 8
MESH_120_F0
 10
58.5884
 20
-122.721
 30
0
 70
192
 0
VERTEX
 8
MESH_120_F0
 10
59.367
 20
-125.4101
 30
0
 70
192
 0
VERTEX
 8
MESH_120_F0
 10
59.8385
 20
-128.1723
 30
0
 70
192
 0
VERTEX
 8
MESH_120_F0
 10
60
 20
-131
 30
0
 70
192
 0
VERTEX
 8
MESH_120_F0
 10
60
 20
-309
 30
0
 70
192
 0
VERTEX
 8
MESH_120_F0
 10
59.8385
 20
-311.8276
 30
0
 70
192
 0
VERTEX
 8
MESH_120_F0
 10
59.367
 20
-314.5899
 30
0
 70
192
 0
VERTEX
 8
MESH_120_F0
 10
58.5884
 20
-317.279
 30
0
 70
192
 0
VERTEX
 8
MESH_120_F0
 10
57.5122
 20
-319.8719
 30
0
 70
192
 0
VERTEX
 8
MESH_120_F0
 10
56.1575
 20
-322.3181
 30
0
 70
192
 0
VERTEX
 8
MESH_120_F0
 10
54.5388
 20
-324.5958
 30
0
 70
192
 0
VERTEX
 8
MESH_120_F0
 10
52.6773
 20
-326.6773
 30
0
 70
192
 0
VERTEX
 8
MESH_120_F0
 10
50.5958
 20
-328.5388
 30
0
 70
192
 0
VERTEX
 8
MESH_120_F0
 10
48.3181
 20
-330.1575
 30
0
 70
192
 0
VERTEX
 8
MESH_120_F0
 10
45.8719
 20
-331.5122
 30
0
 70
192
 0
VERTEX
 8
MESH_120_F0
 10
43.279
 20
-332.5884
 30
0
 70
192
 0
VERTEX
 8
MESH_120_F0
 10
40.5899
 20
-333.367
 30
0
 70
192
 0
VERTEX
 8
MESH_120_F0
 10
37.8277
 20
-333.8385
 30
0
 70
192
 0
VERTEX
 8
MESH_120_F0
 10
35
 20
-334
 30
0
 70
192
 0
VERTEX
 8
MESH_120_F0
 10
-35
 20
-334
 30
0
 70
192
 0
VERTEX
 8
MESH_120_F0
 10
-37.8277
 20
-333.8385
 30
0
 70
192
 0
VERTEX
 8
MESH_120_F0
 10
-40.5899
 20
-333.367
 30
0
 70
192
 0
VERTEX
 8
MESH_120_F0
 10
-43.279
 20
-332.5884
 30
0
 70
192
 0
VERTEX
 8
MESH_120_F0
 10
-45.8719
 20
-331.5122
 30
0
 70
192
 0
VERTEX
 8
MESH_120_F0
 10
-48.3181
 20
-330.1575
 30
0
 70
192
 0
VERTEX
 8
MESH_120_F0
 10
-50.5958
 20
-328.5388
 30
0
 70
192
 0
VERTEX
 8
MESH_120_F0
 10
-52.6773
 20
-326.6773
 30
0
 70
192
 0
VERTEX
 8
MESH_120_F0
 10
-54.5388
 20
-324.5958
 30
0
 70
192
 0
VERTEX
 8
MESH_120_F0
 10
-56.1575
 20
-322.3181
 30
0
 70
192
 0
VERTEX
 8
MESH_120_F0
 10
-57.5122
 20
-319.8719
 30
0
 70
192
 0
VERTEX
 8
MESH_120_F0
 10
-58.5884
 20
-317.279
 30
0
 70
192
 0
VERTEX
 8
MESH_120_F0
 10
-59.367
 20
-314.5899
 30
0
 70
192
 0
VERTEX
 8
MESH_120_F0
 10
-59.8385
 20
-311.8276
 30
0
 70
192
 0
VERTEX
 8
MESH_120_F0
 10
-60
 20
-309
 30
0
 70
192
 0
VERTEX
 8
MESH_120_F0
 10
-300
 20
0
 30
0
 70
192
 0
VERTEX
 8
MESH_120_F0
 10
-300
 20
-417
 30
0
 70
192
 0
VERTEX
 8
MESH_120_F0
 10
-299.8515
 20
-419.6014
 30
0
 70
192
 0
VERTEX
 8
MESH_120_F0
 10
-299.4177
 20
-422.1427
 30
0
 70
192
 0
VERTEX
 8
MESH_120_F0
 10
-298.7013
 20
-424.6167
 30
0
 70
192
 0
VERTEX
 8
MESH_120_F0
 10
-297.7112
 20
-427.0022
 30
0
 70
192
 0
VERTEX
 8
MESH_120_F0
 10
-296.4649
 20
-429.2526
 30
0
 70
192
 0
VERTEX
 8
MESH_120_F0
 10
-294.9757
 20
-431.3482
 30
0
 70
192
 0
VERTEX
 8
MESH_120_F0
 10
-293.2631
 20
-433.2631
 30
0
 70
192
 0
VERTEX
 8
MESH_120_F0
 10
-291.3482
 20
-434.9757
 30
0
 70
192
 0
VERTEX
 8
MESH_120_F0
 10
-289.2527
 20
-436.4649
 30
0
 70
192
 0
VERTEX
 8
MESH_120_F0
 10
-287.0022
 20
-437.7112
 30
0
 70
192
 0
VERTEX
 8
MESH_120_F0
 10
-284.6167
 20
-438.7013
 30
0
 70
192
 0
VERTEX
 8
MESH_120_F0
 10
-282.1427
 20
-439.4177
 30
0
 70
192
 0
VERTEX
 8
MESH_120_F0
 10
-279.6014
 20
-439.8514
 30
0
 70
192
 0
VERTEX
 8
MESH_120_F0
 10
-277
 20
-440
 30
0
 70
192
 0
VERTEX
 8
MESH_120_F0
 10
277
 20
-440
 30
0
 70
192
 0
VERTEX
 8
MESH_120_F0
 10
279.6014
 20
-439.8514
 30
0
 70
192
 0
VERTEX
 8
MESH_120_F0
 10
282.1427
 20
-439.4177
 30
0
 70
192
 0
VERTEX
 8
MESH_120_F0
 10
284.6167
 20
-438.7013
 30
0
 70
192
 0
VERTEX
 8
MESH_120_F0
 10
287.0022
 20
-437.7112
 30
0
 70
192
 0
VERTEX
 8
MESH_120_F0
 10
289.2527
 20
-436.4649
 30
0
 70
192
 0
VERTEX
 8
MESH_120_F0
 10
291.3482
 20
-434.9757
 30
0
 70
192
 0
VERTEX
 8
MESH_120_F0
 10
293.2631
 20
-433.2631
 30
0
 70
192
 0
VERTEX
 8
MESH_120_F0
 10
294.9757
 20
-431.3482
 30
0
 70
192
 0
VERTEX
 8
MESH_120_F0
 10
296.4649
 20
-429.2526
 30
0
 70
192
 0
VERTEX
 8
MESH_120_F0
 10
297.7112
 20
-427.0022
 30
0
 70
192
 0
VERTEX
 8
MESH_120_F0
 10
298.7013
 20
-424.6167
 30
0
 70
192
 0
VERTEX
 8
MESH_120_F0
 10
299.4177
 20
-422.1427
 30
0
 70
192
 0
VERTEX
 8
MESH_120_F0
 10
299.8515
 20
-419.6014
 30
0
 70
192
 0
VERTEX
 8
MESH_120_F0
 10
300
 20
-417
 30
0
 70
192
 0
VERTEX
 8
MESH_120_F0
 10
300
 20
0
 30
0
 70
192
 0
VERTEX
 8
MESH_120_F0
 10
0
 20
0
 30
0
 70
128
 71
1
 72
61
 73
2
 74
2
 0
VERTEX
 8
MESH_120_F0
 10
0
 20
0
 30
0
 70
128
 71
61
 72
3
 73
2
 74
2
 0
VERTEX
 8
MESH_120_F0
 10
0
 20
0
 30
0
 70
128
 71
4
 72
3
 73
61
 74
61
 0
VERTEX
 8
MESH_120_F0
 10
0
 20
0
 30
0
 70
128
 71
4
 72
61
 73
5
 74
5
 0
VERTEX
 8
MESH_120_F0
 10
0
 20
0
 30
0
 70
128
 71
61
 72
6
 73
5
 74
5
 0
VERTEX
 8
MESH_120_F0
 10
0
 20
0
 30
0
 70
128
 71
7
 72
6
 73
61
 74
61
 0
VERTEX
 8
MESH_120_F0
 10
0
 20
0
 30
0
 70
128
 71
7
 72
61
 73
8
 74
8
 0
VERTEX
 8
MESH_120_F0
 10
0
 20
0
 30
0
 70
128
 71
61
 72
9
 73
8
 74
8
 0
VERTEX
 8
MESH_120_F0
 10
0
 20
0
 30
0
 70
128
 71
10
 72
9
 73
61
 74
61
 0
VERTEX
 8
MESH_120_F0
 10
0
 20
0
 30
0
 70
128
 71
10
 72
61
 73
11
 74
11
 0
VERTEX
 8
MESH_120_F0
 10
0
 20
0
 30
0
 70
128
 71
61
 72
12
 73
11
 74
11
 0
VERTEX
 8
MESH_120_F0
 10
0
 20
0
 30
0
 70
128
 71
13
 72
12
 73
61
 74
61
 0
VERTEX
 8
MESH_120_F0
 10
0
 20
0
 30
0
 70
128
 71
13
 72
61
 73
14
 74
14
 0
VERTEX
 8
MESH_120_F0
 10
0
 20
0
 30
0
 70
128
 71
61
 72
15
 73
14
 74
14
 0
VERTEX
 8
MESH_120_F0
 10
0
 20
0
 30
0
 70
128
 71
92
 72
15
 73
61
 74
61
 0
VERTEX
 8
MESH_120_F0
 10
0
 20
0
 30
0
 70
128
 71
16
 72
15
 73
92
 74
92
 0
VERTEX
 8
MESH_120_F0
 10
0
 20
0
 30
0
 70
128
 71
16
 72
92
 73
17
 74
17
 0
VERTEX
 8
MESH_120_F0
 10
0
 20
0
 30
0
 70
128
 71
92
 72
18
 73
17
 74
17
 0
VERTEX
 8
MESH_120_F0
 10
0
 20
0
 30
0
 70
128
 71
19
 72
18
 73
92
 74
92
 0
VERTEX
 8
MESH_120_F0
 10
0
 20
0
 30
0
 70
128
 71
19
 72
92
 73
20
 74
20
 0
VERTEX
 8
MESH_120_F0
 10
0
 20
0
 30
0
 70
128
 71
92
 72
21
 73
20
 74
20
 0
VERTEX
 8
MESH_120_F0
 10
0
 20
0
 30
0
 70
128
 71
22
 72
21
 73
92
 74
92
 0
VERTEX
 8
MESH_120_F0
 10
0
 20
0
 30
0
 70
128
 71
22
 72
92
 73
23
 74
23
 0
VERTEX
 8
MESH_120_F0
 10
0
 20
0
 30
0
 70
128
 71
92
 72
24
 73
23
 74
23
 0
VERTEX
 8
MESH_120_F0
 10
0
 20
0
 30
0
 70
128
 71
25
 72
24
 73
92
 74
92
 0
VERTEX
 8
MESH_120_F0
 10
0
 20
0
 30
0
 70
128
 71
25
 72
92
 73
26
 74
26
 0
VERTEX
 8
MESH_120_F0
 10
0
 20
0
 30
0
 70
128
 71
92
 72
27
 73
26
 74
26
 0
VERTEX
 8
MESH_120_F0
 10
0
 20
0
 30
0
 70
128
 71
28
 72
27
 73
92
 74
92
 0
VERTEX
 8
MESH_120_F0
 10
0
 20
0
 30
0
 70
128
 71
28
 72
92
 73
29
 74
29
 0
VERTEX
 8
MESH_120_F0
 10
0
 20
0
 30
0
 70
128
 71
92
 72
30
 73
29
 74
29
 0
VERTEX
 8
MESH_120_F0
 10
0
 20
0
 30
0
 70
128
 71
91
 72
30
 73
92
 74
92
 0
VERTEX
 8
MESH_120_F0
 10
0
 20
0
 30
0
 70
128
 71
31
 72
30
 73
91
 74
91
 0
VERTEX
 8
MESH_120_F0
 10
0
 20
0
 30
0
 70
128
 71
31
 72
91
 73
32
 74
32
 0
VERTEX
 8
MESH_120_F0
 10
0
 20
0
 30
0
 70
128
 71
91
 72
33
 73
32
 74
32
 0
VERTEX
 8
MESH_120_F0
 10
0
 20
0
 30
0
 70
128
 71
34
 72
33
 73
91
 74
91
 0
VERTEX
 8
MESH_120_F0
 10
0
 20
0
 30
0
 70
128
 71
35
 72
34
 73
77
 74
77
 0
VERTEX
 8
MESH_120_F0
 10
0
 20
0
 30
0
 70
128
 71
35
 72
77
 73
36
 74
36
 0
VERTEX
 8
MESH_120_F0
 10
0
 20
0
 30
0
 70
128
 71
77
 72
37
 73
36
 74
36
 0
VERTEX
 8
MESH_120_F0
 10
0
 20
0
 30
0
 70
128
 71
38
 72
37
 73
77
 74
77
 0
VERTEX
 8
MESH_120_F0
 10
0
 20
0
 30
0
 70
128
 71
38
 72
77
 73
39
 74
39
 0
VERTEX
 8
MESH_120_F0
 10
0
 20
0
 30
0
 70
128
 71
77
 72
40
 73
39
 74
39
 0
VERTEX
 8
MESH_120_F0
 10
0
 20
0
 30
0
 70
128
 71
41
 72
40
 73
77
 74
77
 0
VERTEX
 8
MESH_120_F0
 10
0
 20
0
 30
0
 70
128
 71
41
 72
77
 73
42
 74
42
 0
VERTEX
 8
MESH_120_F0
 10
0
 20
0
 30
0
 70
128
 71
77
 72
43
 73
42
 74
42
 0
VERTEX
 8
MESH_120_F0
 10
0
 20
0
 30
0
 70
128
 71
44
 72
43
 73
77
 74
77
 0
VERTEX
 8
MESH_120_F0
 10
0
 20
0
 30
0
 70
128
 71
44
 72
77
 73
45
 74
45
 0
VERTEX
 8
MESH_120_F0
 10
0
 20
0
 30
0
 70
128
 71
77
 72
46
 73
45
 74
45
 0
VERTEX
 8
MESH_120_F0
 10
0
 20
0
 30
0
 70
128
 71
76
 72
46
 73
77
 74
77
 0
VERTEX
 8
MESH_120_F0
 10
0
 20
0
 30
0
 70
128
 71
47
 72
46
 73
76
 74
76
 0
VERTEX
 8
MESH_120_F0
 10
0
 20
0
 30
0
 70
128
 71
47
 72
76
 73
48
 74
48
 0
VERTEX
 8
MESH_120_F0
 10
0
 20
0
 30
0
 70
128
 71
76
 72
49
 73
48
 74
48
 0
VERTEX
 8
MESH_120_F0
 10
0
 20
0
 30
0
 70
128
 71
50
 72
49
 73
76
 74
76
 0
VERTEX
 8
MESH_120_F0
 10
0
 20
0
 30
0
 70
128
 71
50
 72
76
 73
51
 74
51
 0
VERTEX
 8
MESH_120_F0
 10
0
 20
0
 30
0
 70
128
 71
76
 72
52
 73
51
 74
51
 0
VERTEX
 8
MESH_120_F0
 10
0
 20
0
 30
0
 70
128
 71
53
 72
52
 73
76
 74
76
 0
VERTEX
 8
MESH_120_F0
 10
0
 20
0
 30
0
 70
128
 71
53
 72
76
 73
54
 74
54
 0
VERTEX
 8
MESH_120_F0
 10
0
 20
0
 30
0
 70
128
 71
76
 72
55
 73
54
 74
54
 0
VERTEX
 8
MESH_120_F0
 10
0
 20
0
 30
0
 70
128
 71
56
 72
55
 73
76
 74
76
 0
VERTEX
 8
MESH_120_F0
 10
0
 20
0
 30
0
 70
128
 71
56
 72
76
 73
57
 74
57
 0
VERTEX
 8
MESH_120_F0
 10
0
 20
0
 30
0
 70
128
 71
76
 72
62
 73
57
 74
57
 0
VERTEX
 8
MESH_120_F0
 10
0
 20
0
 30
0
 70
128
 71
62
 72
58
 73
57
 74
57
 0
VERTEX
 8
MESH_120_F0
 10
0
 20
0
 30
0
 70
128
 71
59
 72
58
 73
62
 74
62
 0
VERTEX
 8
MESH_120_F0
 10
0
 20
0
 30
0
 70
128
 71
59
 72
62
 73
60
 74
60
 0
VERTEX
 8
MESH_120_F0
 10
0
 20
0
 30
0
 70
128
 71
62
 72
1
 73
60
 74
60
 0
VERTEX
 8
MESH_120_F0
 10
0
 20
0
 30
0
 70
128
 71
61
 72
1
 73
62
 74
62
 0
VERTEX
 8
MESH_120_F0
 10
0
 20
0
 30
0
 70
128
 71
62
 72
64
 73
63
 74
63
 0
VERTEX
 8
MESH_120_F0
 10
0
 20
0
 30
0
 70
128
 71
65
 72
64
 73
62
 74
62
 0
VERTEX
 8
MESH_120_F0
 10
0
 20
0
 30
0
 70
128
 71
65
 72
62
 73
66
 74
66
 0
VERTEX
 8
MESH_120_F0
 10
0
 20
0
 30
0
 70
128
 71
62
 72
67
 73
66
 74
66
 0
VERTEX
 8
MESH_120_F0
 10
0
 20
0
 30
0
 70
128
 71
68
 72
67
 73
62
 74
62
 0
VERTEX
 8
MESH_120_F0
 10
0
 20
0
 30
0
 70
128
 71
68
 72
62
 73
69
 74
69
 0
VERTEX
 8
MESH_120_F0
 10
0
 20
0
 30
0
 70
128
 71
62
 72
70
 73
69
 74
69
 0
VERTEX
 8
MESH_120_F0
 10
0
 20
0
 30
0
 70
128
 71
71
 72
70
 73
62
 74
62
 0
VERTEX
 8
MESH_120_F0
 10
0
 20
0
 30
0
 70
128
 71
71
 72
62
 73
72
 74
72
 0
VERTEX
 8
MESH_120_F0
 10
0
 20
0
 30
0
 70
128
 71
62
 72
73
 73
72
 74
72
 0
VERTEX
 8
MESH_120_F0
 10
0
 20
0
 30
0
 70
128
 71
74
 72
73
 73
62
 74
62
 0
VERTEX
 8
MESH_120_F0
 10
0
 20
0
 30
0
 70
128
 71
74
 72
62
 73
75
 74
75
 0
VERTEX
 8
MESH_120_F0
 10
0
 20
0
 30
0
 70
128
 71
62
 72
76
 73
75
 74
75
 0
VERTEX
 8
MESH_120_F0
 10
0
 20
0
 30
0
 70
128
 71
77
 72
79
 73
78
 74
78
 0
VERTEX
 8
MESH_120_F0
 10
0
 20
0
 30
0
 70
128
 71
80
 72
79
 73
77
 74
77
 0
VERTEX
 8
MESH_120_F0
 10
0
 20
0
 30
0
 70
128
 71
80
 72
77
 73
81
 74
81
 0
VERTEX
 8
MESH_120_F0
 10
0
 20
0
 30
0
 70
128
 71
77
 72
82
 73
81
 74
81
 0
VERTEX
 8
MESH_120_F0
 10
0
 20
0
 30
0
 70
128
 71
83
 72
82
 73
77
 74
77
 0
VERTEX
 8
MESH_120_F0
 10
0
 20
0
 30
0
 70
128
 71
83
 72
77
 73
84
 74
84
 0
VERTEX
 8
MESH_120_F0
 10
0
 20
0
 30
0
 70
128
 71
77
 72
85
 73
84
 74
84
 0
VERTEX
 8
MESH_120_F0
 10
0
 20
0
 30
0
 70
128
 71
86
 72
85
 73
77
 74
77
 0
VERTEX
 8
MESH_120_F0
 10
0
 20
0
 30
0
 70
128
 71
86
 72
77
 73
87
 74
87
 0
VERTEX
 8
MESH_120_F0
 10
0
 20
0
 30
0
 70
128
 71
77
 72
88
 73
87
 74
87
 0
VERTEX
 8
MESH_120_F0
 10
0
 20
0
 30
0
 70
128
 71
89
 72
88
 73
77
 74
77
 0
VERTEX
 8
MESH_120_F0
 10
0
 20
0
 30
0
 70
128
 71
89
 72
77
 73
90
 74
90
 0
VERTEX
 8
MESH_120_F0
 10
0
 20
0
 30
0
 70
128
 71
77
 72
91
 73
90
 74
90
 0
VERTEX
 8
MESH_120_F0
 10
0
 20
0
 30
0
 70
128
 71
34
 72
91
 73
77
 74
77
 0
SEQEND
 0
ENDSEC
 0
EOF
