 0
SECTION
 2
HEADER
 9
$ACADVER
 1
AC1009
 0
ENDSEC
 0
SECTION
 2
TABLES
 0
TABLE
 2
LTYPE
 70
1
 0
LTYPE
 2
CONTINUOUS
 70
64
 3
solid line
 72
65
 73
0
 40
0.0
 0
ENDTAB
 0
TABLE
 2
LAYER
 70
6
 0
LAYER
 2
0
 70
0
 62
7
 6
CONTINUOUS
 0
LAYER
 2
MESH_142_F0
 70
64
 62
7
 6
CONTINUOUS
 0
LAYER
 2
MESH_141_F0
 70
64
 62
7
 6
CONTINUOUS
 0
LAYER
 2
MESH_140_F0
 70
64
 62
7
 6
CONTINUOUS
 0
LAYER
 2
MESH_139_F0
 70
64
 62
7
 6
CONTINUOUS
 0
LAYER
 2
MESH_138_F0
 70
64
 62
7
 6
CONTINUOUS
 0
LAYER
 2
MESH_137_F0
 70
64
 62
7
 6
CONTINUOUS
 0
LAYER
 2
MESH_136_F0
 70
64
 62
7
 6
CONTINUOUS
 0
LAYER
 2
MESH_135_F0
 70
64
 62
7
 6
CONTINUOUS
 0
LAYER
 2
MESH_134_F0
 70
64
 62
7
 6
CONTINUOUS
 0
LAYER
 2
MESH_133_F0
 70
64
 62
7
 6
CONTINUOUS
 0
LAYER
 2
MESH_132_F0
 70
64
 62
7
 6
CONTINUOUS
 0
LAYER
 2
MESH_131_F0
 70
64
 62
7
 6
CONTINUOUS
 0
LAYER
 2
MESH_130_F0
 70
64
 62
7
 6
CONTINUOUS
 0
LAYER
 2
MESH_129_F0
 70
64
 62
7
 6
CONTINUOUS
 0
LAYER
 2
MESH_128_F0
 70
64
 62
7
 6
CONTINUOUS
 0
LAYER
 2
MESH_127_F0
 70
64
 62
7
 6
CONTINUOUS
 0
ENDTAB
 0
ENDSEC
 0
SECTION
 2
BLOCKS
 0
ENDSEC
 0
SECTION
 2
ENTITIES
 0
POLYLINE
 8
MESH_142_F0
 66
1
 10
0.0
 20
0.0
 30
0.0
 70
64
 71
4
 72
2
 0
VERTEX
 8
MESH_142_F0
 10
500
 20
0
 30
0
 70
192
 0
VERTEX
 8
MESH_142_F0
 10
500
 20
0
 30
-25
 70
192
 0
VERTEX
 8
MESH_142_F0
 10
-500
 20
0
 30
-25
 70
192
 0
VERTEX
 8
MESH_142_F0
 10
-500
 20
0
 30
0
 70
192
 0
VERTEX
 8
MESH_142_F0
 10
0
 20
0
 30
0
 70
128
 71
1
 72
3
 73
2
 74
2
 0
VERTEX
 8
MESH_142_F0
 10
0
 20
0
 30
0
 70
128
 71
4
 72
3
 73
1
 74
1
 0
SEQEND
 0
POLYLINE
 8
MESH_141_F0
 66
1
 10
0.0
 20
0.0
 30
0.0
 70
64
 71
4
 72
2
 0
VERTEX
 8
MESH_141_F0
 10
-500
 20
0
 30
0
 70
192
 0
VERTEX
 8
MESH_141_F0
 10
-500
 20
0
 30
-25
 70
192
 0
VERTEX
 8
MESH_141_F0
 10
-500
 20
-417
 30
-25
 70
192
 0
VERTEX
 8
MESH_141_F0
 10
-500
 20
-417
 30
0
 70
192
 0
VERTEX
 8
MESH_141_F0
 10
0
 20
0
 30
0
 70
128
 71
1
 72
3
 73
2
 74
2
 0
VERTEX
 8
MESH_141_F0
 10
0
 20
0
 30
0
 70
128
 71
4
 72
3
 73
1
 74
1
 0
SEQEND
 0
POLYLINE
 8
MESH_140_F0
 66
1
 10
0.0
 20
0.0
 30
0.0
 70
64
 71
50
 72
48
 0
VERTEX
 8
MESH_140_F0
 10
-500
 20
-417
 30
0
 70
192
 0
VERTEX
 8
MESH_140_F0
 10
-500
 20
-417
 30
-25
 70
192
 0
VERTEX
 8
MESH_140_F0
 10
-499.9462
 20
-418.5291
 30
-25
 70
192
 0
VERTEX
 8
MESH_140_F0
 10
-499.7975
 20
-420.0316
 30
-25
 70
192
 0
VERTEX
 8
MESH_140_F0
 10
-499.5532
 20
-421.5106
 30
-25
 70
192
 0
VERTEX
 8
MESH_140_F0
 10
-499.212
 20
-422.9687
 30
-25
 70
192
 0
VERTEX
 8
MESH_140_F0
 10
-498.7753
 20
-424.4023
 30
-25
 70
192
 0
VERTEX
 8
MESH_140_F0
 10
-498.2445
 20
-425.8095
 30
-25
 70
192
 0
VERTEX
 8
MESH_140_F0
 10
-497.6223
 20
-427.1821
 30
-25
 70
192
 0
VERTEX
 8
MESH_140_F0
 10
-496.9119
 20
-428.5114
 30
-25
 70
192
 0
VERTEX
 8
MESH_140_F0
 10
-496.1176
 20
-429.7876
 30
-25
 70
192
 0
VERTEX
 8
MESH_140_F0
 10
-495.2422
 20
-431.0079
 30
-25
 70
192
 0
VERTEX
 8
MESH_140_F0
 10
-494.2896
 20
-432.1679
 30
-25
 70
192
 0
VERTEX
 8
MESH_140_F0
 10
-493.2636
 20
-433.2631
 30
-25
 70
192
 0
VERTEX
 8
MESH_140_F0
 10
-492.1685
 20
-434.289
 30
-25
 70
192
 0
VERTEX
 8
MESH_140_F0
 10
-491.0086
 20
-435.2417
 30
-25
 70
192
 0
VERTEX
 8
MESH_140_F0
 10
-489.7883
 20
-436.1172
 30
-25
 70
192
 0
VERTEX
 8
MESH_140_F0
 10
-488.512
 20
-436.9115
 30
-25
 70
192
 0
VERTEX
 8
MESH_140_F0
 10
-487.1826
 20
-437.6221
 30
-25
 70
192
 0
VERTEX
 8
MESH_140_F0
 10
-485.8101
 20
-438.2443
 30
-25
 70
192
 0
VERTEX
 8
MESH_140_F0
 10
-484.4027
 20
-438.7751
 30
-25
 70
192
 0
VERTEX
 8
MESH_140_F0
 10
-482.9691
 20
-439.2119
 30
-25
 70
192
 0
VERTEX
 8
MESH_140_F0
 10
-481.5109
 20
-439.5531
 30
-25
 70
192
 0
VERTEX
 8
MESH_140_F0
 10
-480.0318
 20
-439.7975
 30
-25
 70
192
 0
VERTEX
 8
MESH_140_F0
 10
-478.5292
 20
-439.9462
 30
-25
 70
192
 0
VERTEX
 8
MESH_140_F0
 10
-477
 20
-440
 30
-25
 70
192
 0
VERTEX
 8
MESH_140_F0
 10
-477
 20
-440
 30
0
 70
192
 0
VERTEX
 8
MESH_140_F0
 10
-478.5291
 20
-439.9462
 30
0
 70
192
 0
VERTEX
 8
MESH_140_F0
 10
-480.0316
 20
-439.7976
 30
0
 70
192
 0
VERTEX
 8
MESH_140_F0
 10
-481.5105
 20
-439.5532
 30
0
 70
192
 0
VERTEX
 8
MESH_140_F0
 10
-482.9686
 20
-439.212
 30
0
 70
192
 0
VERTEX
 8
MESH_140_F0
 10
-484.4022
 20
-438.7753
 30
0
 70
192
 0
VERTEX
 8
MESH_140_F0
 10
-485.8095
 20
-438.2445
 30
0
 70
192
 0
VERTEX
 8
MESH_140_F0
 10
-487.182
 20
-437.6224
 30
0
 70
192
 0
VERTEX
 8
MESH_140_F0
 10
-488.5114
 20
-436.9119
 30
0
 70
192
 0
VERTEX
 8
MESH_140_F0
 10
-489.7876
 20
-436.1176
 30
0
 70
192
 0
VERTEX
 8
MESH_140_F0
 10
-491.008
 20
-435.2422
 30
0
 70
192
 0
VERTEX
 8
MESH_140_F0
 10
-492.1679
 20
-434.2896
 30
0
 70
192
 0
VERTEX
 8
MESH_140_F0
 10
-493.2631
 20
-433.2637
 30
0
 70
192
 0
VERTEX
 8
MESH_140_F0
 10
-494.289
 20
-432.1685
 30
0
 70
192
 0
VERTEX
 8
MESH_140_F0
 10
-495.2417
 20
-431.0086
 30
0
 70
192
 0
VERTEX
 8
MESH_140_F0
 10
-496.1172
 20
-429.7882
 30
0
 70
192
 0
VERTEX
 8
MESH_140_F0
 10
-496.9115
 20
-428.512
 30
0
 70
192
 0
VERTEX
 8
MESH_140_F0
 10
-497.622
 20
-427.1826
 30
0
 70
192
 0
VERTEX
 8
MESH_140_F0
 10
-498.2442
 20
-425.8101
 30
0
 70
192
 0
VERTEX
 8
MESH_140_F0
 10
-498.7752
 20
-424.4027
 30
0
 70
192
 0
VERTEX
 8
MESH_140_F0
 10
-499.2119
 20
-422.9691
 30
0
 70
192
 0
VERTEX
 8
MESH_140_F0
 10
-499.5531
 20
-421.5109
 30
0
 70
192
 0
VERTEX
 8
MESH_140_F0
 10
-499.7975
 20
-420.0319
 30
0
 70
192
 0
VERTEX
 8
MESH_140_F0
 10
-499.9462
 20
-418.5291
 30
0
 70
192
 0
VERTEX
 8
MESH_140_F0
 10
0
 20
0
 30
0
 70
128
 71
1
 72
3
 73
2
 74
2
 0
VERTEX
 8
MESH_140_F0
 10
0
 20
0
 30
0
 70
128
 71
50
 72
3
 73
1
 74
1
 0
VERTEX
 8
MESH_140_F0
 10
0
 20
0
 30
0
 70
128
 71
4
 72
3
 73
50
 74
50
 0
VERTEX
 8
MESH_140_F0
 10
0
 20
0
 30
0
 70
128
 71
5
 72
4
 73
49
 74
49
 0
VERTEX
 8
MESH_140_F0
 10
0
 20
0
 30
0
 70
128
 71
6
 72
5
 73
48
 74
48
 0
VERTEX
 8
MESH_140_F0
 10
0
 20
0
 30
0
 70
128
 71
7
 72
6
 73
47
 74
47
 0
VERTEX
 8
MESH_140_F0
 10
0
 20
0
 30
0
 70
128
 71
8
 72
7
 73
46
 74
46
 0
VERTEX
 8
MESH_140_F0
 10
0
 20
0
 30
0
 70
128
 71
9
 72
8
 73
45
 74
45
 0
VERTEX
 8
MESH_140_F0
 10
0
 20
0
 30
0
 70
128
 71
10
 72
9
 73
44
 74
44
 0
VERTEX
 8
MESH_140_F0
 10
0
 20
0
 30
0
 70
128
 71
11
 72
10
 73
43
 74
43
 0
VERTEX
 8
MESH_140_F0
 10
0
 20
0
 30
0
 70
128
 71
12
 72
11
 73
42
 74
42
 0
VERTEX
 8
MESH_140_F0
 10
0
 20
0
 30
0
 70
128
 71
13
 72
12
 73
41
 74
41
 0
VERTEX
 8
MESH_140_F0
 10
0
 20
0
 30
0
 70
128
 71
14
 72
13
 73
40
 74
40
 0
VERTEX
 8
MESH_140_F0
 10
0
 20
0
 30
0
 70
128
 71
15
 72
14
 73
39
 74
39
 0
VERTEX
 8
MESH_140_F0
 10
0
 20
0
 30
0
 70
128
 71
16
 72
15
 73
38
 74
38
 0
VERTEX
 8
MESH_140_F0
 10
0
 20
0
 30
0
 70
128
 71
17
 72
16
 73
37
 74
37
 0
VERTEX
 8
MESH_140_F0
 10
0
 20
0
 30
0
 70
128
 71
18
 72
17
 73
36
 74
36
 0
VERTEX
 8
MESH_140_F0
 10
0
 20
0
 30
0
 70
128
 71
19
 72
18
 73
35
 74
35
 0
VERTEX
 8
MESH_140_F0
 10
0
 20
0
 30
0
 70
128
 71
20
 72
19
 73
34
 74
34
 0
VERTEX
 8
MESH_140_F0
 10
0
 20
0
 30
0
 70
128
 71
21
 72
20
 73
33
 74
33
 0
VERTEX
 8
MESH_140_F0
 10
0
 20
0
 30
0
 70
128
 71
22
 72
21
 73
32
 74
32
 0
VERTEX
 8
MESH_140_F0
 10
0
 20
0
 30
0
 70
128
 71
23
 72
22
 73
31
 74
31
 0
VERTEX
 8
MESH_140_F0
 10
0
 20
0
 30
0
 70
128
 71
24
 72
23
 73
30
 74
30
 0
VERTEX
 8
MESH_140_F0
 10
0
 20
0
 30
0
 70
128
 71
25
 72
24
 73
29
 74
29
 0
VERTEX
 8
MESH_140_F0
 10
0
 20
0
 30
0
 70
128
 71
27
 72
25
 73
28
 74
28
 0
VERTEX
 8
MESH_140_F0
 10
0
 20
0
 30
0
 70
128
 71
25
 72
29
 73
28
 74
28
 0
VERTEX
 8
MESH_140_F0
 10
0
 20
0
 30
0
 70
128
 71
27
 72
26
 73
25
 74
25
 0
VERTEX
 8
MESH_140_F0
 10
0
 20
0
 30
0
 70
128
 71
24
 72
30
 73
29
 74
29
 0
VERTEX
 8
MESH_140_F0
 10
0
 20
0
 30
0
 70
128
 71
23
 72
31
 73
30
 74
30
 0
VERTEX
 8
MESH_140_F0
 10
0
 20
0
 30
0
 70
128
 71
22
 72
32
 73
31
 74
31
 0
VERTEX
 8
MESH_140_F0
 10
0
 20
0
 30
0
 70
128
 71
21
 72
33
 73
32
 74
32
 0
VERTEX
 8
MESH_140_F0
 10
0
 20
0
 30
0
 70
128
 71
20
 72
34
 73
33
 74
33
 0
VERTEX
 8
MESH_140_F0
 10
0
 20
0
 30
0
 70
128
 71
19
 72
35
 73
34
 74
34
 0
VERTEX
 8
MESH_140_F0
 10
0
 20
0
 30
0
 70
128
 71
18
 72
36
 73
35
 74
35
 0
VERTEX
 8
MESH_140_F0
 10
0
 20
0
 30
0
 70
128
 71
17
 72
37
 73
36
 74
36
 0
VERTEX
 8
MESH_140_F0
 10
0
 20
0
 30
0
 70
128
 71
16
 72
38
 73
37
 74
37
 0
VERTEX
 8
MESH_140_F0
 10
0
 20
0
 30
0
 70
128
 71
15
 72
39
 73
38
 74
38
 0
VERTEX
 8
MESH_140_F0
 10
0
 20
0
 30
0
 70
128
 71
14
 72
40
 73
39
 74
39
 0
VERTEX
 8
MESH_140_F0
 10
0
 20
0
 30
0
 70
128
 71
13
 72
41
 73
40
 74
40
 0
VERTEX
 8
MESH_140_F0
 10
0
 20
0
 30
0
 70
128
 71
12
 72
42
 73
41
 74
41
 0
VERTEX
 8
MESH_140_F0
 10
0
 20
0
 30
0
 70
128
 71
11
 72
43
 73
42
 74
42
 0
VERTEX
 8
MESH_140_F0
 10
0
 20
0
 30
0
 70
128
 71
10
 72
44
 73
43
 74
43
 0
VERTEX
 8
MESH_140_F0
 10
0
 20
0
 30
0
 70
128
 71
9
 72
45
 73
44
 74
44
 0
VERTEX
 8
MESH_140_F0
 10
0
 20
0
 30
0
 70
128
 71
8
 72
46
 73
45
 74
45
 0
VERTEX
 8
MESH_140_F0
 10
0
 20
0
 30
0
 70
128
 71
7
 72
47
 73
46
 74
46
 0
VERTEX
 8
MESH_140_F0
 10
0
 20
0
 30
0
 70
128
 71
6
 72
48
 73
47
 74
47
 0
VERTEX
 8
MESH_140_F0
 10
0
 20
0
 30
0
 70
128
 71
5
 72
49
 73
48
 74
48
 0
VERTEX
 8
MESH_140_F0
 10
0
 20
0
 30
0
 70
128
 71
4
 72
50
 73
49
 74
49
 0
SEQEND
 0
POLYLINE
 8
MESH_139_F0
 66
1
 10
0.0
 20
0.0
 30
0.0
 70
64
 71
4
 72
2
 0
VERTEX
 8
MESH_139_F0
 10
-477
 20
-440
 30
0
 70
192
 0
VERTEX
 8
MESH_139_F0
 10
-477
 20
-440
 30
-25
 70
192
 0
VERTEX
 8
MESH_139_F0
 10
477
 20
-440
 30
-25
 70
192
 0
VERTEX
 8
MESH_139_F0
 10
477
 20
-440
 30
0
 70
192
 0
VERTEX
 8
MESH_139_F0
 10
0
 20
0
 30
0
 70
128
 71
1
 72
3
 73
2
 74
2
 0
VERTEX
 8
MESH_139_F0
 10
0
 20
0
 30
0
 70
128
 71
4
 72
3
 73
1
 74
1
 0
SEQEND
 0
POLYLINE
 8
MESH_138_F0
 66
1
 10
0.0
 20
0.0
 30
0.0
 70
64
 71
50
 72
48
 0
VERTEX
 8
MESH_138_F0
 10
477
 20
-440
 30
0
 70
192
 0
VERTEX
 8
MESH_138_F0
 10
477
 20
-440
 30
-25
 70
192
 0
VERTEX
 8
MESH_138_F0
 10
478.5291
 20
-439.9462
 30
-25
 70
192
 0
VERTEX
 8
MESH_138_F0
 10
480.0316
 20
-439.7976
 30
-25
 70
192
 0
VERTEX
 8
MESH_138_F0
 10
481.5105
 20
-439.5532
 30
-25
 70
192
 0
VERTEX
 8
MESH_138_F0
 10
482.9686
 20
-439.212
 30
-25
 70
192
 0
VERTEX
 8
MESH_138_F0
 10
484.4022
 20
-438.7753
 30
-25
 70
192
 0
VERTEX
 8
MESH_138_F0
 10
485.8095
 20
-438.2445
 30
-25
 70
192
 0
VERTEX
 8
MESH_138_F0
 10
487.182
 20
-437.6224
 30
-25
 70
192
 0
VERTEX
 8
MESH_138_F0
 10
488.5114
 20
-436.9119
 30
-25
 70
192
 0
VERTEX
 8
MESH_138_F0
 10
489.7876
 20
-436.1176
 30
-25
 70
192
 0
VERTEX
 8
MESH_138_F0
 10
491.008
 20
-435.2422
 30
-25
 70
192
 0
VERTEX
 8
MESH_138_F0
 10
492.1679
 20
-434.2896
 30
-25
 70
192
 0
VERTEX
 8
MESH_138_F0
 10
493.2631
 20
-433.2637
 30
-25
 70
192
 0
VERTEX
 8
MESH_138_F0
 10
494.289
 20
-432.1685
 30
-25
 70
192
 0
VERTEX
 8
MESH_138_F0
 10
495.2417
 20
-431.0086
 30
-25
 70
192
 0
VERTEX
 8
MESH_138_F0
 10
496.1172
 20
-429.7882
 30
-25
 70
192
 0
VERTEX
 8
MESH_138_F0
 10
496.9115
 20
-428.512
 30
-25
 70
192
 0
VERTEX
 8
MESH_138_F0
 10
497.622
 20
-427.1826
 30
-25
 70
192
 0
VERTEX
 8
MESH_138_F0
 10
498.2442
 20
-425.8101
 30
-25
 70
192
 0
VERTEX
 8
MESH_138_F0
 10
498.7752
 20
-424.4027
 30
-25
 70
192
 0
VERTEX
 8
MESH_138_F0
 10
499.2119
 20
-422.9691
 30
-25
 70
192
 0
VERTEX
 8
MESH_138_F0
 10
499.5531
 20
-421.5109
 30
-25
 70
192
 0
VERTEX
 8
MESH_138_F0
 10
499.7975
 20
-420.0319
 30
-25
 70
192
 0
VERTEX
 8
MESH_138_F0
 10
499.9462
 20
-418.5291
 30
-25
 70
192
 0
VERTEX
 8
MESH_138_F0
 10
500
 20
-417
 30
-25
 70
192
 0
VERTEX
 8
MESH_138_F0
 10
500
 20
-417
 30
0
 70
192
 0
VERTEX
 8
MESH_138_F0
 10
499.9462
 20
-418.5291
 30
0
 70
192
 0
VERTEX
 8
MESH_138_F0
 10
499.7975
 20
-420.0316
 30
0
 70
192
 0
VERTEX
 8
MESH_138_F0
 10
499.5532
 20
-421.5106
 30
0
 70
192
 0
VERTEX
 8
MESH_138_F0
 10
499.212
 20
-422.9687
 30
0
 70
192
 0
VERTEX
 8
MESH_138_F0
 10
498.7753
 20
-424.4023
 30
0
 70
192
 0
VERTEX
 8
MESH_138_F0
 10
498.2445
 20
-425.8095
 30
0
 70
192
 0
VERTEX
 8
MESH_138_F0
 10
497.6223
 20
-427.1821
 30
0
 70
192
 0
VERTEX
 8
MESH_138_F0
 10
496.9119
 20
-428.5114
 30
0
 70
192
 0
VERTEX
 8
MESH_138_F0
 10
496.1176
 20
-429.7876
 30
0
 70
192
 0
VERTEX
 8
MESH_138_F0
 10
495.2422
 20
-431.0079
 30
0
 70
192
 0
VERTEX
 8
MESH_138_F0
 10
494.2896
 20
-432.1679
 30
0
 70
192
 0
VERTEX
 8
MESH_138_F0
 10
493.2636
 20
-433.2631
 30
0
 70
192
 0
VERTEX
 8
MESH_138_F0
 10
492.1685
 20
-434.289
 30
0
 70
192
 0
VERTEX
 8
MESH_138_F0
 10
491.0086
 20
-435.2417
 30
0
 70
192
 0
VERTEX
 8
MESH_138_F0
 10
489.7883
 20
-436.1172
 30
0
 70
192
 0
VERTEX
 8
MESH_138_F0
 10
488.512
 20
-436.9115
 30
0
 70
192
 0
VERTEX
 8
MESH_138_F0
 10
487.1826
 20
-437.6221
 30
0
 70
192
 0
VERTEX
 8
MESH_138_F0
 10
485.8101
 20
-438.2443
 30
0
 70
192
 0
VERTEX
 8
MESH_138_F0
 10
484.4027
 20
-438.7751
 30
0
 70
192
 0
VERTEX
 8
MESH_138_F0
 10
482.9691
 20
-439.2119
 30
0
 70
192
 0
VERTEX
 8
MESH_138_F0
 10
481.5109
 20
-439.5531
 30
0
 70
192
 0
VERTEX
 8
MESH_138_F0
 10
480.0318
 20
-439.7975
 30
0
 70
192
 0
VERTEX
 8
MESH_138_F0
 10
478.5292
 20
-439.9462
 30
0
 70
192
 0
VERTEX
 8
MESH_138_F0
 10
0
 20
0
 30
0
 70
128
 71
1
 72
3
 73
2
 74
2
 0
VERTEX
 8
MESH_138_F0
 10
0
 20
0
 30
0
 70
128
 71
50
 72
3
 73
1
 74
1
 0
VERTEX
 8
MESH_138_F0
 10
0
 20
0
 30
0
 70
128
 71
4
 72
3
 73
50
 74
50
 0
VERTEX
 8
MESH_138_F0
 10
0
 20
0
 30
0
 70
128
 71
5
 72
4
 73
49
 74
49
 0
VERTEX
 8
MESH_138_F0
 10
0
 20
0
 30
0
 70
128
 71
6
 72
5
 73
48
 74
48
 0
VERTEX
 8
MESH_138_F0
 10
0
 20
0
 30
0
 70
128
 71
7
 72
6
 73
47
 74
47
 0
VERTEX
 8
MESH_138_F0
 10
0
 20
0
 30
0
 70
128
 71
8
 72
7
 73
46
 74
46
 0
VERTEX
 8
MESH_138_F0
 10
0
 20
0
 30
0
 70
128
 71
9
 72
8
 73
45
 74
45
 0
VERTEX
 8
MESH_138_F0
 10
0
 20
0
 30
0
 70
128
 71
10
 72
9
 73
44
 74
44
 0
VERTEX
 8
MESH_138_F0
 10
0
 20
0
 30
0
 70
128
 71
11
 72
10
 73
43
 74
43
 0
VERTEX
 8
MESH_138_F0
 10
0
 20
0
 30
0
 70
128
 71
12
 72
11
 73
42
 74
42
 0
VERTEX
 8
MESH_138_F0
 10
0
 20
0
 30
0
 70
128
 71
13
 72
12
 73
41
 74
41
 0
VERTEX
 8
MESH_138_F0
 10
0
 20
0
 30
0
 70
128
 71
14
 72
13
 73
40
 74
40
 0
VERTEX
 8
MESH_138_F0
 10
0
 20
0
 30
0
 70
128
 71
15
 72
14
 73
39
 74
39
 0
VERTEX
 8
MESH_138_F0
 10
0
 20
0
 30
0
 70
128
 71
16
 72
15
 73
38
 74
38
 0
VERTEX
 8
MESH_138_F0
 10
0
 20
0
 30
0
 70
128
 71
17
 72
16
 73
37
 74
37
 0
VERTEX
 8
MESH_138_F0
 10
0
 20
0
 30
0
 70
128
 71
18
 72
17
 73
36
 74
36
 0
VERTEX
 8
MESH_138_F0
 10
0
 20
0
 30
0
 70
128
 71
19
 72
18
 73
35
 74
35
 0
VERTEX
 8
MESH_138_F0
 10
0
 20
0
 30
0
 70
128
 71
20
 72
19
 73
34
 74
34
 0
VERTEX
 8
MESH_138_F0
 10
0
 20
0
 30
0
 70
128
 71
21
 72
20
 73
33
 74
33
 0
VERTEX
 8
MESH_138_F0
 10
0
 20
0
 30
0
 70
128
 71
22
 72
21
 73
32
 74
32
 0
VERTEX
 8
MESH_138_F0
 10
0
 20
0
 30
0
 70
128
 71
23
 72
22
 73
31
 74
31
 0
VERTEX
 8
MESH_138_F0
 10
0
 20
0
 30
0
 70
128
 71
24
 72
23
 73
30
 74
30
 0
VERTEX
 8
MESH_138_F0
 10
0
 20
0
 30
0
 70
128
 71
25
 72
24
 73
29
 74
29
 0
VERTEX
 8
MESH_138_F0
 10
0
 20
0
 30
0
 70
128
 71
27
 72
25
 73
28
 74
28
 0
VERTEX
 8
MESH_138_F0
 10
0
 20
0
 30
0
 70
128
 71
25
 72
29
 73
28
 74
28
 0
VERTEX
 8
MESH_138_F0
 10
0
 20
0
 30
0
 70
128
 71
27
 72
26
 73
25
 74
25
 0
VERTEX
 8
MESH_138_F0
 10
0
 20
0
 30
0
 70
128
 71
24
 72
30
 73
29
 74
29
 0
VERTEX
 8
MESH_138_F0
 10
0
 20
0
 30
0
 70
128
 71
23
 72
31
 73
30
 74
30
 0
VERTEX
 8
MESH_138_F0
 10
0
 20
0
 30
0
 70
128
 71
22
 72
32
 73
31
 74
31
 0
VERTEX
 8
MESH_138_F0
 10
0
 20
0
 30
0
 70
128
 71
21
 72
33
 73
32
 74
32
 0
VERTEX
 8
MESH_138_F0
 10
0
 20
0
 30
0
 70
128
 71
20
 72
34
 73
33
 74
33
 0
VERTEX
 8
MESH_138_F0
 10
0
 20
0
 30
0
 70
128
 71
19
 72
35
 73
34
 74
34
 0
VERTEX
 8
MESH_138_F0
 10
0
 20
0
 30
0
 70
128
 71
18
 72
36
 73
35
 74
35
 0
VERTEX
 8
MESH_138_F0
 10
0
 20
0
 30
0
 70
128
 71
17
 72
37
 73
36
 74
36
 0
VERTEX
 8
MESH_138_F0
 10
0
 20
0
 30
0
 70
128
 71
16
 72
38
 73
37
 74
37
 0
VERTEX
 8
MESH_138_F0
 10
0
 20
0
 30
0
 70
128
 71
15
 72
39
 73
38
 74
38
 0
VERTEX
 8
MESH_138_F0
 10
0
 20
0
 30
0
 70
128
 71
14
 72
40
 73
39
 74
39
 0
VERTEX
 8
MESH_138_F0
 10
0
 20
0
 30
0
 70
128
 71
13
 72
41
 73
40
 74
40
 0
VERTEX
 8
MESH_138_F0
 10
0
 20
0
 30
0
 70
128
 71
12
 72
42
 73
41
 74
41
 0
VERTEX
 8
MESH_138_F0
 10
0
 20
0
 30
0
 70
128
 71
11
 72
43
 73
42
 74
42
 0
VERTEX
 8
MESH_138_F0
 10
0
 20
0
 30
0
 70
128
 71
10
 72
44
 73
43
 74
43
 0
VERTEX
 8
MESH_138_F0
 10
0
 20
0
 30
0
 70
128
 71
9
 72
45
 73
44
 74
44
 0
VERTEX
 8
MESH_138_F0
 10
0
 20
0
 30
0
 70
128
 71
8
 72
46
 73
45
 74
45
 0
VERTEX
 8
MESH_138_F0
 10
0
 20
0
 30
0
 70
128
 71
7
 72
47
 73
46
 74
46
 0
VERTEX
 8
MESH_138_F0
 10
0
 20
0
 30
0
 70
128
 71
6
 72
48
 73
47
 74
47
 0
VERTEX
 8
MESH_138_F0
 10
0
 20
0
 30
0
 70
128
 71
5
 72
49
 73
48
 74
48
 0
VERTEX
 8
MESH_138_F0
 10
0
 20
0
 30
0
 70
128
 71
4
 72
50
 73
49
 74
49
 0
SEQEND
 0
POLYLINE
 8
MESH_137_F0
 66
1
 10
0.0
 20
0.0
 30
0.0
 70
64
 71
4
 72
2
 0
VERTEX
 8
MESH_137_F0
 10
500
 20
-417
 30
0
 70
192
 0
VERTEX
 8
MESH_137_F0
 10
500
 20
-417
 30
-25
 70
192
 0
VERTEX
 8
MESH_137_F0
 10
500
 20
0
 30
-25
 70
192
 0
VERTEX
 8
MESH_137_F0
 10
500
 20
0
 30
0
 70
192
 0
VERTEX
 8
MESH_137_F0
 10
0
 20
0
 30
0
 70
128
 71
1
 72
3
 73
2
 74
2
 0
VERTEX
 8
MESH_137_F0
 10
0
 20
0
 30
0
 70
128
 71
4
 72
3
 73
1
 74
1
 0
SEQEND
 0
POLYLINE
 8
MESH_136_F0
 66
1
 10
0.0
 20
0.0
 30
0.0
 70
64
 71
152
 72
152
 0
VERTEX
 8
MESH_136_F0
 10
-60
 20
-309
 30
-25
 70
192
 0
VERTEX
 8
MESH_136_F0
 10
-59.9415
 20
-310.6621
 30
-25
 70
192
 0
VERTEX
 8
MESH_136_F0
 10
-59.7799
 20
-312.2955
 30
-25
 70
192
 0
VERTEX
 8
MESH_136_F0
 10
-59.5142
 20
-313.9031
 30
-25
 70
192
 0
VERTEX
 8
MESH_136_F0
 10
-59.1434
 20
-315.4881
 30
-25
 70
192
 0
VERTEX
 8
MESH_136_F0
 10
-58.6687
 20
-317.0464
 30
-25
 70
192
 0
VERTEX
 8
MESH_136_F0
 10
-58.0916
 20
-318.5761
 30
-25
 70
192
 0
VERTEX
 8
MESH_136_F0
 10
-57.4153
 20
-320.0681
 30
-25
 70
192
 0
VERTEX
 8
MESH_136_F0
 10
-56.643
 20
-321.5131
 30
-25
 70
192
 0
VERTEX
 8
MESH_136_F0
 10
-55.7796
 20
-322.9003
 30
-25
 70
192
 0
VERTEX
 8
MESH_136_F0
 10
-54.828
 20
-324.2267
 30
-25
 70
192
 0
VERTEX
 8
MESH_136_F0
 10
-53.7924
 20
-325.4875
 30
-25
 70
192
 0
VERTEX
 8
MESH_136_F0
 10
-52.6773
 20
-326.6779
 30
-25
 70
192
 0
VERTEX
 8
MESH_136_F0
 10
-51.4869
 20
-327.793
 30
-25
 70
192
 0
VERTEX
 8
MESH_136_F0
 10
-50.2261
 20
-328.8285
 30
-25
 70
192
 0
VERTEX
 8
MESH_136_F0
 10
-48.8996
 20
-329.78
 30
-25
 70
192
 0
VERTEX
 8
MESH_136_F0
 10
-47.5124
 20
-330.6433
 30
-25
 70
192
 0
VERTEX
 8
MESH_136_F0
 10
-46.0674
 20
-331.4156
 30
-25
 70
192
 0
VERTEX
 8
MESH_136_F0
 10
-44.5756
 20
-332.0918
 30
-25
 70
192
 0
VERTEX
 8
MESH_136_F0
 10
-43.0459
 20
-332.6688
 30
-25
 70
192
 0
VERTEX
 8
MESH_136_F0
 10
-41.4876
 20
-333.1435
 30
-25
 70
192
 0
VERTEX
 8
MESH_136_F0
 10
-39.9028
 20
-333.5143
 30
-25
 70
192
 0
VERTEX
 8
MESH_136_F0
 10
-38.2952
 20
-333.78
 30
-25
 70
192
 0
VERTEX
 8
MESH_136_F0
 10
-36.662
 20
-333.9415
 30
-25
 70
192
 0
VERTEX
 8
MESH_136_F0
 10
-35
 20
-334
 30
-25
 70
192
 0
VERTEX
 8
MESH_136_F0
 10
35
 20
-334
 30
-25
 70
192
 0
VERTEX
 8
MESH_136_F0
 10
36.6621
 20
-333.9415
 30
-25
 70
192
 0
VERTEX
 8
MESH_136_F0
 10
38.2955
 20
-333.7799
 30
-25
 70
192
 0
VERTEX
 8
MESH_136_F0
 10
39.9031
 20
-333.5142
 30
-25
 70
192
 0
VERTEX
 8
MESH_136_F0
 10
41.4881
 20
-333.1434
 30
-25
 70
192
 0
VERTEX
 8
MESH_136_F0
 10
43.0464
 20
-332.6687
 30
-25
 70
192
 0
VERTEX
 8
MESH_136_F0
 10
44.5762
 20
-332.0916
 30
-25
 70
192
 0
VERTEX
 8
MESH_136_F0
 10
46.0681
 20
-331.4153
 30
-25
 70
192
 0
VERTEX
 8
MESH_136_F0
 10
47.5131
 20
-330.643
 30
-25
 70
192
 0
VERTEX
 8
MESH_136_F0
 10
48.9003
 20
-329.7796
 30
-25
 70
192
 0
VERTEX
 8
MESH_136_F0
 10
50.2267
 20
-328.828
 30
-25
 70
192
 0
VERTEX
 8
MESH_136_F0
 10
51.4875
 20
-327.7924
 30
-25
 70
192
 0
VERTEX
 8
MESH_136_F0
 10
52.6779
 20
-326.6773
 30
-25
 70
192
 0
VERTEX
 8
MESH_136_F0
 10
53.793
 20
-325.4869
 30
-25
 70
192
 0
VERTEX
 8
MESH_136_F0
 10
54.8285
 20
-324.226
 30
-25
 70
192
 0
VERTEX
 8
MESH_136_F0
 10
55.78
 20
-322.8996
 30
-25
 70
192
 0
VERTEX
 8
MESH_136_F0
 10
56.6434
 20
-321.5124
 30
-25
 70
192
 0
VERTEX
 8
MESH_136_F0
 10
57.4156
 20
-320.0674
 30
-25
 70
192
 0
VERTEX
 8
MESH_136_F0
 10
58.0918
 20
-318.5756
 30
-25
 70
192
 0
VERTEX
 8
MESH_136_F0
 10
58.6688
 20
-317.0459
 30
-25
 70
192
 0
VERTEX
 8
MESH_136_F0
 10
59.1435
 20
-315.4876
 30
-25
 70
192
 0
VERTEX
 8
MESH_136_F0
 10
59.5143
 20
-313.9028
 30
-25
 70
192
 0
VERTEX
 8
MESH_136_F0
 10
59.78
 20
-312.2953
 30
-25
 70
192
 0
VERTEX
 8
MESH_136_F0
 10
59.9415
 20
-310.662
 30
-25
 70
192
 0
VERTEX
 8
MESH_136_F0
 10
60
 20
-309
 30
-25
 70
192
 0
VERTEX
 8
MESH_136_F0
 10
60
 20
-131
 30
-25
 70
192
 0
VERTEX
 8
MESH_136_F0
 10
59.9415
 20
-129.3378
 30
-25
 70
192
 0
VERTEX
 8
MESH_136_F0
 10
59.7799
 20
-127.7045
 30
-25
 70
192
 0
VERTEX
 8
MESH_136_F0
 10
59.5142
 20
-126.0969
 30
-25
 70
192
 0
VERTEX
 8
MESH_136_F0
 10
59.1434
 20
-124.5119
 30
-25
 70
192
 0
VERTEX
 8
MESH_136_F0
 10
58.6687
 20
-122.9536
 30
-25
 70
192
 0
VERTEX
 8
MESH_136_F0
 10
58.0916
 20
-121.4239
 30
-25
 70
192
 0
VERTEX
 8
MESH_136_F0
 10
57.4153
 20
-119.9319
 30
-25
 70
192
 0
VERTEX
 8
MESH_136_F0
 10
56.643
 20
-118.4869
 30
-25
 70
192
 0
VERTEX
 8
MESH_136_F0
 10
55.7796
 20
-117.0997
 30
-25
 70
192
 0
VERTEX
 8
MESH_136_F0
 10
54.828
 20
-115.7733
 30
-25
 70
192
 0
VERTEX
 8
MESH_136_F0
 10
53.7924
 20
-114.5125
 30
-25
 70
192
 0
VERTEX
 8
MESH_136_F0
 10
52.6773
 20
-113.3221
 30
-25
 70
192
 0
VERTEX
 8
MESH_136_F0
 10
51.4869
 20
-112.207
 30
-25
 70
192
 0
VERTEX
 8
MESH_136_F0
 10
50.2261
 20
-111.1715
 30
-25
 70
192
 0
VERTEX
 8
MESH_136_F0
 10
48.8996
 20
-110.22
 30
-25
 70
192
 0
VERTEX
 8
MESH_136_F0
 10
47.5124
 20
-109.3566
 30
-25
 70
192
 0
VERTEX
 8
MESH_136_F0
 10
46.0674
 20
-108.5844
 30
-25
 70
192
 0
VERTEX
 8
MESH_136_F0
 10
44.5756
 20
-107.9082
 30
-25
 70
192
 0
VERTEX
 8
MESH_136_F0
 10
43.0459
 20
-107.3311
 30
-25
 70
192
 0
VERTEX
 8
MESH_136_F0
 10
41.4876
 20
-106.8565
 30
-25
 70
192
 0
VERTEX
 8
MESH_136_F0
 10
39.9028
 20
-106.4857
 30
-25
 70
192
 0
VERTEX
 8
MESH_136_F0
 10
38.2952
 20
-106.22
 30
-25
 70
192
 0
VERTEX
 8
MESH_136_F0
 10
36.662
 20
-106.0585
 30
-25
 70
192
 0
VERTEX
 8
MESH_136_F0
 10
35
 20
-106
 30
-25
 70
192
 0
VERTEX
 8
MESH_136_F0
 10
-35
 20
-106
 30
-25
 70
192
 0
VERTEX
 8
MESH_136_F0
 10
-36.6621
 20
-106.0585
 30
-25
 70
192
 0
VERTEX
 8
MESH_136_F0
 10
-38.2955
 20
-106.2201
 30
-25
 70
192
 0
VERTEX
 8
MESH_136_F0
 10
-39.9031
 20
-106.4858
 30
-25
 70
192
 0
VERTEX
 8
MESH_136_F0
 10
-41.4881
 20
-106.8566
 30
-25
 70
192
 0
VERTEX
 8
MESH_136_F0
 10
-43.0464
 20
-107.3313
 30
-25
 70
192
 0
VERTEX
 8
MESH_136_F0
 10
-44.5762
 20
-107.9084
 30
-25
 70
192
 0
VERTEX
 8
MESH_136_F0
 10
-46.0681
 20
-108.5847
 30
-25
 70
192
 0
VERTEX
 8
MESH_136_F0
 10
-47.5131
 20
-109.357
 30
-25
 70
192
 0
VERTEX
 8
MESH_136_F0
 10
-48.9003
 20
-110.2204
 30
-25
 70
192
 0
VERTEX
 8
MESH_136_F0
 10
-50.2267
 20
-111.172
 30
-25
 70
192
 0
VERTEX
 8
MESH_136_F0
 10
-51.4875
 20
-112.2076
 30
-25
 70
192
 0
VERTEX
 8
MESH_136_F0
 10
-52.6779
 20
-113.3227
 30
-25
 70
192
 0
VERTEX
 8
MESH_136_F0
 10
-53.793
 20
-114.5131
 30
-25
 70
192
 0
VERTEX
 8
MESH_136_F0
 10
-54.8285
 20
-115.7739
 30
-25
 70
192
 0
VERTEX
 8
MESH_136_F0
 10
-55.78
 20
-117.1004
 30
-25
 70
192
 0
VERTEX
 8
MESH_136_F0
 10
-56.6434
 20
-118.4876
 30
-25
 70
192
 0
VERTEX
 8
MESH_136_F0
 10
-57.4156
 20
-119.9325
 30
-25
 70
192
 0
VERTEX
 8
MESH_136_F0
 10
-58.0918
 20
-121.4244
 30
-25
 70
192
 0
VERTEX
 8
MESH_136_F0
 10
-58.6688
 20
-122.9541
 30
-25
 70
192
 0
VERTEX
 8
MESH_136_F0
 10
-59.1435
 20
-124.5123
 30
-25
 70
192
 0
VERTEX
 8
MESH_136_F0
 10
-59.5143
 20
-126.0972
 30
-25
 70
192
 0
VERTEX
 8
MESH_136_F0
 10
-59.78
 20
-127.7047
 30
-25
 70
192
 0
VERTEX
 8
MESH_136_F0
 10
-59.9415
 20
-129.338
 30
-25
 70
192
 0
VERTEX
 8
MESH_136_F0
 10
-60
 20
-131
 30
-25
 70
192
 0
VERTEX
 8
MESH_136_F0
 10
500
 20
0
 30
-25
 70
192
 0
VERTEX
 8
MESH_136_F0
 10
500
 20
-417
 30
-25
 70
192
 0
VERTEX
 8
MESH_136_F0
 10
499.9462
 20
-418.5291
 30
-25
 70
192
 0
VERTEX
 8
MESH_136_F0
 10
499.7975
 20
-420.0319
 30
-25
 70
192
 0
VERTEX
 8
MESH_136_F0
 10
499.5531
 20
-421.5109
 30
-25
 70
192
 0
VERTEX
 8
MESH_136_F0
 10
499.2119
 20
-422.9691
 30
-25
 70
192
 0
VERTEX
 8
MESH_136_F0
 10
498.7752
 20
-424.4027
 30
-25
 70
192
 0
VERTEX
 8
MESH_136_F0
 10
498.2442
 20
-425.8101
 30
-25
 70
192
 0
VERTEX
 8
MESH_136_F0
 10
497.622
 20
-427.1826
 30
-25
 70
192
 0
VERTEX
 8
MESH_136_F0
 10
496.9115
 20
-428.512
 30
-25
 70
192
 0
VERTEX
 8
MESH_136_F0
 10
496.1172
 20
-429.7882
 30
-25
 70
192
 0
VERTEX
 8
MESH_136_F0
 10
495.2417
 20
-431.0086
 30
-25
 70
192
 0
VERTEX
 8
MESH_136_F0
 10
494.289
 20
-432.1685
 30
-25
 70
192
 0
VERTEX
 8
MESH_136_F0
 10
493.2631
 20
-433.2637
 30
-25
 70
192
 0
VERTEX
 8
MESH_136_F0
 10
492.1679
 20
-434.2896
 30
-25
 70
192
 0
VERTEX
 8
MESH_136_F0
 10
491.008
 20
-435.2422
 30
-25
 70
192
 0
VERTEX
 8
MESH_136_F0
 10
489.7876
 20
-436.1176
 30
-25
 70
192
 0
VERTEX
 8
MESH_136_F0
 10
488.5114
 20
-436.9119
 30
-25
 70
192
 0
VERTEX
 8
MESH_136_F0
 10
487.182
 20
-437.6224
 30
-25
 70
192
 0
VERTEX
 8
MESH_136_F0
 10
485.8095
 20
-438.2445
 30
-25
 70
192
 0
VERTEX
 8
MESH_136_F0
 10
484.4022
 20
-438.7753
 30
-25
 70
192
 0
VERTEX
 8
MESH_136_F0
 10
482.9686
 20
-439.212
 30
-25
 70
192
 0
VERTEX
 8
MESH_136_F0
 10
481.5105
 20
-439.5532
 30
-25
 70
192
 0
VERTEX
 8
MESH_136_F0
 10
480.0316
 20
-439.7976
 30
-25
 70
192
 0
VERTEX
 8
MESH_136_F0
 10
478.5291
 20
-439.9462
 30
-25
 70
192
 0
VERTEX
 8
MESH_136_F0
 10
477
 20
-440
 30
-25
 70
192
 0
VERTEX
 8
MESH_136_F0
 10
-477
 20
-440
 30
-25
 70
192
 0
VERTEX
 8
MESH_136_F0
 10
-478.5292
 20
-439.9462
 30
-25
 70
192
 0
VERTEX
 8
MESH_136_F0
 10
-480.0318
 20
-439.7975
 30
-25
 70
192
 0
VERTEX
 8
MESH_136_F0
 10
-481.5109
 20
-439.5531
 30
-25
 70
192
 0
VERTEX
 8
MESH_136_F0
 10
-482.9691
 20
-439.2119
 30
-25
 70
192
 0
VERTEX
 8
MESH_136_F0
 10
-484.4027
 20
-438.7751
 30
-25
 70
192
 0
VERTEX
 8
MESH_136_F0
 10
-485.8101
 20
-438.2443
 30
-25
 70
192
 0
VERTEX
 8
MESH_136_F0
 10
-487.1826
 20
-437.6221
 30
-25
 70
192
 0
VERTEX
 8
MESH_136_F0
 10
-488.512
 20
-436.9115
 30
-25
 70
192
 0
VERTEX
 8
MESH_136_F0
 10
-489.7883
 20
-436.1172
 30
-25
 70
192
 0
VERTEX
 8
MESH_136_F0
 10
-491.0086
 20
-435.2417
 30
-25
 70
192
 0
VERTEX
 8
MESH_136_F0
 10
-492.1685
 20
-434.289
 30
-25
 70
192
 0
VERTEX
 8
MESH_136_F0
 10
-493.2636
 20
-433.2631
 30
-25
 70
192
 0
VERTEX
 8
MESH_136_F0
 10
-494.2896
 20
-432.1679
 30
-25
 70
192
 0
VERTEX
 8
MESH_136_F0
 10
-495.2422
 20
-431.0079
 30
-25
 70
192
 0
VERTEX
 8
MESH_136_F0
 10
-496.1176
 20
-429.7876
 30
-25
 70
192
 0
VERTEX
 8
MESH_136_F0
 10
-496.9119
 20
-428.5114
 30
-25
 70
192
 0
VERTEX
 8
MESH_136_F0
 10
-497.6223
 20
-427.1821
 30
-25
 70
192
 0
VERTEX
 8
MESH_136_F0
 10
-498.2445
 20
-425.8095
 30
-25
 70
192
 0
VERTEX
 8
MESH_136_F0
 10
-498.7753
 20
-424.4023
 30
-25
 70
192
 0
VERTEX
 8
MESH_136_F0
 10
-499.212
 20
-422.9687
 30
-25
 70
192
 0
VERTEX
 8
MESH_136_F0
 10
-499.5532
 20
-421.5106
 30
-25
 70
192
 0
VERTEX
 8
MESH_136_F0
 10
-499.7975
 20
-420.0316
 30
-25
 70
192
 0
VERTEX
 8
MESH_136_F0
 10
-499.9462
 20
-418.5291
 30
-25
 70
192
 0
VERTEX
 8
MESH_136_F0
 10
-500
 20
-417
 30
-25
 70
192
 0
VERTEX
 8
MESH_136_F0
 10
-500
 20
0
 30
-25
 70
192
 0
VERTEX
 8
MESH_136_F0
 10
0
 20
0
 30
0
 70
128
 71
1
 72
127
 73
2
 74
2
 0
VERTEX
 8
MESH_136_F0
 10
0
 20
0
 30
0
 70
128
 71
127
 72
3
 73
2
 74
2
 0
VERTEX
 8
MESH_136_F0
 10
0
 20
0
 30
0
 70
128
 71
4
 72
3
 73
127
 74
127
 0
VERTEX
 8
MESH_136_F0
 10
0
 20
0
 30
0
 70
128
 71
4
 72
127
 73
5
 74
5
 0
VERTEX
 8
MESH_136_F0
 10
0
 20
0
 30
0
 70
128
 71
127
 72
6
 73
5
 74
5
 0
VERTEX
 8
MESH_136_F0
 10
0
 20
0
 30
0
 70
128
 71
7
 72
6
 73
127
 74
127
 0
VERTEX
 8
MESH_136_F0
 10
0
 20
0
 30
0
 70
128
 71
7
 72
127
 73
8
 74
8
 0
VERTEX
 8
MESH_136_F0
 10
0
 20
0
 30
0
 70
128
 71
127
 72
9
 73
8
 74
8
 0
VERTEX
 8
MESH_136_F0
 10
0
 20
0
 30
0
 70
128
 71
10
 72
9
 73
127
 74
127
 0
VERTEX
 8
MESH_136_F0
 10
0
 20
0
 30
0
 70
128
 71
10
 72
127
 73
11
 74
11
 0
VERTEX
 8
MESH_136_F0
 10
0
 20
0
 30
0
 70
128
 71
127
 72
12
 73
11
 74
11
 0
VERTEX
 8
MESH_136_F0
 10
0
 20
0
 30
0
 70
128
 71
13
 72
12
 73
127
 74
127
 0
VERTEX
 8
MESH_136_F0
 10
0
 20
0
 30
0
 70
128
 71
13
 72
127
 73
14
 74
14
 0
VERTEX
 8
MESH_136_F0
 10
0
 20
0
 30
0
 70
128
 71
127
 72
15
 73
14
 74
14
 0
VERTEX
 8
MESH_136_F0
 10
0
 20
0
 30
0
 70
128
 71
16
 72
15
 73
127
 74
127
 0
VERTEX
 8
MESH_136_F0
 10
0
 20
0
 30
0
 70
128
 71
16
 72
127
 73
17
 74
17
 0
VERTEX
 8
MESH_136_F0
 10
0
 20
0
 30
0
 70
128
 71
127
 72
18
 73
17
 74
17
 0
VERTEX
 8
MESH_136_F0
 10
0
 20
0
 30
0
 70
128
 71
19
 72
18
 73
127
 74
127
 0
VERTEX
 8
MESH_136_F0
 10
0
 20
0
 30
0
 70
128
 71
19
 72
127
 73
20
 74
20
 0
VERTEX
 8
MESH_136_F0
 10
0
 20
0
 30
0
 70
128
 71
127
 72
21
 73
20
 74
20
 0
VERTEX
 8
MESH_136_F0
 10
0
 20
0
 30
0
 70
128
 71
22
 72
21
 73
127
 74
127
 0
VERTEX
 8
MESH_136_F0
 10
0
 20
0
 30
0
 70
128
 71
23
 72
22
 73
126
 74
126
 0
VERTEX
 8
MESH_136_F0
 10
0
 20
0
 30
0
 70
128
 71
23
 72
126
 73
24
 74
24
 0
VERTEX
 8
MESH_136_F0
 10
0
 20
0
 30
0
 70
128
 71
126
 72
25
 73
24
 74
24
 0
VERTEX
 8
MESH_136_F0
 10
0
 20
0
 30
0
 70
128
 71
26
 72
25
 73
126
 74
126
 0
VERTEX
 8
MESH_136_F0
 10
0
 20
0
 30
0
 70
128
 71
26
 72
126
 73
27
 74
27
 0
VERTEX
 8
MESH_136_F0
 10
0
 20
0
 30
0
 70
128
 71
126
 72
28
 73
27
 74
27
 0
VERTEX
 8
MESH_136_F0
 10
0
 20
0
 30
0
 70
128
 71
29
 72
28
 73
126
 74
126
 0
VERTEX
 8
MESH_136_F0
 10
0
 20
0
 30
0
 70
128
 71
29
 72
126
 73
30
 74
30
 0
VERTEX
 8
MESH_136_F0
 10
0
 20
0
 30
0
 70
128
 71
126
 72
31
 73
30
 74
30
 0
VERTEX
 8
MESH_136_F0
 10
0
 20
0
 30
0
 70
128
 71
32
 72
31
 73
126
 74
126
 0
VERTEX
 8
MESH_136_F0
 10
0
 20
0
 30
0
 70
128
 71
32
 72
126
 73
33
 74
33
 0
VERTEX
 8
MESH_136_F0
 10
0
 20
0
 30
0
 70
128
 71
126
 72
34
 73
33
 74
33
 0
VERTEX
 8
MESH_136_F0
 10
0
 20
0
 30
0
 70
128
 71
35
 72
34
 73
126
 74
126
 0
VERTEX
 8
MESH_136_F0
 10
0
 20
0
 30
0
 70
128
 71
35
 72
126
 73
36
 74
36
 0
VERTEX
 8
MESH_136_F0
 10
0
 20
0
 30
0
 70
128
 71
126
 72
37
 73
36
 74
36
 0
VERTEX
 8
MESH_136_F0
 10
0
 20
0
 30
0
 70
128
 71
38
 72
37
 73
126
 74
126
 0
VERTEX
 8
MESH_136_F0
 10
0
 20
0
 30
0
 70
128
 71
38
 72
126
 73
39
 74
39
 0
VERTEX
 8
MESH_136_F0
 10
0
 20
0
 30
0
 70
128
 71
126
 72
40
 73
39
 74
39
 0
VERTEX
 8
MESH_136_F0
 10
0
 20
0
 30
0
 70
128
 71
41
 72
40
 73
126
 74
126
 0
VERTEX
 8
MESH_136_F0
 10
0
 20
0
 30
0
 70
128
 71
41
 72
126
 73
42
 74
42
 0
VERTEX
 8
MESH_136_F0
 10
0
 20
0
 30
0
 70
128
 71
126
 72
43
 73
42
 74
42
 0
VERTEX
 8
MESH_136_F0
 10
0
 20
0
 30
0
 70
128
 71
44
 72
43
 73
126
 74
126
 0
VERTEX
 8
MESH_136_F0
 10
0
 20
0
 30
0
 70
128
 71
44
 72
126
 73
45
 74
45
 0
VERTEX
 8
MESH_136_F0
 10
0
 20
0
 30
0
 70
128
 71
126
 72
46
 73
45
 74
45
 0
VERTEX
 8
MESH_136_F0
 10
0
 20
0
 30
0
 70
128
 71
47
 72
46
 73
126
 74
126
 0
VERTEX
 8
MESH_136_F0
 10
0
 20
0
 30
0
 70
128
 71
47
 72
126
 73
48
 74
48
 0
VERTEX
 8
MESH_136_F0
 10
0
 20
0
 30
0
 70
128
 71
126
 72
49
 73
48
 74
48
 0
VERTEX
 8
MESH_136_F0
 10
0
 20
0
 30
0
 70
128
 71
50
 72
49
 73
126
 74
126
 0
VERTEX
 8
MESH_136_F0
 10
0
 20
0
 30
0
 70
128
 71
50
 72
126
 73
51
 74
51
 0
VERTEX
 8
MESH_136_F0
 10
0
 20
0
 30
0
 70
128
 71
126
 72
102
 73
51
 74
51
 0
VERTEX
 8
MESH_136_F0
 10
0
 20
0
 30
0
 70
128
 71
102
 72
101
 73
51
 74
51
 0
VERTEX
 8
MESH_136_F0
 10
0
 20
0
 30
0
 70
128
 71
101
 72
52
 73
51
 74
51
 0
VERTEX
 8
MESH_136_F0
 10
0
 20
0
 30
0
 70
128
 71
53
 72
52
 73
101
 74
101
 0
VERTEX
 8
MESH_136_F0
 10
0
 20
0
 30
0
 70
128
 71
53
 72
101
 73
54
 74
54
 0
VERTEX
 8
MESH_136_F0
 10
0
 20
0
 30
0
 70
128
 71
101
 72
55
 73
54
 74
54
 0
VERTEX
 8
MESH_136_F0
 10
0
 20
0
 30
0
 70
128
 71
56
 72
55
 73
101
 74
101
 0
VERTEX
 8
MESH_136_F0
 10
0
 20
0
 30
0
 70
128
 71
56
 72
101
 73
57
 74
57
 0
VERTEX
 8
MESH_136_F0
 10
0
 20
0
 30
0
 70
128
 71
101
 72
58
 73
57
 74
57
 0
VERTEX
 8
MESH_136_F0
 10
0
 20
0
 30
0
 70
128
 71
59
 72
58
 73
101
 74
101
 0
VERTEX
 8
MESH_136_F0
 10
0
 20
0
 30
0
 70
128
 71
59
 72
101
 73
60
 74
60
 0
VERTEX
 8
MESH_136_F0
 10
0
 20
0
 30
0
 70
128
 71
101
 72
61
 73
60
 74
60
 0
VERTEX
 8
MESH_136_F0
 10
0
 20
0
 30
0
 70
128
 71
62
 72
61
 73
101
 74
101
 0
VERTEX
 8
MESH_136_F0
 10
0
 20
0
 30
0
 70
128
 71
62
 72
101
 73
63
 74
63
 0
VERTEX
 8
MESH_136_F0
 10
0
 20
0
 30
0
 70
128
 71
101
 72
64
 73
63
 74
63
 0
VERTEX
 8
MESH_136_F0
 10
0
 20
0
 30
0
 70
128
 71
65
 72
64
 73
101
 74
101
 0
VERTEX
 8
MESH_136_F0
 10
0
 20
0
 30
0
 70
128
 71
65
 72
101
 73
66
 74
66
 0
VERTEX
 8
MESH_136_F0
 10
0
 20
0
 30
0
 70
128
 71
101
 72
67
 73
66
 74
66
 0
VERTEX
 8
MESH_136_F0
 10
0
 20
0
 30
0
 70
128
 71
68
 72
67
 73
101
 74
101
 0
VERTEX
 8
MESH_136_F0
 10
0
 20
0
 30
0
 70
128
 71
68
 72
101
 73
69
 74
69
 0
VERTEX
 8
MESH_136_F0
 10
0
 20
0
 30
0
 70
128
 71
101
 72
70
 73
69
 74
69
 0
VERTEX
 8
MESH_136_F0
 10
0
 20
0
 30
0
 70
128
 71
71
 72
70
 73
101
 74
101
 0
VERTEX
 8
MESH_136_F0
 10
0
 20
0
 30
0
 70
128
 71
71
 72
101
 73
72
 74
72
 0
VERTEX
 8
MESH_136_F0
 10
0
 20
0
 30
0
 70
128
 71
101
 72
73
 73
72
 74
72
 0
VERTEX
 8
MESH_136_F0
 10
0
 20
0
 30
0
 70
128
 71
74
 72
73
 73
101
 74
101
 0
VERTEX
 8
MESH_136_F0
 10
0
 20
0
 30
0
 70
128
 71
74
 72
101
 73
75
 74
75
 0
VERTEX
 8
MESH_136_F0
 10
0
 20
0
 30
0
 70
128
 71
101
 72
76
 73
75
 74
75
 0
VERTEX
 8
MESH_136_F0
 10
0
 20
0
 30
0
 70
128
 71
152
 72
76
 73
101
 74
101
 0
VERTEX
 8
MESH_136_F0
 10
0
 20
0
 30
0
 70
128
 71
77
 72
76
 73
152
 74
152
 0
VERTEX
 8
MESH_136_F0
 10
0
 20
0
 30
0
 70
128
 71
77
 72
152
 73
78
 74
78
 0
VERTEX
 8
MESH_136_F0
 10
0
 20
0
 30
0
 70
128
 71
152
 72
79
 73
78
 74
78
 0
VERTEX
 8
MESH_136_F0
 10
0
 20
0
 30
0
 70
128
 71
80
 72
79
 73
152
 74
152
 0
VERTEX
 8
MESH_136_F0
 10
0
 20
0
 30
0
 70
128
 71
80
 72
152
 73
81
 74
81
 0
VERTEX
 8
MESH_136_F0
 10
0
 20
0
 30
0
 70
128
 71
152
 72
82
 73
81
 74
81
 0
VERTEX
 8
MESH_136_F0
 10
0
 20
0
 30
0
 70
128
 71
83
 72
82
 73
152
 74
152
 0
VERTEX
 8
MESH_136_F0
 10
0
 20
0
 30
0
 70
128
 71
83
 72
152
 73
84
 74
84
 0
VERTEX
 8
MESH_136_F0
 10
0
 20
0
 30
0
 70
128
 71
152
 72
85
 73
84
 74
84
 0
VERTEX
 8
MESH_136_F0
 10
0
 20
0
 30
0
 70
128
 71
86
 72
85
 73
152
 74
152
 0
VERTEX
 8
MESH_136_F0
 10
0
 20
0
 30
0
 70
128
 71
86
 72
152
 73
87
 74
87
 0
VERTEX
 8
MESH_136_F0
 10
0
 20
0
 30
0
 70
128
 71
152
 72
88
 73
87
 74
87
 0
VERTEX
 8
MESH_136_F0
 10
0
 20
0
 30
0
 70
128
 71
89
 72
88
 73
152
 74
152
 0
VERTEX
 8
MESH_136_F0
 10
0
 20
0
 30
0
 70
128
 71
89
 72
152
 73
90
 74
90
 0
VERTEX
 8
MESH_136_F0
 10
0
 20
0
 30
0
 70
128
 71
152
 72
91
 73
90
 74
90
 0
VERTEX
 8
MESH_136_F0
 10
0
 20
0
 30
0
 70
128
 71
92
 72
91
 73
152
 74
152
 0
VERTEX
 8
MESH_136_F0
 10
0
 20
0
 30
0
 70
128
 71
92
 72
152
 73
93
 74
93
 0
VERTEX
 8
MESH_136_F0
 10
0
 20
0
 30
0
 70
128
 71
152
 72
94
 73
93
 74
93
 0
VERTEX
 8
MESH_136_F0
 10
0
 20
0
 30
0
 70
128
 71
95
 72
94
 73
152
 74
152
 0
VERTEX
 8
MESH_136_F0
 10
0
 20
0
 30
0
 70
128
 71
95
 72
152
 73
96
 74
96
 0
VERTEX
 8
MESH_136_F0
 10
0
 20
0
 30
0
 70
128
 71
152
 72
97
 73
96
 74
96
 0
VERTEX
 8
MESH_136_F0
 10
0
 20
0
 30
0
 70
128
 71
98
 72
97
 73
152
 74
152
 0
VERTEX
 8
MESH_136_F0
 10
0
 20
0
 30
0
 70
128
 71
98
 72
152
 73
99
 74
99
 0
VERTEX
 8
MESH_136_F0
 10
0
 20
0
 30
0
 70
128
 71
152
 72
100
 73
99
 74
99
 0
VERTEX
 8
MESH_136_F0
 10
0
 20
0
 30
0
 70
128
 71
151
 72
100
 73
152
 74
152
 0
VERTEX
 8
MESH_136_F0
 10
0
 20
0
 30
0
 70
128
 71
1
 72
100
 73
151
 74
151
 0
VERTEX
 8
MESH_136_F0
 10
0
 20
0
 30
0
 70
128
 71
1
 72
151
 73
127
 74
127
 0
VERTEX
 8
MESH_136_F0
 10
0
 20
0
 30
0
 70
128
 71
151
 72
150
 73
127
 74
127
 0
VERTEX
 8
MESH_136_F0
 10
0
 20
0
 30
0
 70
128
 71
150
 72
149
 73
127
 74
127
 0
VERTEX
 8
MESH_136_F0
 10
0
 20
0
 30
0
 70
128
 71
149
 72
148
 73
127
 74
127
 0
VERTEX
 8
MESH_136_F0
 10
0
 20
0
 30
0
 70
128
 71
148
 72
147
 73
127
 74
127
 0
VERTEX
 8
MESH_136_F0
 10
0
 20
0
 30
0
 70
128
 71
147
 72
146
 73
127
 74
127
 0
VERTEX
 8
MESH_136_F0
 10
0
 20
0
 30
0
 70
128
 71
146
 72
145
 73
127
 74
127
 0
VERTEX
 8
MESH_136_F0
 10
0
 20
0
 30
0
 70
128
 71
145
 72
144
 73
127
 74
127
 0
VERTEX
 8
MESH_136_F0
 10
0
 20
0
 30
0
 70
128
 71
144
 72
143
 73
127
 74
127
 0
VERTEX
 8
MESH_136_F0
 10
0
 20
0
 30
0
 70
128
 71
143
 72
142
 73
127
 74
127
 0
VERTEX
 8
MESH_136_F0
 10
0
 20
0
 30
0
 70
128
 71
142
 72
141
 73
127
 74
127
 0
VERTEX
 8
MESH_136_F0
 10
0
 20
0
 30
0
 70
128
 71
141
 72
140
 73
127
 74
127
 0
VERTEX
 8
MESH_136_F0
 10
0
 20
0
 30
0
 70
128
 71
140
 72
139
 73
127
 74
127
 0
VERTEX
 8
MESH_136_F0
 10
0
 20
0
 30
0
 70
128
 71
139
 72
138
 73
127
 74
127
 0
VERTEX
 8
MESH_136_F0
 10
0
 20
0
 30
0
 70
128
 71
138
 72
137
 73
127
 74
127
 0
VERTEX
 8
MESH_136_F0
 10
0
 20
0
 30
0
 70
128
 71
137
 72
136
 73
127
 74
127
 0
VERTEX
 8
MESH_136_F0
 10
0
 20
0
 30
0
 70
128
 71
136
 72
135
 73
127
 74
127
 0
VERTEX
 8
MESH_136_F0
 10
0
 20
0
 30
0
 70
128
 71
135
 72
134
 73
127
 74
127
 0
VERTEX
 8
MESH_136_F0
 10
0
 20
0
 30
0
 70
128
 71
134
 72
133
 73
127
 74
127
 0
VERTEX
 8
MESH_136_F0
 10
0
 20
0
 30
0
 70
128
 71
133
 72
132
 73
127
 74
127
 0
VERTEX
 8
MESH_136_F0
 10
0
 20
0
 30
0
 70
128
 71
132
 72
131
 73
127
 74
127
 0
VERTEX
 8
MESH_136_F0
 10
0
 20
0
 30
0
 70
128
 71
131
 72
128
 73
127
 74
127
 0
VERTEX
 8
MESH_136_F0
 10
0
 20
0
 30
0
 70
128
 71
130
 72
128
 73
131
 74
131
 0
VERTEX
 8
MESH_136_F0
 10
0
 20
0
 30
0
 70
128
 71
129
 72
128
 73
130
 74
130
 0
VERTEX
 8
MESH_136_F0
 10
0
 20
0
 30
0
 70
128
 71
126
 72
103
 73
102
 74
102
 0
VERTEX
 8
MESH_136_F0
 10
0
 20
0
 30
0
 70
128
 71
104
 72
103
 73
126
 74
126
 0
VERTEX
 8
MESH_136_F0
 10
0
 20
0
 30
0
 70
128
 71
104
 72
126
 73
105
 74
105
 0
VERTEX
 8
MESH_136_F0
 10
0
 20
0
 30
0
 70
128
 71
126
 72
106
 73
105
 74
105
 0
VERTEX
 8
MESH_136_F0
 10
0
 20
0
 30
0
 70
128
 71
107
 72
106
 73
126
 74
126
 0
VERTEX
 8
MESH_136_F0
 10
0
 20
0
 30
0
 70
128
 71
107
 72
126
 73
108
 74
108
 0
VERTEX
 8
MESH_136_F0
 10
0
 20
0
 30
0
 70
128
 71
126
 72
109
 73
108
 74
108
 0
VERTEX
 8
MESH_136_F0
 10
0
 20
0
 30
0
 70
128
 71
110
 72
109
 73
126
 74
126
 0
VERTEX
 8
MESH_136_F0
 10
0
 20
0
 30
0
 70
128
 71
110
 72
126
 73
111
 74
111
 0
VERTEX
 8
MESH_136_F0
 10
0
 20
0
 30
0
 70
128
 71
126
 72
112
 73
111
 74
111
 0
VERTEX
 8
MESH_136_F0
 10
0
 20
0
 30
0
 70
128
 71
113
 72
112
 73
126
 74
126
 0
VERTEX
 8
MESH_136_F0
 10
0
 20
0
 30
0
 70
128
 71
113
 72
126
 73
114
 74
114
 0
VERTEX
 8
MESH_136_F0
 10
0
 20
0
 30
0
 70
128
 71
126
 72
115
 73
114
 74
114
 0
VERTEX
 8
MESH_136_F0
 10
0
 20
0
 30
0
 70
128
 71
116
 72
115
 73
126
 74
126
 0
VERTEX
 8
MESH_136_F0
 10
0
 20
0
 30
0
 70
128
 71
116
 72
126
 73
117
 74
117
 0
VERTEX
 8
MESH_136_F0
 10
0
 20
0
 30
0
 70
128
 71
126
 72
118
 73
117
 74
117
 0
VERTEX
 8
MESH_136_F0
 10
0
 20
0
 30
0
 70
128
 71
119
 72
118
 73
126
 74
126
 0
VERTEX
 8
MESH_136_F0
 10
0
 20
0
 30
0
 70
128
 71
119
 72
126
 73
120
 74
120
 0
VERTEX
 8
MESH_136_F0
 10
0
 20
0
 30
0
 70
128
 71
126
 72
121
 73
120
 74
120
 0
VERTEX
 8
MESH_136_F0
 10
0
 20
0
 30
0
 70
128
 71
122
 72
121
 73
126
 74
126
 0
VERTEX
 8
MESH_136_F0
 10
0
 20
0
 30
0
 70
128
 71
122
 72
126
 73
123
 74
123
 0
VERTEX
 8
MESH_136_F0
 10
0
 20
0
 30
0
 70
128
 71
126
 72
124
 73
123
 74
123
 0
VERTEX
 8
MESH_136_F0
 10
0
 20
0
 30
0
 70
128
 71
125
 72
124
 73
126
 74
126
 0
VERTEX
 8
MESH_136_F0
 10
0
 20
0
 30
0
 70
128
 71
22
 72
127
 73
126
 74
126
 0
SEQEND
 0
POLYLINE
 8
MESH_135_F0
 66
1
 10
0.0
 20
0.0
 30
0.0
 70
64
 71
4
 72
2
 0
VERTEX
 8
MESH_135_F0
 10
-35
 20
-106
 30
0
 70
192
 0
VERTEX
 8
MESH_135_F0
 10
-35
 20
-106
 30
-25
 70
192
 0
VERTEX
 8
MESH_135_F0
 10
35
 20
-106
 30
-25
 70
192
 0
VERTEX
 8
MESH_135_F0
 10
35
 20
-106
 30
0
 70
192
 0
VERTEX
 8
MESH_135_F0
 10
0
 20
0
 30
0
 70
128
 71
1
 72
3
 73
2
 74
2
 0
VERTEX
 8
MESH_135_F0
 10
0
 20
0
 30
0
 70
128
 71
4
 72
3
 73
1
 74
1
 0
SEQEND
 0
POLYLINE
 8
MESH_134_F0
 66
1
 10
0.0
 20
0.0
 30
0.0
 70
64
 71
50
 72
48
 0
VERTEX
 8
MESH_134_F0
 10
35
 20
-106
 30
0
 70
192
 0
VERTEX
 8
MESH_134_F0
 10
35
 20
-106
 30
-25
 70
192
 0
VERTEX
 8
MESH_134_F0
 10
36.662
 20
-106.0585
 30
-25
 70
192
 0
VERTEX
 8
MESH_134_F0
 10
38.2952
 20
-106.22
 30
-25
 70
192
 0
VERTEX
 8
MESH_134_F0
 10
39.9028
 20
-106.4857
 30
-25
 70
192
 0
VERTEX
 8
MESH_134_F0
 10
41.4876
 20
-106.8565
 30
-25
 70
192
 0
VERTEX
 8
MESH_134_F0
 10
43.0459
 20
-107.3311
 30
-25
 70
192
 0
VERTEX
 8
MESH_134_F0
 10
44.5756
 20
-107.9082
 30
-25
 70
192
 0
VERTEX
 8
MESH_134_F0
 10
46.0674
 20
-108.5844
 30
-25
 70
192
 0
VERTEX
 8
MESH_134_F0
 10
47.5124
 20
-109.3566
 30
-25
 70
192
 0
VERTEX
 8
MESH_134_F0
 10
48.8996
 20
-110.22
 30
-25
 70
192
 0
VERTEX
 8
MESH_134_F0
 10
50.2261
 20
-111.1715
 30
-25
 70
192
 0
VERTEX
 8
MESH_134_F0
 10
51.4869
 20
-112.207
 30
-25
 70
192
 0
VERTEX
 8
MESH_134_F0
 10
52.6773
 20
-113.3221
 30
-25
 70
192
 0
VERTEX
 8
MESH_134_F0
 10
53.7924
 20
-114.5125
 30
-25
 70
192
 0
VERTEX
 8
MESH_134_F0
 10
54.828
 20
-115.7733
 30
-25
 70
192
 0
VERTEX
 8
MESH_134_F0
 10
55.7796
 20
-117.0997
 30
-25
 70
192
 0
VERTEX
 8
MESH_134_F0
 10
56.643
 20
-118.4869
 30
-25
 70
192
 0
VERTEX
 8
MESH_134_F0
 10
57.4153
 20
-119.9319
 30
-25
 70
192
 0
VERTEX
 8
MESH_134_F0
 10
58.0916
 20
-121.4239
 30
-25
 70
192
 0
VERTEX
 8
MESH_134_F0
 10
58.6687
 20
-122.9536
 30
-25
 70
192
 0
VERTEX
 8
MESH_134_F0
 10
59.1434
 20
-124.5119
 30
-25
 70
192
 0
VERTEX
 8
MESH_134_F0
 10
59.5142
 20
-126.0969
 30
-25
 70
192
 0
VERTEX
 8
MESH_134_F0
 10
59.7799
 20
-127.7045
 30
-25
 70
192
 0
VERTEX
 8
MESH_134_F0
 10
59.9415
 20
-129.3378
 30
-25
 70
192
 0
VERTEX
 8
MESH_134_F0
 10
60
 20
-131
 30
-25
 70
192
 0
VERTEX
 8
MESH_134_F0
 10
60
 20
-131
 30
0
 70
192
 0
VERTEX
 8
MESH_134_F0
 10
59.9415
 20
-129.338
 30
0
 70
192
 0
VERTEX
 8
MESH_134_F0
 10
59.78
 20
-127.7047
 30
0
 70
192
 0
VERTEX
 8
MESH_134_F0
 10
59.5143
 20
-126.0972
 30
0
 70
192
 0
VERTEX
 8
MESH_134_F0
 10
59.1435
 20
-124.5123
 30
0
 70
192
 0
VERTEX
 8
MESH_134_F0
 10
58.6688
 20
-122.9541
 30
0
 70
192
 0
VERTEX
 8
MESH_134_F0
 10
58.0918
 20
-121.4244
 30
0
 70
192
 0
VERTEX
 8
MESH_134_F0
 10
57.4156
 20
-119.9325
 30
0
 70
192
 0
VERTEX
 8
MESH_134_F0
 10
56.6434
 20
-118.4876
 30
0
 70
192
 0
VERTEX
 8
MESH_134_F0
 10
55.78
 20
-117.1004
 30
0
 70
192
 0
VERTEX
 8
MESH_134_F0
 10
54.8285
 20
-115.7739
 30
0
 70
192
 0
VERTEX
 8
MESH_134_F0
 10
53.793
 20
-114.5131
 30
0
 70
192
 0
VERTEX
 8
MESH_134_F0
 10
52.6779
 20
-113.3227
 30
0
 70
192
 0
VERTEX
 8
MESH_134_F0
 10
51.4875
 20
-112.2076
 30
0
 70
192
 0
VERTEX
 8
MESH_134_F0
 10
50.2267
 20
-111.172
 30
0
 70
192
 0
VERTEX
 8
MESH_134_F0
 10
48.9003
 20
-110.2204
 30
0
 70
192
 0
VERTEX
 8
MESH_134_F0
 10
47.5131
 20
-109.357
 30
0
 70
192
 0
VERTEX
 8
MESH_134_F0
 10
46.0681
 20
-108.5847
 30
0
 70
192
 0
VERTEX
 8
MESH_134_F0
 10
44.5762
 20
-107.9084
 30
0
 70
192
 0
VERTEX
 8
MESH_134_F0
 10
43.0464
 20
-107.3313
 30
0
 70
192
 0
VERTEX
 8
MESH_134_F0
 10
41.4881
 20
-106.8566
 30
0
 70
192
 0
VERTEX
 8
MESH_134_F0
 10
39.9031
 20
-106.4858
 30
0
 70
192
 0
VERTEX
 8
MESH_134_F0
 10
38.2955
 20
-106.2201
 30
0
 70
192
 0
VERTEX
 8
MESH_134_F0
 10
36.6621
 20
-106.0585
 30
0
 70
192
 0
VERTEX
 8
MESH_134_F0
 10
0
 20
0
 30
0
 70
128
 71
50
 72
2
 73
1
 74
1
 0
VERTEX
 8
MESH_134_F0
 10
0
 20
0
 30
0
 70
128
 71
3
 72
2
 73
50
 74
50
 0
VERTEX
 8
MESH_134_F0
 10
0
 20
0
 30
0
 70
128
 71
3
 72
50
 73
4
 74
4
 0
VERTEX
 8
MESH_134_F0
 10
0
 20
0
 30
0
 70
128
 71
50
 72
49
 73
4
 74
4
 0
VERTEX
 8
MESH_134_F0
 10
0
 20
0
 30
0
 70
128
 71
49
 72
5
 73
4
 74
4
 0
VERTEX
 8
MESH_134_F0
 10
0
 20
0
 30
0
 70
128
 71
48
 72
5
 73
49
 74
49
 0
VERTEX
 8
MESH_134_F0
 10
0
 20
0
 30
0
 70
128
 71
6
 72
5
 73
48
 74
48
 0
VERTEX
 8
MESH_134_F0
 10
0
 20
0
 30
0
 70
128
 71
7
 72
6
 73
47
 74
47
 0
VERTEX
 8
MESH_134_F0
 10
0
 20
0
 30
0
 70
128
 71
8
 72
7
 73
46
 74
46
 0
VERTEX
 8
MESH_134_F0
 10
0
 20
0
 30
0
 70
128
 71
9
 72
8
 73
45
 74
45
 0
VERTEX
 8
MESH_134_F0
 10
0
 20
0
 30
0
 70
128
 71
10
 72
9
 73
44
 74
44
 0
VERTEX
 8
MESH_134_F0
 10
0
 20
0
 30
0
 70
128
 71
11
 72
10
 73
43
 74
43
 0
VERTEX
 8
MESH_134_F0
 10
0
 20
0
 30
0
 70
128
 71
12
 72
11
 73
42
 74
42
 0
VERTEX
 8
MESH_134_F0
 10
0
 20
0
 30
0
 70
128
 71
13
 72
12
 73
41
 74
41
 0
VERTEX
 8
MESH_134_F0
 10
0
 20
0
 30
0
 70
128
 71
14
 72
13
 73
40
 74
40
 0
VERTEX
 8
MESH_134_F0
 10
0
 20
0
 30
0
 70
128
 71
15
 72
14
 73
39
 74
39
 0
VERTEX
 8
MESH_134_F0
 10
0
 20
0
 30
0
 70
128
 71
16
 72
15
 73
38
 74
38
 0
VERTEX
 8
MESH_134_F0
 10
0
 20
0
 30
0
 70
128
 71
17
 72
16
 73
37
 74
37
 0
VERTEX
 8
MESH_134_F0
 10
0
 20
0
 30
0
 70
128
 71
18
 72
17
 73
36
 74
36
 0
VERTEX
 8
MESH_134_F0
 10
0
 20
0
 30
0
 70
128
 71
19
 72
18
 73
35
 74
35
 0
VERTEX
 8
MESH_134_F0
 10
0
 20
0
 30
0
 70
128
 71
20
 72
19
 73
34
 74
34
 0
VERTEX
 8
MESH_134_F0
 10
0
 20
0
 30
0
 70
128
 71
21
 72
20
 73
33
 74
33
 0
VERTEX
 8
MESH_134_F0
 10
0
 20
0
 30
0
 70
128
 71
22
 72
21
 73
32
 74
32
 0
VERTEX
 8
MESH_134_F0
 10
0
 20
0
 30
0
 70
128
 71
23
 72
22
 73
31
 74
31
 0
VERTEX
 8
MESH_134_F0
 10
0
 20
0
 30
0
 70
128
 71
24
 72
23
 73
30
 74
30
 0
VERTEX
 8
MESH_134_F0
 10
0
 20
0
 30
0
 70
128
 71
25
 72
24
 73
29
 74
29
 0
VERTEX
 8
MESH_134_F0
 10
0
 20
0
 30
0
 70
128
 71
26
 72
25
 73
28
 74
28
 0
VERTEX
 8
MESH_134_F0
 10
0
 20
0
 30
0
 70
128
 71
26
 72
28
 73
27
 74
27
 0
VERTEX
 8
MESH_134_F0
 10
0
 20
0
 30
0
 70
128
 71
25
 72
29
 73
28
 74
28
 0
VERTEX
 8
MESH_134_F0
 10
0
 20
0
 30
0
 70
128
 71
24
 72
30
 73
29
 74
29
 0
VERTEX
 8
MESH_134_F0
 10
0
 20
0
 30
0
 70
128
 71
23
 72
31
 73
30
 74
30
 0
VERTEX
 8
MESH_134_F0
 10
0
 20
0
 30
0
 70
128
 71
22
 72
32
 73
31
 74
31
 0
VERTEX
 8
MESH_134_F0
 10
0
 20
0
 30
0
 70
128
 71
21
 72
33
 73
32
 74
32
 0
VERTEX
 8
MESH_134_F0
 10
0
 20
0
 30
0
 70
128
 71
20
 72
34
 73
33
 74
33
 0
VERTEX
 8
MESH_134_F0
 10
0
 20
0
 30
0
 70
128
 71
19
 72
35
 73
34
 74
34
 0
VERTEX
 8
MESH_134_F0
 10
0
 20
0
 30
0
 70
128
 71
18
 72
36
 73
35
 74
35
 0
VERTEX
 8
MESH_134_F0
 10
0
 20
0
 30
0
 70
128
 71
17
 72
37
 73
36
 74
36
 0
VERTEX
 8
MESH_134_F0
 10
0
 20
0
 30
0
 70
128
 71
16
 72
38
 73
37
 74
37
 0
VERTEX
 8
MESH_134_F0
 10
0
 20
0
 30
0
 70
128
 71
15
 72
39
 73
38
 74
38
 0
VERTEX
 8
MESH_134_F0
 10
0
 20
0
 30
0
 70
128
 71
14
 72
40
 73
39
 74
39
 0
VERTEX
 8
MESH_134_F0
 10
0
 20
0
 30
0
 70
128
 71
13
 72
41
 73
40
 74
40
 0
VERTEX
 8
MESH_134_F0
 10
0
 20
0
 30
0
 70
128
 71
12
 72
42
 73
41
 74
41
 0
VERTEX
 8
MESH_134_F0
 10
0
 20
0
 30
0
 70
128
 71
11
 72
43
 73
42
 74
42
 0
VERTEX
 8
MESH_134_F0
 10
0
 20
0
 30
0
 70
128
 71
10
 72
44
 73
43
 74
43
 0
VERTEX
 8
MESH_134_F0
 10
0
 20
0
 30
0
 70
128
 71
9
 72
45
 73
44
 74
44
 0
VERTEX
 8
MESH_134_F0
 10
0
 20
0
 30
0
 70
128
 71
8
 72
46
 73
45
 74
45
 0
VERTEX
 8
MESH_134_F0
 10
0
 20
0
 30
0
 70
128
 71
7
 72
47
 73
46
 74
46
 0
VERTEX
 8
MESH_134_F0
 10
0
 20
0
 30
0
 70
128
 71
6
 72
48
 73
47
 74
47
 0
SEQEND
 0
POLYLINE
 8
MESH_133_F0
 66
1
 10
0.0
 20
0.0
 30
0.0
 70
64
 71
4
 72
2
 0
VERTEX
 8
MESH_133_F0
 10
60
 20
-131
 30
0
 70
192
 0
VERTEX
 8
MESH_133_F0
 10
60
 20
-131
 30
-25
 70
192
 0
VERTEX
 8
MESH_133_F0
 10
60
 20
-309
 30
-25
 70
192
 0
VERTEX
 8
MESH_133_F0
 10
60
 20
-309
 30
0
 70
192
 0
VERTEX
 8
MESH_133_F0
 10
0
 20
0
 30
0
 70
128
 71
1
 72
3
 73
2
 74
2
 0
VERTEX
 8
MESH_133_F0
 10
0
 20
0
 30
0
 70
128
 71
4
 72
3
 73
1
 74
1
 0
SEQEND
 0
POLYLINE
 8
MESH_132_F0
 66
1
 10
0.0
 20
0.0
 30
0.0
 70
64
 71
50
 72
48
 0
VERTEX
 8
MESH_132_F0
 10
60
 20
-309
 30
0
 70
192
 0
VERTEX
 8
MESH_132_F0
 10
60
 20
-309
 30
-25
 70
192
 0
VERTEX
 8
MESH_132_F0
 10
59.9415
 20
-310.662
 30
-25
 70
192
 0
VERTEX
 8
MESH_132_F0
 10
59.78
 20
-312.2953
 30
-25
 70
192
 0
VERTEX
 8
MESH_132_F0
 10
59.5143
 20
-313.9028
 30
-25
 70
192
 0
VERTEX
 8
MESH_132_F0
 10
59.1435
 20
-315.4876
 30
-25
 70
192
 0
VERTEX
 8
MESH_132_F0
 10
58.6688
 20
-317.0459
 30
-25
 70
192
 0
VERTEX
 8
MESH_132_F0
 10
58.0918
 20
-318.5756
 30
-25
 70
192
 0
VERTEX
 8
MESH_132_F0
 10
57.4156
 20
-320.0674
 30
-25
 70
192
 0
VERTEX
 8
MESH_132_F0
 10
56.6434
 20
-321.5124
 30
-25
 70
192
 0
VERTEX
 8
MESH_132_F0
 10
55.78
 20
-322.8996
 30
-25
 70
192
 0
VERTEX
 8
MESH_132_F0
 10
54.8285
 20
-324.226
 30
-25
 70
192
 0
VERTEX
 8
MESH_132_F0
 10
53.793
 20
-325.4869
 30
-25
 70
192
 0
VERTEX
 8
MESH_132_F0
 10
52.6779
 20
-326.6773
 30
-25
 70
192
 0
VERTEX
 8
MESH_132_F0
 10
51.4875
 20
-327.7924
 30
-25
 70
192
 0
VERTEX
 8
MESH_132_F0
 10
50.2267
 20
-328.828
 30
-25
 70
192
 0
VERTEX
 8
MESH_132_F0
 10
48.9003
 20
-329.7796
 30
-25
 70
192
 0
VERTEX
 8
MESH_132_F0
 10
47.5131
 20
-330.643
 30
-25
 70
192
 0
VERTEX
 8
MESH_132_F0
 10
46.0681
 20
-331.4153
 30
-25
 70
192
 0
VERTEX
 8
MESH_132_F0
 10
44.5762
 20
-332.0916
 30
-25
 70
192
 0
VERTEX
 8
MESH_132_F0
 10
43.0464
 20
-332.6687
 30
-25
 70
192
 0
VERTEX
 8
MESH_132_F0
 10
41.4881
 20
-333.1434
 30
-25
 70
192
 0
VERTEX
 8
MESH_132_F0
 10
39.9031
 20
-333.5142
 30
-25
 70
192
 0
VERTEX
 8
MESH_132_F0
 10
38.2955
 20
-333.7799
 30
-25
 70
192
 0
VERTEX
 8
MESH_132_F0
 10
36.6621
 20
-333.9415
 30
-25
 70
192
 0
VERTEX
 8
MESH_132_F0
 10
35
 20
-334
 30
-25
 70
192
 0
VERTEX
 8
MESH_132_F0
 10
35
 20
-334
 30
0
 70
192
 0
VERTEX
 8
MESH_132_F0
 10
36.662
 20
-333.9415
 30
0
 70
192
 0
VERTEX
 8
MESH_132_F0
 10
38.2952
 20
-333.78
 30
0
 70
192
 0
VERTEX
 8
MESH_132_F0
 10
39.9028
 20
-333.5143
 30
0
 70
192
 0
VERTEX
 8
MESH_132_F0
 10
41.4876
 20
-333.1435
 30
0
 70
192
 0
VERTEX
 8
MESH_132_F0
 10
43.0459
 20
-332.6688
 30
0
 70
192
 0
VERTEX
 8
MESH_132_F0
 10
44.5756
 20
-332.0918
 30
0
 70
192
 0
VERTEX
 8
MESH_132_F0
 10
46.0674
 20
-331.4156
 30
0
 70
192
 0
VERTEX
 8
MESH_132_F0
 10
47.5124
 20
-330.6433
 30
0
 70
192
 0
VERTEX
 8
MESH_132_F0
 10
48.8996
 20
-329.78
 30
0
 70
192
 0
VERTEX
 8
MESH_132_F0
 10
50.2261
 20
-328.8285
 30
0
 70
192
 0
VERTEX
 8
MESH_132_F0
 10
51.4869
 20
-327.793
 30
0
 70
192
 0
VERTEX
 8
MESH_132_F0
 10
52.6773
 20
-326.6779
 30
0
 70
192
 0
VERTEX
 8
MESH_132_F0
 10
53.7924
 20
-325.4875
 30
0
 70
192
 0
VERTEX
 8
MESH_132_F0
 10
54.828
 20
-324.2267
 30
0
 70
192
 0
VERTEX
 8
MESH_132_F0
 10
55.7796
 20
-322.9003
 30
0
 70
192
 0
VERTEX
 8
MESH_132_F0
 10
56.643
 20
-321.5131
 30
0
 70
192
 0
VERTEX
 8
MESH_132_F0
 10
57.4153
 20
-320.0681
 30
0
 70
192
 0
VERTEX
 8
MESH_132_F0
 10
58.0916
 20
-318.5761
 30
0
 70
192
 0
VERTEX
 8
MESH_132_F0
 10
58.6687
 20
-317.0464
 30
0
 70
192
 0
VERTEX
 8
MESH_132_F0
 10
59.1434
 20
-315.4881
 30
0
 70
192
 0
VERTEX
 8
MESH_132_F0
 10
59.5142
 20
-313.9031
 30
0
 70
192
 0
VERTEX
 8
MESH_132_F0
 10
59.7799
 20
-312.2955
 30
0
 70
192
 0
VERTEX
 8
MESH_132_F0
 10
59.9415
 20
-310.6621
 30
0
 70
192
 0
VERTEX
 8
MESH_132_F0
 10
0
 20
0
 30
0
 70
128
 71
50
 72
2
 73
1
 74
1
 0
VERTEX
 8
MESH_132_F0
 10
0
 20
0
 30
0
 70
128
 71
3
 72
2
 73
50
 74
50
 0
VERTEX
 8
MESH_132_F0
 10
0
 20
0
 30
0
 70
128
 71
3
 72
50
 73
4
 74
4
 0
VERTEX
 8
MESH_132_F0
 10
0
 20
0
 30
0
 70
128
 71
50
 72
49
 73
4
 74
4
 0
VERTEX
 8
MESH_132_F0
 10
0
 20
0
 30
0
 70
128
 71
49
 72
5
 73
4
 74
4
 0
VERTEX
 8
MESH_132_F0
 10
0
 20
0
 30
0
 70
128
 71
48
 72
5
 73
49
 74
49
 0
VERTEX
 8
MESH_132_F0
 10
0
 20
0
 30
0
 70
128
 71
6
 72
5
 73
48
 74
48
 0
VERTEX
 8
MESH_132_F0
 10
0
 20
0
 30
0
 70
128
 71
7
 72
6
 73
47
 74
47
 0
VERTEX
 8
MESH_132_F0
 10
0
 20
0
 30
0
 70
128
 71
8
 72
7
 73
46
 74
46
 0
VERTEX
 8
MESH_132_F0
 10
0
 20
0
 30
0
 70
128
 71
9
 72
8
 73
45
 74
45
 0
VERTEX
 8
MESH_132_F0
 10
0
 20
0
 30
0
 70
128
 71
10
 72
9
 73
44
 74
44
 0
VERTEX
 8
MESH_132_F0
 10
0
 20
0
 30
0
 70
128
 71
11
 72
10
 73
43
 74
43
 0
VERTEX
 8
MESH_132_F0
 10
0
 20
0
 30
0
 70
128
 71
12
 72
11
 73
42
 74
42
 0
VERTEX
 8
MESH_132_F0
 10
0
 20
0
 30
0
 70
128
 71
13
 72
12
 73
41
 74
41
 0
VERTEX
 8
MESH_132_F0
 10
0
 20
0
 30
0
 70
128
 71
14
 72
13
 73
40
 74
40
 0
VERTEX
 8
MESH_132_F0
 10
0
 20
0
 30
0
 70
128
 71
15
 72
14
 73
39
 74
39
 0
VERTEX
 8
MESH_132_F0
 10
0
 20
0
 30
0
 70
128
 71
16
 72
15
 73
38
 74
38
 0
VERTEX
 8
MESH_132_F0
 10
0
 20
0
 30
0
 70
128
 71
17
 72
16
 73
37
 74
37
 0
VERTEX
 8
MESH_132_F0
 10
0
 20
0
 30
0
 70
128
 71
18
 72
17
 73
36
 74
36
 0
VERTEX
 8
MESH_132_F0
 10
0
 20
0
 30
0
 70
128
 71
19
 72
18
 73
35
 74
35
 0
VERTEX
 8
MESH_132_F0
 10
0
 20
0
 30
0
 70
128
 71
20
 72
19
 73
34
 74
34
 0
VERTEX
 8
MESH_132_F0
 10
0
 20
0
 30
0
 70
128
 71
21
 72
20
 73
33
 74
33
 0
VERTEX
 8
MESH_132_F0
 10
0
 20
0
 30
0
 70
128
 71
22
 72
21
 73
32
 74
32
 0
VERTEX
 8
MESH_132_F0
 10
0
 20
0
 30
0
 70
128
 71
23
 72
22
 73
31
 74
31
 0
VERTEX
 8
MESH_132_F0
 10
0
 20
0
 30
0
 70
128
 71
24
 72
23
 73
30
 74
30
 0
VERTEX
 8
MESH_132_F0
 10
0
 20
0
 30
0
 70
128
 71
25
 72
24
 73
29
 74
29
 0
VERTEX
 8
MESH_132_F0
 10
0
 20
0
 30
0
 70
128
 71
26
 72
25
 73
28
 74
28
 0
VERTEX
 8
MESH_132_F0
 10
0
 20
0
 30
0
 70
128
 71
26
 72
28
 73
27
 74
27
 0
VERTEX
 8
MESH_132_F0
 10
0
 20
0
 30
0
 70
128
 71
25
 72
29
 73
28
 74
28
 0
VERTEX
 8
MESH_132_F0
 10
0
 20
0
 30
0
 70
128
 71
24
 72
30
 73
29
 74
29
 0
VERTEX
 8
MESH_132_F0
 10
0
 20
0
 30
0
 70
128
 71
23
 72
31
 73
30
 74
30
 0
VERTEX
 8
MESH_132_F0
 10
0
 20
0
 30
0
 70
128
 71
22
 72
32
 73
31
 74
31
 0
VERTEX
 8
MESH_132_F0
 10
0
 20
0
 30
0
 70
128
 71
21
 72
33
 73
32
 74
32
 0
VERTEX
 8
MESH_132_F0
 10
0
 20
0
 30
0
 70
128
 71
20
 72
34
 73
33
 74
33
 0
VERTEX
 8
MESH_132_F0
 10
0
 20
0
 30
0
 70
128
 71
19
 72
35
 73
34
 74
34
 0
VERTEX
 8
MESH_132_F0
 10
0
 20
0
 30
0
 70
128
 71
18
 72
36
 73
35
 74
35
 0
VERTEX
 8
MESH_132_F0
 10
0
 20
0
 30
0
 70
128
 71
17
 72
37
 73
36
 74
36
 0
VERTEX
 8
MESH_132_F0
 10
0
 20
0
 30
0
 70
128
 71
16
 72
38
 73
37
 74
37
 0
VERTEX
 8
MESH_132_F0
 10
0
 20
0
 30
0
 70
128
 71
15
 72
39
 73
38
 74
38
 0
VERTEX
 8
MESH_132_F0
 10
0
 20
0
 30
0
 70
128
 71
14
 72
40
 73
39
 74
39
 0
VERTEX
 8
MESH_132_F0
 10
0
 20
0
 30
0
 70
128
 71
13
 72
41
 73
40
 74
40
 0
VERTEX
 8
MESH_132_F0
 10
0
 20
0
 30
0
 70
128
 71
12
 72
42
 73
41
 74
41
 0
VERTEX
 8
MESH_132_F0
 10
0
 20
0
 30
0
 70
128
 71
11
 72
43
 73
42
 74
42
 0
VERTEX
 8
MESH_132_F0
 10
0
 20
0
 30
0
 70
128
 71
10
 72
44
 73
43
 74
43
 0
VERTEX
 8
MESH_132_F0
 10
0
 20
0
 30
0
 70
128
 71
9
 72
45
 73
44
 74
44
 0
VERTEX
 8
MESH_132_F0
 10
0
 20
0
 30
0
 70
128
 71
8
 72
46
 73
45
 74
45
 0
VERTEX
 8
MESH_132_F0
 10
0
 20
0
 30
0
 70
128
 71
7
 72
47
 73
46
 74
46
 0
VERTEX
 8
MESH_132_F0
 10
0
 20
0
 30
0
 70
128
 71
6
 72
48
 73
47
 74
47
 0
SEQEND
 0
POLYLINE
 8
MESH_131_F0
 66
1
 10
0.0
 20
0.0
 30
0.0
 70
64
 71
4
 72
2
 0
VERTEX
 8
MESH_131_F0
 10
35
 20
-334
 30
0
 70
192
 0
VERTEX
 8
MESH_131_F0
 10
35
 20
-334
 30
-25
 70
192
 0
VERTEX
 8
MESH_131_F0
 10
-35
 20
-334
 30
-25
 70
192
 0
VERTEX
 8
MESH_131_F0
 10
-35
 20
-334
 30
0
 70
192
 0
VERTEX
 8
MESH_131_F0
 10
0
 20
0
 30
0
 70
128
 71
1
 72
3
 73
2
 74
2
 0
VERTEX
 8
MESH_131_F0
 10
0
 20
0
 30
0
 70
128
 71
4
 72
3
 73
1
 74
1
 0
SEQEND
 0
POLYLINE
 8
MESH_130_F0
 66
1
 10
0.0
 20
0.0
 30
0.0
 70
64
 71
50
 72
48
 0
VERTEX
 8
MESH_130_F0
 10
-35
 20
-334
 30
0
 70
192
 0
VERTEX
 8
MESH_130_F0
 10
-35
 20
-334
 30
-25
 70
192
 0
VERTEX
 8
MESH_130_F0
 10
-36.662
 20
-333.9415
 30
-25
 70
192
 0
VERTEX
 8
MESH_130_F0
 10
-38.2952
 20
-333.78
 30
-25
 70
192
 0
VERTEX
 8
MESH_130_F0
 10
-39.9028
 20
-333.5143
 30
-25
 70
192
 0
VERTEX
 8
MESH_130_F0
 10
-41.4876
 20
-333.1435
 30
-25
 70
192
 0
VERTEX
 8
MESH_130_F0
 10
-43.0459
 20
-332.6688
 30
-25
 70
192
 0
VERTEX
 8
MESH_130_F0
 10
-44.5756
 20
-332.0918
 30
-25
 70
192
 0
VERTEX
 8
MESH_130_F0
 10
-46.0674
 20
-331.4156
 30
-25
 70
192
 0
VERTEX
 8
MESH_130_F0
 10
-47.5124
 20
-330.6433
 30
-25
 70
192
 0
VERTEX
 8
MESH_130_F0
 10
-48.8996
 20
-329.78
 30
-25
 70
192
 0
VERTEX
 8
MESH_130_F0
 10
-50.2261
 20
-328.8285
 30
-25
 70
192
 0
VERTEX
 8
MESH_130_F0
 10
-51.4869
 20
-327.793
 30
-25
 70
192
 0
VERTEX
 8
MESH_130_F0
 10
-52.6773
 20
-326.6779
 30
-25
 70
192
 0
VERTEX
 8
MESH_130_F0
 10
-53.7924
 20
-325.4875
 30
-25
 70
192
 0
VERTEX
 8
MESH_130_F0
 10
-54.828
 20
-324.2267
 30
-25
 70
192
 0
VERTEX
 8
MESH_130_F0
 10
-55.7796
 20
-322.9003
 30
-25
 70
192
 0
VERTEX
 8
MESH_130_F0
 10
-56.643
 20
-321.5131
 30
-25
 70
192
 0
VERTEX
 8
MESH_130_F0
 10
-57.4153
 20
-320.0681
 30
-25
 70
192
 0
VERTEX
 8
MESH_130_F0
 10
-58.0916
 20
-318.5761
 30
-25
 70
192
 0
VERTEX
 8
MESH_130_F0
 10
-58.6687
 20
-317.0464
 30
-25
 70
192
 0
VERTEX
 8
MESH_130_F0
 10
-59.1434
 20
-315.4881
 30
-25
 70
192
 0
VERTEX
 8
MESH_130_F0
 10
-59.5142
 20
-313.9031
 30
-25
 70
192
 0
VERTEX
 8
MESH_130_F0
 10
-59.7799
 20
-312.2955
 30
-25
 70
192
 0
VERTEX
 8
MESH_130_F0
 10
-59.9415
 20
-310.6621
 30
-25
 70
192
 0
VERTEX
 8
MESH_130_F0
 10
-60
 20
-309
 30
-25
 70
192
 0
VERTEX
 8
MESH_130_F0
 10
-60
 20
-309
 30
0
 70
192
 0
VERTEX
 8
MESH_130_F0
 10
-59.9415
 20
-310.662
 30
0
 70
192
 0
VERTEX
 8
MESH_130_F0
 10
-59.78
 20
-312.2953
 30
0
 70
192
 0
VERTEX
 8
MESH_130_F0
 10
-59.5143
 20
-313.9028
 30
0
 70
192
 0
VERTEX
 8
MESH_130_F0
 10
-59.1435
 20
-315.4876
 30
0
 70
192
 0
VERTEX
 8
MESH_130_F0
 10
-58.6688
 20
-317.0459
 30
0
 70
192
 0
VERTEX
 8
MESH_130_F0
 10
-58.0918
 20
-318.5756
 30
0
 70
192
 0
VERTEX
 8
MESH_130_F0
 10
-57.4156
 20
-320.0674
 30
0
 70
192
 0
VERTEX
 8
MESH_130_F0
 10
-56.6434
 20
-321.5124
 30
0
 70
192
 0
VERTEX
 8
MESH_130_F0
 10
-55.78
 20
-322.8996
 30
0
 70
192
 0
VERTEX
 8
MESH_130_F0
 10
-54.8285
 20
-324.226
 30
0
 70
192
 0
VERTEX
 8
MESH_130_F0
 10
-53.793
 20
-325.4869
 30
0
 70
192
 0
VERTEX
 8
MESH_130_F0
 10
-52.6779
 20
-326.6773
 30
0
 70
192
 0
VERTEX
 8
MESH_130_F0
 10
-51.4875
 20
-327.7924
 30
0
 70
192
 0
VERTEX
 8
MESH_130_F0
 10
-50.2267
 20
-328.828
 30
0
 70
192
 0
VERTEX
 8
MESH_130_F0
 10
-48.9003
 20
-329.7796
 30
0
 70
192
 0
VERTEX
 8
MESH_130_F0
 10
-47.5131
 20
-330.643
 30
0
 70
192
 0
VERTEX
 8
MESH_130_F0
 10
-46.0681
 20
-331.4153
 30
0
 70
192
 0
VERTEX
 8
MESH_130_F0
 10
-44.5762
 20
-332.0916
 30
0
 70
192
 0
VERTEX
 8
MESH_130_F0
 10
-43.0464
 20
-332.6687
 30
0
 70
192
 0
VERTEX
 8
MESH_130_F0
 10
-41.4881
 20
-333.1434
 30
0
 70
192
 0
VERTEX
 8
MESH_130_F0
 10
-39.9031
 20
-333.5142
 30
0
 70
192
 0
VERTEX
 8
MESH_130_F0
 10
-38.2955
 20
-333.7799
 30
0
 70
192
 0
VERTEX
 8
MESH_130_F0
 10
-36.6621
 20
-333.9415
 30
0
 70
192
 0
VERTEX
 8
MESH_130_F0
 10
0
 20
0
 30
0
 70
128
 71
50
 72
2
 73
1
 74
1
 0
VERTEX
 8
MESH_130_F0
 10
0
 20
0
 30
0
 70
128
 71
3
 72
2
 73
50
 74
50
 0
VERTEX
 8
MESH_130_F0
 10
0
 20
0
 30
0
 70
128
 71
3
 72
50
 73
4
 74
4
 0
VERTEX
 8
MESH_130_F0
 10
0
 20
0
 30
0
 70
128
 71
50
 72
49
 73
4
 74
4
 0
VERTEX
 8
MESH_130_F0
 10
0
 20
0
 30
0
 70
128
 71
49
 72
5
 73
4
 74
4
 0
VERTEX
 8
MESH_130_F0
 10
0
 20
0
 30
0
 70
128
 71
48
 72
5
 73
49
 74
49
 0
VERTEX
 8
MESH_130_F0
 10
0
 20
0
 30
0
 70
128
 71
6
 72
5
 73
48
 74
48
 0
VERTEX
 8
MESH_130_F0
 10
0
 20
0
 30
0
 70
128
 71
7
 72
6
 73
47
 74
47
 0
VERTEX
 8
MESH_130_F0
 10
0
 20
0
 30
0
 70
128
 71
8
 72
7
 73
46
 74
46
 0
VERTEX
 8
MESH_130_F0
 10
0
 20
0
 30
0
 70
128
 71
9
 72
8
 73
45
 74
45
 0
VERTEX
 8
MESH_130_F0
 10
0
 20
0
 30
0
 70
128
 71
10
 72
9
 73
44
 74
44
 0
VERTEX
 8
MESH_130_F0
 10
0
 20
0
 30
0
 70
128
 71
11
 72
10
 73
43
 74
43
 0
VERTEX
 8
MESH_130_F0
 10
0
 20
0
 30
0
 70
128
 71
12
 72
11
 73
42
 74
42
 0
VERTEX
 8
MESH_130_F0
 10
0
 20
0
 30
0
 70
128
 71
13
 72
12
 73
41
 74
41
 0
VERTEX
 8
MESH_130_F0
 10
0
 20
0
 30
0
 70
128
 71
14
 72
13
 73
40
 74
40
 0
VERTEX
 8
MESH_130_F0
 10
0
 20
0
 30
0
 70
128
 71
15
 72
14
 73
39
 74
39
 0
VERTEX
 8
MESH_130_F0
 10
0
 20
0
 30
0
 70
128
 71
16
 72
15
 73
38
 74
38
 0
VERTEX
 8
MESH_130_F0
 10
0
 20
0
 30
0
 70
128
 71
17
 72
16
 73
37
 74
37
 0
VERTEX
 8
MESH_130_F0
 10
0
 20
0
 30
0
 70
128
 71
18
 72
17
 73
36
 74
36
 0
VERTEX
 8
MESH_130_F0
 10
0
 20
0
 30
0
 70
128
 71
19
 72
18
 73
35
 74
35
 0
VERTEX
 8
MESH_130_F0
 10
0
 20
0
 30
0
 70
128
 71
20
 72
19
 73
34
 74
34
 0
VERTEX
 8
MESH_130_F0
 10
0
 20
0
 30
0
 70
128
 71
21
 72
20
 73
33
 74
33
 0
VERTEX
 8
MESH_130_F0
 10
0
 20
0
 30
0
 70
128
 71
22
 72
21
 73
32
 74
32
 0
VERTEX
 8
MESH_130_F0
 10
0
 20
0
 30
0
 70
128
 71
23
 72
22
 73
31
 74
31
 0
VERTEX
 8
MESH_130_F0
 10
0
 20
0
 30
0
 70
128
 71
24
 72
23
 73
30
 74
30
 0
VERTEX
 8
MESH_130_F0
 10
0
 20
0
 30
0
 70
128
 71
25
 72
24
 73
29
 74
29
 0
VERTEX
 8
MESH_130_F0
 10
0
 20
0
 30
0
 70
128
 71
26
 72
25
 73
28
 74
28
 0
VERTEX
 8
MESH_130_F0
 10
0
 20
0
 30
0
 70
128
 71
26
 72
28
 73
27
 74
27
 0
VERTEX
 8
MESH_130_F0
 10
0
 20
0
 30
0
 70
128
 71
25
 72
29
 73
28
 74
28
 0
VERTEX
 8
MESH_130_F0
 10
0
 20
0
 30
0
 70
128
 71
24
 72
30
 73
29
 74
29
 0
VERTEX
 8
MESH_130_F0
 10
0
 20
0
 30
0
 70
128
 71
23
 72
31
 73
30
 74
30
 0
VERTEX
 8
MESH_130_F0
 10
0
 20
0
 30
0
 70
128
 71
22
 72
32
 73
31
 74
31
 0
VERTEX
 8
MESH_130_F0
 10
0
 20
0
 30
0
 70
128
 71
21
 72
33
 73
32
 74
32
 0
VERTEX
 8
MESH_130_F0
 10
0
 20
0
 30
0
 70
128
 71
20
 72
34
 73
33
 74
33
 0
VERTEX
 8
MESH_130_F0
 10
0
 20
0
 30
0
 70
128
 71
19
 72
35
 73
34
 74
34
 0
VERTEX
 8
MESH_130_F0
 10
0
 20
0
 30
0
 70
128
 71
18
 72
36
 73
35
 74
35
 0
VERTEX
 8
MESH_130_F0
 10
0
 20
0
 30
0
 70
128
 71
17
 72
37
 73
36
 74
36
 0
VERTEX
 8
MESH_130_F0
 10
0
 20
0
 30
0
 70
128
 71
16
 72
38
 73
37
 74
37
 0
VERTEX
 8
MESH_130_F0
 10
0
 20
0
 30
0
 70
128
 71
15
 72
39
 73
38
 74
38
 0
VERTEX
 8
MESH_130_F0
 10
0
 20
0
 30
0
 70
128
 71
14
 72
40
 73
39
 74
39
 0
VERTEX
 8
MESH_130_F0
 10
0
 20
0
 30
0
 70
128
 71
13
 72
41
 73
40
 74
40
 0
VERTEX
 8
MESH_130_F0
 10
0
 20
0
 30
0
 70
128
 71
12
 72
42
 73
41
 74
41
 0
VERTEX
 8
MESH_130_F0
 10
0
 20
0
 30
0
 70
128
 71
11
 72
43
 73
42
 74
42
 0
VERTEX
 8
MESH_130_F0
 10
0
 20
0
 30
0
 70
128
 71
10
 72
44
 73
43
 74
43
 0
VERTEX
 8
MESH_130_F0
 10
0
 20
0
 30
0
 70
128
 71
9
 72
45
 73
44
 74
44
 0
VERTEX
 8
MESH_130_F0
 10
0
 20
0
 30
0
 70
128
 71
8
 72
46
 73
45
 74
45
 0
VERTEX
 8
MESH_130_F0
 10
0
 20
0
 30
0
 70
128
 71
7
 72
47
 73
46
 74
46
 0
VERTEX
 8
MESH_130_F0
 10
0
 20
0
 30
0
 70
128
 71
6
 72
48
 73
47
 74
47
 0
SEQEND
 0
POLYLINE
 8
MESH_129_F0
 66
1
 10
0.0
 20
0.0
 30
0.0
 70
64
 71
4
 72
2
 0
VERTEX
 8
MESH_129_F0
 10
-60
 20
-309
 30
0
 70
192
 0
VERTEX
 8
MESH_129_F0
 10
-60
 20
-309
 30
-25
 70
192
 0
VERTEX
 8
MESH_129_F0
 10
-60
 20
-131
 30
-25
 70
192
 0
VERTEX
 8
MESH_129_F0
 10
-60
 20
-131
 30
0
 70
192
 0
VERTEX
 8
MESH_129_F0
 10
0
 20
0
 30
0
 70
128
 71
1
 72
3
 73
2
 74
2
 0
VERTEX
 8
MESH_129_F0
 10
0
 20
0
 30
0
 70
128
 71
4
 72
3
 73
1
 74
1
 0
SEQEND
 0
POLYLINE
 8
MESH_128_F0
 66
1
 10
0.0
 20
0.0
 30
0.0
 70
64
 71
50
 72
48
 0
VERTEX
 8
MESH_128_F0
 10
-60
 20
-131
 30
0
 70
192
 0
VERTEX
 8
MESH_128_F0
 10
-60
 20
-131
 30
-25
 70
192
 0
VERTEX
 8
MESH_128_F0
 10
-59.9415
 20
-129.338
 30
-25
 70
192
 0
VERTEX
 8
MESH_128_F0
 10
-59.78
 20
-127.7047
 30
-25
 70
192
 0
VERTEX
 8
MESH_128_F0
 10
-59.5143
 20
-126.0972
 30
-25
 70
192
 0
VERTEX
 8
MESH_128_F0
 10
-59.1435
 20
-124.5123
 30
-25
 70
192
 0
VERTEX
 8
MESH_128_F0
 10
-58.6688
 20
-122.9541
 30
-25
 70
192
 0
VERTEX
 8
MESH_128_F0
 10
-58.0918
 20
-121.4244
 30
-25
 70
192
 0
VERTEX
 8
MESH_128_F0
 10
-57.4156
 20
-119.9325
 30
-25
 70
192
 0
VERTEX
 8
MESH_128_F0
 10
-56.6434
 20
-118.4876
 30
-25
 70
192
 0
VERTEX
 8
MESH_128_F0
 10
-55.78
 20
-117.1004
 30
-25
 70
192
 0
VERTEX
 8
MESH_128_F0
 10
-54.8285
 20
-115.7739
 30
-25
 70
192
 0
VERTEX
 8
MESH_128_F0
 10
-53.793
 20
-114.5131
 30
-25
 70
192
 0
VERTEX
 8
MESH_128_F0
 10
-52.6779
 20
-113.3227
 30
-25
 70
192
 0
VERTEX
 8
MESH_128_F0
 10
-51.4875
 20
-112.2076
 30
-25
 70
192
 0
VERTEX
 8
MESH_128_F0
 10
-50.2267
 20
-111.172
 30
-25
 70
192
 0
VERTEX
 8
MESH_128_F0
 10
-48.9003
 20
-110.2204
 30
-25
 70
192
 0
VERTEX
 8
MESH_128_F0
 10
-47.5131
 20
-109.357
 30
-25
 70
192
 0
VERTEX
 8
MESH_128_F0
 10
-46.0681
 20
-108.5847
 30
-25
 70
192
 0
VERTEX
 8
MESH_128_F0
 10
-44.5762
 20
-107.9084
 30
-25
 70
192
 0
VERTEX
 8
MESH_128_F0
 10
-43.0464
 20
-107.3313
 30
-25
 70
192
 0
VERTEX
 8
MESH_128_F0
 10
-41.4881
 20
-106.8566
 30
-25
 70
192
 0
VERTEX
 8
MESH_128_F0
 10
-39.9031
 20
-106.4858
 30
-25
 70
192
 0
VERTEX
 8
MESH_128_F0
 10
-38.2955
 20
-106.2201
 30
-25
 70
192
 0
VERTEX
 8
MESH_128_F0
 10
-36.6621
 20
-106.0585
 30
-25
 70
192
 0
VERTEX
 8
MESH_128_F0
 10
-35
 20
-106
 30
-25
 70
192
 0
VERTEX
 8
MESH_128_F0
 10
-35
 20
-106
 30
0
 70
192
 0
VERTEX
 8
MESH_128_F0
 10
-36.662
 20
-106.0585
 30
0
 70
192
 0
VERTEX
 8
MESH_128_F0
 10
-38.2952
 20
-106.22
 30
0
 70
192
 0
VERTEX
 8
MESH_128_F0
 10
-39.9028
 20
-106.4857
 30
0
 70
192
 0
VERTEX
 8
MESH_128_F0
 10
-41.4876
 20
-106.8565
 30
0
 70
192
 0
VERTEX
 8
MESH_128_F0
 10
-43.0459
 20
-107.3311
 30
0
 70
192
 0
VERTEX
 8
MESH_128_F0
 10
-44.5756
 20
-107.9082
 30
0
 70
192
 0
VERTEX
 8
MESH_128_F0
 10
-46.0674
 20
-108.5844
 30
0
 70
192
 0
VERTEX
 8
MESH_128_F0
 10
-47.5124
 20
-109.3566
 30
0
 70
192
 0
VERTEX
 8
MESH_128_F0
 10
-48.8996
 20
-110.22
 30
0
 70
192
 0
VERTEX
 8
MESH_128_F0
 10
-50.2261
 20
-111.1715
 30
0
 70
192
 0
VERTEX
 8
MESH_128_F0
 10
-51.4869
 20
-112.207
 30
0
 70
192
 0
VERTEX
 8
MESH_128_F0
 10
-52.6773
 20
-113.3221
 30
0
 70
192
 0
VERTEX
 8
MESH_128_F0
 10
-53.7924
 20
-114.5125
 30
0
 70
192
 0
VERTEX
 8
MESH_128_F0
 10
-54.828
 20
-115.7733
 30
0
 70
192
 0
VERTEX
 8
MESH_128_F0
 10
-55.7796
 20
-117.0997
 30
0
 70
192
 0
VERTEX
 8
MESH_128_F0
 10
-56.643
 20
-118.4869
 30
0
 70
192
 0
VERTEX
 8
MESH_128_F0
 10
-57.4153
 20
-119.9319
 30
0
 70
192
 0
VERTEX
 8
MESH_128_F0
 10
-58.0916
 20
-121.4239
 30
0
 70
192
 0
VERTEX
 8
MESH_128_F0
 10
-58.6687
 20
-122.9536
 30
0
 70
192
 0
VERTEX
 8
MESH_128_F0
 10
-59.1434
 20
-124.5119
 30
0
 70
192
 0
VERTEX
 8
MESH_128_F0
 10
-59.5142
 20
-126.0969
 30
0
 70
192
 0
VERTEX
 8
MESH_128_F0
 10
-59.7799
 20
-127.7045
 30
0
 70
192
 0
VERTEX
 8
MESH_128_F0
 10
-59.9415
 20
-129.3378
 30
0
 70
192
 0
VERTEX
 8
MESH_128_F0
 10
0
 20
0
 30
0
 70
128
 71
50
 72
2
 73
1
 74
1
 0
VERTEX
 8
MESH_128_F0
 10
0
 20
0
 30
0
 70
128
 71
3
 72
2
 73
50
 74
50
 0
VERTEX
 8
MESH_128_F0
 10
0
 20
0
 30
0
 70
128
 71
3
 72
50
 73
4
 74
4
 0
VERTEX
 8
MESH_128_F0
 10
0
 20
0
 30
0
 70
128
 71
50
 72
49
 73
4
 74
4
 0
VERTEX
 8
MESH_128_F0
 10
0
 20
0
 30
0
 70
128
 71
49
 72
5
 73
4
 74
4
 0
VERTEX
 8
MESH_128_F0
 10
0
 20
0
 30
0
 70
128
 71
48
 72
5
 73
49
 74
49
 0
VERTEX
 8
MESH_128_F0
 10
0
 20
0
 30
0
 70
128
 71
6
 72
5
 73
48
 74
48
 0
VERTEX
 8
MESH_128_F0
 10
0
 20
0
 30
0
 70
128
 71
7
 72
6
 73
47
 74
47
 0
VERTEX
 8
MESH_128_F0
 10
0
 20
0
 30
0
 70
128
 71
8
 72
7
 73
46
 74
46
 0
VERTEX
 8
MESH_128_F0
 10
0
 20
0
 30
0
 70
128
 71
9
 72
8
 73
45
 74
45
 0
VERTEX
 8
MESH_128_F0
 10
0
 20
0
 30
0
 70
128
 71
10
 72
9
 73
44
 74
44
 0
VERTEX
 8
MESH_128_F0
 10
0
 20
0
 30
0
 70
128
 71
11
 72
10
 73
43
 74
43
 0
VERTEX
 8
MESH_128_F0
 10
0
 20
0
 30
0
 70
128
 71
12
 72
11
 73
42
 74
42
 0
VERTEX
 8
MESH_128_F0
 10
0
 20
0
 30
0
 70
128
 71
13
 72
12
 73
41
 74
41
 0
VERTEX
 8
MESH_128_F0
 10
0
 20
0
 30
0
 70
128
 71
14
 72
13
 73
40
 74
40
 0
VERTEX
 8
MESH_128_F0
 10
0
 20
0
 30
0
 70
128
 71
15
 72
14
 73
39
 74
39
 0
VERTEX
 8
MESH_128_F0
 10
0
 20
0
 30
0
 70
128
 71
16
 72
15
 73
38
 74
38
 0
VERTEX
 8
MESH_128_F0
 10
0
 20
0
 30
0
 70
128
 71
17
 72
16
 73
37
 74
37
 0
VERTEX
 8
MESH_128_F0
 10
0
 20
0
 30
0
 70
128
 71
18
 72
17
 73
36
 74
36
 0
VERTEX
 8
MESH_128_F0
 10
0
 20
0
 30
0
 70
128
 71
19
 72
18
 73
35
 74
35
 0
VERTEX
 8
MESH_128_F0
 10
0
 20
0
 30
0
 70
128
 71
20
 72
19
 73
34
 74
34
 0
VERTEX
 8
MESH_128_F0
 10
0
 20
0
 30
0
 70
128
 71
21
 72
20
 73
33
 74
33
 0
VERTEX
 8
MESH_128_F0
 10
0
 20
0
 30
0
 70
128
 71
22
 72
21
 73
32
 74
32
 0
VERTEX
 8
MESH_128_F0
 10
0
 20
0
 30
0
 70
128
 71
23
 72
22
 73
31
 74
31
 0
VERTEX
 8
MESH_128_F0
 10
0
 20
0
 30
0
 70
128
 71
24
 72
23
 73
30
 74
30
 0
VERTEX
 8
MESH_128_F0
 10
0
 20
0
 30
0
 70
128
 71
25
 72
24
 73
29
 74
29
 0
VERTEX
 8
MESH_128_F0
 10
0
 20
0
 30
0
 70
128
 71
26
 72
25
 73
28
 74
28
 0
VERTEX
 8
MESH_128_F0
 10
0
 20
0
 30
0
 70
128
 71
26
 72
28
 73
27
 74
27
 0
VERTEX
 8
MESH_128_F0
 10
0
 20
0
 30
0
 70
128
 71
25
 72
29
 73
28
 74
28
 0
VERTEX
 8
MESH_128_F0
 10
0
 20
0
 30
0
 70
128
 71
24
 72
30
 73
29
 74
29
 0
VERTEX
 8
MESH_128_F0
 10
0
 20
0
 30
0
 70
128
 71
23
 72
31
 73
30
 74
30
 0
VERTEX
 8
MESH_128_F0
 10
0
 20
0
 30
0
 70
128
 71
22
 72
32
 73
31
 74
31
 0
VERTEX
 8
MESH_128_F0
 10
0
 20
0
 30
0
 70
128
 71
21
 72
33
 73
32
 74
32
 0
VERTEX
 8
MESH_128_F0
 10
0
 20
0
 30
0
 70
128
 71
20
 72
34
 73
33
 74
33
 0
VERTEX
 8
MESH_128_F0
 10
0
 20
0
 30
0
 70
128
 71
19
 72
35
 73
34
 74
34
 0
VERTEX
 8
MESH_128_F0
 10
0
 20
0
 30
0
 70
128
 71
18
 72
36
 73
35
 74
35
 0
VERTEX
 8
MESH_128_F0
 10
0
 20
0
 30
0
 70
128
 71
17
 72
37
 73
36
 74
36
 0
VERTEX
 8
MESH_128_F0
 10
0
 20
0
 30
0
 70
128
 71
16
 72
38
 73
37
 74
37
 0
VERTEX
 8
MESH_128_F0
 10
0
 20
0
 30
0
 70
128
 71
15
 72
39
 73
38
 74
38
 0
VERTEX
 8
MESH_128_F0
 10
0
 20
0
 30
0
 70
128
 71
14
 72
40
 73
39
 74
39
 0
VERTEX
 8
MESH_128_F0
 10
0
 20
0
 30
0
 70
128
 71
13
 72
41
 73
40
 74
40
 0
VERTEX
 8
MESH_128_F0
 10
0
 20
0
 30
0
 70
128
 71
12
 72
42
 73
41
 74
41
 0
VERTEX
 8
MESH_128_F0
 10
0
 20
0
 30
0
 70
128
 71
11
 72
43
 73
42
 74
42
 0
VERTEX
 8
MESH_128_F0
 10
0
 20
0
 30
0
 70
128
 71
10
 72
44
 73
43
 74
43
 0
VERTEX
 8
MESH_128_F0
 10
0
 20
0
 30
0
 70
128
 71
9
 72
45
 73
44
 74
44
 0
VERTEX
 8
MESH_128_F0
 10
0
 20
0
 30
0
 70
128
 71
8
 72
46
 73
45
 74
45
 0
VERTEX
 8
MESH_128_F0
 10
0
 20
0
 30
0
 70
128
 71
7
 72
47
 73
46
 74
46
 0
VERTEX
 8
MESH_128_F0
 10
0
 20
0
 30
0
 70
128
 71
6
 72
48
 73
47
 74
47
 0
SEQEND
 0
POLYLINE
 8
MESH_127_F0
 66
1
 10
0.0
 20
0.0
 30
0.0
 70
64
 71
152
 72
152
 0
VERTEX
 8
MESH_127_F0
 10
-60
 20
-131
 30
0
 70
192
 0
VERTEX
 8
MESH_127_F0
 10
-59.9415
 20
-129.3378
 30
0
 70
192
 0
VERTEX
 8
MESH_127_F0
 10
-59.7799
 20
-127.7045
 30
0
 70
192
 0
VERTEX
 8
MESH_127_F0
 10
-59.5142
 20
-126.0969
 30
0
 70
192
 0
VERTEX
 8
MESH_127_F0
 10
-59.1434
 20
-124.5119
 30
0
 70
192
 0
VERTEX
 8
MESH_127_F0
 10
-58.6687
 20
-122.9536
 30
0
 70
192
 0
VERTEX
 8
MESH_127_F0
 10
-58.0916
 20
-121.4239
 30
0
 70
192
 0
VERTEX
 8
MESH_127_F0
 10
-57.4153
 20
-119.9319
 30
0
 70
192
 0
VERTEX
 8
MESH_127_F0
 10
-56.643
 20
-118.4869
 30
0
 70
192
 0
VERTEX
 8
MESH_127_F0
 10
-55.7796
 20
-117.0997
 30
0
 70
192
 0
VERTEX
 8
MESH_127_F0
 10
-54.828
 20
-115.7733
 30
0
 70
192
 0
VERTEX
 8
MESH_127_F0
 10
-53.7924
 20
-114.5125
 30
0
 70
192
 0
VERTEX
 8
MESH_127_F0
 10
-52.6773
 20
-113.3221
 30
0
 70
192
 0
VERTEX
 8
MESH_127_F0
 10
-51.4869
 20
-112.207
 30
0
 70
192
 0
VERTEX
 8
MESH_127_F0
 10
-50.2261
 20
-111.1715
 30
0
 70
192
 0
VERTEX
 8
MESH_127_F0
 10
-48.8996
 20
-110.22
 30
0
 70
192
 0
VERTEX
 8
MESH_127_F0
 10
-47.5124
 20
-109.3566
 30
0
 70
192
 0
VERTEX
 8
MESH_127_F0
 10
-46.0674
 20
-108.5844
 30
0
 70
192
 0
VERTEX
 8
MESH_127_F0
 10
-44.5756
 20
-107.9082
 30
0
 70
192
 0
VERTEX
 8
MESH_127_F0
 10
-43.0459
 20
-107.3311
 30
0
 70
192
 0
VERTEX
 8
MESH_127_F0
 10
-41.4876
 20
-106.8565
 30
0
 70
192
 0
VERTEX
 8
MESH_127_F0
 10
-39.9028
 20
-106.4857
 30
0
 70
192
 0
VERTEX
 8
MESH_127_F0
 10
-38.2952
 20
-106.22
 30
0
 70
192
 0
VERTEX
 8
MESH_127_F0
 10
-36.662
 20
-106.0585
 30
0
 70
192
 0
VERTEX
 8
MESH_127_F0
 10
-35
 20
-106
 30
0
 70
192
 0
VERTEX
 8
MESH_127_F0
 10
35
 20
-106
 30
0
 70
192
 0
VERTEX
 8
MESH_127_F0
 10
36.6621
 20
-106.0585
 30
0
 70
192
 0
VERTEX
 8
MESH_127_F0
 10
38.2955
 20
-106.2201
 30
0
 70
192
 0
VERTEX
 8
MESH_127_F0
 10
39.9031
 20
-106.4858
 30
0
 70
192
 0
VERTEX
 8
MESH_127_F0
 10
41.4881
 20
-106.8566
 30
0
 70
192
 0
VERTEX
 8
MESH_127_F0
 10
43.0464
 20
-107.3313
 30
0
 70
192
 0
VERTEX
 8
MESH_127_F0
 10
44.5762
 20
-107.9084
 30
0
 70
192
 0
VERTEX
 8
MESH_127_F0
 10
46.0681
 20
-108.5847
 30
0
 70
192
 0
VERTEX
 8
MESH_127_F0
 10
47.5131
 20
-109.357
 30
0
 70
192
 0
VERTEX
 8
MESH_127_F0
 10
48.9003
 20
-110.2204
 30
0
 70
192
 0
VERTEX
 8
MESH_127_F0
 10
50.2267
 20
-111.172
 30
0
 70
192
 0
VERTEX
 8
MESH_127_F0
 10
51.4875
 20
-112.2076
 30
0
 70
192
 0
VERTEX
 8
MESH_127_F0
 10
52.6779
 20
-113.3227
 30
0
 70
192
 0
VERTEX
 8
MESH_127_F0
 10
53.793
 20
-114.5131
 30
0
 70
192
 0
VERTEX
 8
MESH_127_F0
 10
54.8285
 20
-115.7739
 30
0
 70
192
 0
VERTEX
 8
MESH_127_F0
 10
55.78
 20
-117.1004
 30
0
 70
192
 0
VERTEX
 8
MESH_127_F0
 10
56.6434
 20
-118.4876
 30
0
 70
192
 0
VERTEX
 8
MESH_127_F0
 10
57.4156
 20
-119.9325
 30
0
 70
192
 0
VERTEX
 8
MESH_127_F0
 10
58.0918
 20
-121.4244
 30
0
 70
192
 0
VERTEX
 8
MESH_127_F0
 10
58.6688
 20
-122.9541
 30
0
 70
192
 0
VERTEX
 8
MESH_127_F0
 10
59.1435
 20
-124.5123
 30
0
 70
192
 0
VERTEX
 8
MESH_127_F0
 10
59.5143
 20
-126.0972
 30
0
 70
192
 0
VERTEX
 8
MESH_127_F0
 10
59.78
 20
-127.7047
 30
0
 70
192
 0
VERTEX
 8
MESH_127_F0
 10
59.9415
 20
-129.338
 30
0
 70
192
 0
VERTEX
 8
MESH_127_F0
 10
60
 20
-131
 30
0
 70
192
 0
VERTEX
 8
MESH_127_F0
 10
60
 20
-309
 30
0
 70
192
 0
VERTEX
 8
MESH_127_F0
 10
59.9415
 20
-310.6621
 30
0
 70
192
 0
VERTEX
 8
MESH_127_F0
 10
59.7799
 20
-312.2955
 30
0
 70
192
 0
VERTEX
 8
MESH_127_F0
 10
59.5142
 20
-313.9031
 30
0
 70
192
 0
VERTEX
 8
MESH_127_F0
 10
59.1434
 20
-315.4881
 30
0
 70
192
 0
VERTEX
 8
MESH_127_F0
 10
58.6687
 20
-317.0464
 30
0
 70
192
 0
VERTEX
 8
MESH_127_F0
 10
58.0916
 20
-318.5761
 30
0
 70
192
 0
VERTEX
 8
MESH_127_F0
 10
57.4153
 20
-320.0681
 30
0
 70
192
 0
VERTEX
 8
MESH_127_F0
 10
56.643
 20
-321.5131
 30
0
 70
192
 0
VERTEX
 8
MESH_127_F0
 10
55.7796
 20
-322.9003
 30
0
 70
192
 0
VERTEX
 8
MESH_127_F0
 10
54.828
 20
-324.2267
 30
0
 70
192
 0
VERTEX
 8
MESH_127_F0
 10
53.7924
 20
-325.4875
 30
0
 70
192
 0
VERTEX
 8
MESH_127_F0
 10
52.6773
 20
-326.6779
 30
0
 70
192
 0
VERTEX
 8
MESH_127_F0
 10
51.4869
 20
-327.793
 30
0
 70
192
 0
VERTEX
 8
MESH_127_F0
 10
50.2261
 20
-328.8285
 30
0
 70
192
 0
VERTEX
 8
MESH_127_F0
 10
48.8996
 20
-329.78
 30
0
 70
192
 0
VERTEX
 8
MESH_127_F0
 10
47.5124
 20
-330.6433
 30
0
 70
192
 0
VERTEX
 8
MESH_127_F0
 10
46.0674
 20
-331.4156
 30
0
 70
192
 0
VERTEX
 8
MESH_127_F0
 10
44.5756
 20
-332.0918
 30
0
 70
192
 0
VERTEX
 8
MESH_127_F0
 10
43.0459
 20
-332.6688
 30
0
 70
192
 0
VERTEX
 8
MESH_127_F0
 10
41.4876
 20
-333.1435
 30
0
 70
192
 0
VERTEX
 8
MESH_127_F0
 10
39.9028
 20
-333.5143
 30
0
 70
192
 0
VERTEX
 8
MESH_127_F0
 10
38.2952
 20
-333.78
 30
0
 70
192
 0
VERTEX
 8
MESH_127_F0
 10
36.662
 20
-333.9415
 30
0
 70
192
 0
VERTEX
 8
MESH_127_F0
 10
35
 20
-334
 30
0
 70
192
 0
VERTEX
 8
MESH_127_F0
 10
-35
 20
-334
 30
0
 70
192
 0
VERTEX
 8
MESH_127_F0
 10
-36.6621
 20
-333.9415
 30
0
 70
192
 0
VERTEX
 8
MESH_127_F0
 10
-38.2955
 20
-333.7799
 30
0
 70
192
 0
VERTEX
 8
MESH_127_F0
 10
-39.9031
 20
-333.5142
 30
0
 70
192
 0
VERTEX
 8
MESH_127_F0
 10
-41.4881
 20
-333.1434
 30
0
 70
192
 0
VERTEX
 8
MESH_127_F0
 10
-43.0464
 20
-332.6687
 30
0
 70
192
 0
VERTEX
 8
MESH_127_F0
 10
-44.5762
 20
-332.0916
 30
0
 70
192
 0
VERTEX
 8
MESH_127_F0
 10
-46.0681
 20
-331.4153
 30
0
 70
192
 0
VERTEX
 8
MESH_127_F0
 10
-47.5131
 20
-330.643
 30
0
 70
192
 0
VERTEX
 8
MESH_127_F0
 10
-48.9003
 20
-329.7796
 30
0
 70
192
 0
VERTEX
 8
MESH_127_F0
 10
-50.2267
 20
-328.828
 30
0
 70
192
 0
VERTEX
 8
MESH_127_F0
 10
-51.4875
 20
-327.7924
 30
0
 70
192
 0
VERTEX
 8
MESH_127_F0
 10
-52.6779
 20
-326.6773
 30
0
 70
192
 0
VERTEX
 8
MESH_127_F0
 10
-53.793
 20
-325.4869
 30
0
 70
192
 0
VERTEX
 8
MESH_127_F0
 10
-54.8285
 20
-324.226
 30
0
 70
192
 0
VERTEX
 8
MESH_127_F0
 10
-55.78
 20
-322.8996
 30
0
 70
192
 0
VERTEX
 8
MESH_127_F0
 10
-56.6434
 20
-321.5124
 30
0
 70
192
 0
VERTEX
 8
MESH_127_F0
 10
-57.4156
 20
-320.0674
 30
0
 70
192
 0
VERTEX
 8
MESH_127_F0
 10
-58.0918
 20
-318.5756
 30
0
 70
192
 0
VERTEX
 8
MESH_127_F0
 10
-58.6688
 20
-317.0459
 30
0
 70
192
 0
VERTEX
 8
MESH_127_F0
 10
-59.1435
 20
-315.4876
 30
0
 70
192
 0
VERTEX
 8
MESH_127_F0
 10
-59.5143
 20
-313.9028
 30
0
 70
192
 0
VERTEX
 8
MESH_127_F0
 10
-59.78
 20
-312.2953
 30
0
 70
192
 0
VERTEX
 8
MESH_127_F0
 10
-59.9415
 20
-310.662
 30
0
 70
192
 0
VERTEX
 8
MESH_127_F0
 10
-60
 20
-309
 30
0
 70
192
 0
VERTEX
 8
MESH_127_F0
 10
-500
 20
0
 30
0
 70
192
 0
VERTEX
 8
MESH_127_F0
 10
-500
 20
-417
 30
0
 70
192
 0
VERTEX
 8
MESH_127_F0
 10
-499.9462
 20
-418.5291
 30
0
 70
192
 0
VERTEX
 8
MESH_127_F0
 10
-499.7975
 20
-420.0319
 30
0
 70
192
 0
VERTEX
 8
MESH_127_F0
 10
-499.5531
 20
-421.5109
 30
0
 70
192
 0
VERTEX
 8
MESH_127_F0
 10
-499.2119
 20
-422.9691
 30
0
 70
192
 0
VERTEX
 8
MESH_127_F0
 10
-498.7752
 20
-424.4027
 30
0
 70
192
 0
VERTEX
 8
MESH_127_F0
 10
-498.2442
 20
-425.8101
 30
0
 70
192
 0
VERTEX
 8
MESH_127_F0
 10
-497.622
 20
-427.1826
 30
0
 70
192
 0
VERTEX
 8
MESH_127_F0
 10
-496.9115
 20
-428.512
 30
0
 70
192
 0
VERTEX
 8
MESH_127_F0
 10
-496.1172
 20
-429.7882
 30
0
 70
192
 0
VERTEX
 8
MESH_127_F0
 10
-495.2417
 20
-431.0086
 30
0
 70
192
 0
VERTEX
 8
MESH_127_F0
 10
-494.289
 20
-432.1685
 30
0
 70
192
 0
VERTEX
 8
MESH_127_F0
 10
-493.2631
 20
-433.2637
 30
0
 70
192
 0
VERTEX
 8
MESH_127_F0
 10
-492.1679
 20
-434.2896
 30
0
 70
192
 0
VERTEX
 8
MESH_127_F0
 10
-491.008
 20
-435.2422
 30
0
 70
192
 0
VERTEX
 8
MESH_127_F0
 10
-489.7876
 20
-436.1176
 30
0
 70
192
 0
VERTEX
 8
MESH_127_F0
 10
-488.5114
 20
-436.9119
 30
0
 70
192
 0
VERTEX
 8
MESH_127_F0
 10
-487.182
 20
-437.6224
 30
0
 70
192
 0
VERTEX
 8
MESH_127_F0
 10
-485.8095
 20
-438.2445
 30
0
 70
192
 0
VERTEX
 8
MESH_127_F0
 10
-484.4022
 20
-438.7753
 30
0
 70
192
 0
VERTEX
 8
MESH_127_F0
 10
-482.9686
 20
-439.212
 30
0
 70
192
 0
VERTEX
 8
MESH_127_F0
 10
-481.5105
 20
-439.5532
 30
0
 70
192
 0
VERTEX
 8
MESH_127_F0
 10
-480.0316
 20
-439.7976
 30
0
 70
192
 0
VERTEX
 8
MESH_127_F0
 10
-478.5291
 20
-439.9462
 30
0
 70
192
 0
VERTEX
 8
MESH_127_F0
 10
-477
 20
-440
 30
0
 70
192
 0
VERTEX
 8
MESH_127_F0
 10
477
 20
-440
 30
0
 70
192
 0
VERTEX
 8
MESH_127_F0
 10
478.5292
 20
-439.9462
 30
0
 70
192
 0
VERTEX
 8
MESH_127_F0
 10
480.0318
 20
-439.7975
 30
0
 70
192
 0
VERTEX
 8
MESH_127_F0
 10
481.5109
 20
-439.5531
 30
0
 70
192
 0
VERTEX
 8
MESH_127_F0
 10
482.9691
 20
-439.2119
 30
0
 70
192
 0
VERTEX
 8
MESH_127_F0
 10
484.4027
 20
-438.7751
 30
0
 70
192
 0
VERTEX
 8
MESH_127_F0
 10
485.8101
 20
-438.2443
 30
0
 70
192
 0
VERTEX
 8
MESH_127_F0
 10
487.1826
 20
-437.6221
 30
0
 70
192
 0
VERTEX
 8
MESH_127_F0
 10
488.512
 20
-436.9115
 30
0
 70
192
 0
VERTEX
 8
MESH_127_F0
 10
489.7883
 20
-436.1172
 30
0
 70
192
 0
VERTEX
 8
MESH_127_F0
 10
491.0086
 20
-435.2417
 30
0
 70
192
 0
VERTEX
 8
MESH_127_F0
 10
492.1685
 20
-434.289
 30
0
 70
192
 0
VERTEX
 8
MESH_127_F0
 10
493.2636
 20
-433.2631
 30
0
 70
192
 0
VERTEX
 8
MESH_127_F0
 10
494.2896
 20
-432.1679
 30
0
 70
192
 0
VERTEX
 8
MESH_127_F0
 10
495.2422
 20
-431.0079
 30
0
 70
192
 0
VERTEX
 8
MESH_127_F0
 10
496.1176
 20
-429.7876
 30
0
 70
192
 0
VERTEX
 8
MESH_127_F0
 10
496.9119
 20
-428.5114
 30
0
 70
192
 0
VERTEX
 8
MESH_127_F0
 10
497.6223
 20
-427.1821
 30
0
 70
192
 0
VERTEX
 8
MESH_127_F0
 10
498.2445
 20
-425.8095
 30
0
 70
192
 0
VERTEX
 8
MESH_127_F0
 10
498.7753
 20
-424.4023
 30
0
 70
192
 0
VERTEX
 8
MESH_127_F0
 10
499.212
 20
-422.9687
 30
0
 70
192
 0
VERTEX
 8
MESH_127_F0
 10
499.5532
 20
-421.5106
 30
0
 70
192
 0
VERTEX
 8
MESH_127_F0
 10
499.7975
 20
-420.0316
 30
0
 70
192
 0
VERTEX
 8
MESH_127_F0
 10
499.9462
 20
-418.5291
 30
0
 70
192
 0
VERTEX
 8
MESH_127_F0
 10
500
 20
-417
 30
0
 70
192
 0
VERTEX
 8
MESH_127_F0
 10
500
 20
0
 30
0
 70
192
 0
VERTEX
 8
MESH_127_F0
 10
0
 20
0
 30
0
 70
128
 71
1
 72
101
 73
2
 74
2
 0
VERTEX
 8
MESH_127_F0
 10
0
 20
0
 30
0
 70
128
 71
101
 72
3
 73
2
 74
2
 0
VERTEX
 8
MESH_127_F0
 10
0
 20
0
 30
0
 70
128
 71
4
 72
3
 73
101
 74
101
 0
VERTEX
 8
MESH_127_F0
 10
0
 20
0
 30
0
 70
128
 71
4
 72
101
 73
5
 74
5
 0
VERTEX
 8
MESH_127_F0
 10
0
 20
0
 30
0
 70
128
 71
101
 72
6
 73
5
 74
5
 0
VERTEX
 8
MESH_127_F0
 10
0
 20
0
 30
0
 70
128
 71
7
 72
6
 73
101
 74
101
 0
VERTEX
 8
MESH_127_F0
 10
0
 20
0
 30
0
 70
128
 71
7
 72
101
 73
8
 74
8
 0
VERTEX
 8
MESH_127_F0
 10
0
 20
0
 30
0
 70
128
 71
101
 72
9
 73
8
 74
8
 0
VERTEX
 8
MESH_127_F0
 10
0
 20
0
 30
0
 70
128
 71
10
 72
9
 73
101
 74
101
 0
VERTEX
 8
MESH_127_F0
 10
0
 20
0
 30
0
 70
128
 71
10
 72
101
 73
11
 74
11
 0
VERTEX
 8
MESH_127_F0
 10
0
 20
0
 30
0
 70
128
 71
101
 72
12
 73
11
 74
11
 0
VERTEX
 8
MESH_127_F0
 10
0
 20
0
 30
0
 70
128
 71
13
 72
12
 73
101
 74
101
 0
VERTEX
 8
MESH_127_F0
 10
0
 20
0
 30
0
 70
128
 71
13
 72
101
 73
14
 74
14
 0
VERTEX
 8
MESH_127_F0
 10
0
 20
0
 30
0
 70
128
 71
101
 72
15
 73
14
 74
14
 0
VERTEX
 8
MESH_127_F0
 10
0
 20
0
 30
0
 70
128
 71
16
 72
15
 73
101
 74
101
 0
VERTEX
 8
MESH_127_F0
 10
0
 20
0
 30
0
 70
128
 71
16
 72
101
 73
17
 74
17
 0
VERTEX
 8
MESH_127_F0
 10
0
 20
0
 30
0
 70
128
 71
101
 72
18
 73
17
 74
17
 0
VERTEX
 8
MESH_127_F0
 10
0
 20
0
 30
0
 70
128
 71
19
 72
18
 73
101
 74
101
 0
VERTEX
 8
MESH_127_F0
 10
0
 20
0
 30
0
 70
128
 71
19
 72
101
 73
20
 74
20
 0
VERTEX
 8
MESH_127_F0
 10
0
 20
0
 30
0
 70
128
 71
101
 72
21
 73
20
 74
20
 0
VERTEX
 8
MESH_127_F0
 10
0
 20
0
 30
0
 70
128
 71
22
 72
21
 73
101
 74
101
 0
VERTEX
 8
MESH_127_F0
 10
0
 20
0
 30
0
 70
128
 71
22
 72
101
 73
23
 74
23
 0
VERTEX
 8
MESH_127_F0
 10
0
 20
0
 30
0
 70
128
 71
101
 72
24
 73
23
 74
23
 0
VERTEX
 8
MESH_127_F0
 10
0
 20
0
 30
0
 70
128
 71
25
 72
24
 73
101
 74
101
 0
VERTEX
 8
MESH_127_F0
 10
0
 20
0
 30
0
 70
128
 71
26
 72
25
 73
152
 74
152
 0
VERTEX
 8
MESH_127_F0
 10
0
 20
0
 30
0
 70
128
 71
26
 72
152
 73
27
 74
27
 0
VERTEX
 8
MESH_127_F0
 10
0
 20
0
 30
0
 70
128
 71
152
 72
28
 73
27
 74
27
 0
VERTEX
 8
MESH_127_F0
 10
0
 20
0
 30
0
 70
128
 71
29
 72
28
 73
152
 74
152
 0
VERTEX
 8
MESH_127_F0
 10
0
 20
0
 30
0
 70
128
 71
29
 72
152
 73
30
 74
30
 0
VERTEX
 8
MESH_127_F0
 10
0
 20
0
 30
0
 70
128
 71
152
 72
31
 73
30
 74
30
 0
VERTEX
 8
MESH_127_F0
 10
0
 20
0
 30
0
 70
128
 71
32
 72
31
 73
152
 74
152
 0
VERTEX
 8
MESH_127_F0
 10
0
 20
0
 30
0
 70
128
 71
32
 72
152
 73
33
 74
33
 0
VERTEX
 8
MESH_127_F0
 10
0
 20
0
 30
0
 70
128
 71
152
 72
34
 73
33
 74
33
 0
VERTEX
 8
MESH_127_F0
 10
0
 20
0
 30
0
 70
128
 71
35
 72
34
 73
152
 74
152
 0
VERTEX
 8
MESH_127_F0
 10
0
 20
0
 30
0
 70
128
 71
35
 72
152
 73
36
 74
36
 0
VERTEX
 8
MESH_127_F0
 10
0
 20
0
 30
0
 70
128
 71
152
 72
37
 73
36
 74
36
 0
VERTEX
 8
MESH_127_F0
 10
0
 20
0
 30
0
 70
128
 71
38
 72
37
 73
152
 74
152
 0
VERTEX
 8
MESH_127_F0
 10
0
 20
0
 30
0
 70
128
 71
38
 72
152
 73
39
 74
39
 0
VERTEX
 8
MESH_127_F0
 10
0
 20
0
 30
0
 70
128
 71
152
 72
40
 73
39
 74
39
 0
VERTEX
 8
MESH_127_F0
 10
0
 20
0
 30
0
 70
128
 71
41
 72
40
 73
152
 74
152
 0
VERTEX
 8
MESH_127_F0
 10
0
 20
0
 30
0
 70
128
 71
41
 72
152
 73
42
 74
42
 0
VERTEX
 8
MESH_127_F0
 10
0
 20
0
 30
0
 70
128
 71
152
 72
43
 73
42
 74
42
 0
VERTEX
 8
MESH_127_F0
 10
0
 20
0
 30
0
 70
128
 71
44
 72
43
 73
152
 74
152
 0
VERTEX
 8
MESH_127_F0
 10
0
 20
0
 30
0
 70
128
 71
44
 72
152
 73
45
 74
45
 0
VERTEX
 8
MESH_127_F0
 10
0
 20
0
 30
0
 70
128
 71
152
 72
46
 73
45
 74
45
 0
VERTEX
 8
MESH_127_F0
 10
0
 20
0
 30
0
 70
128
 71
47
 72
46
 73
152
 74
152
 0
VERTEX
 8
MESH_127_F0
 10
0
 20
0
 30
0
 70
128
 71
47
 72
152
 73
48
 74
48
 0
VERTEX
 8
MESH_127_F0
 10
0
 20
0
 30
0
 70
128
 71
152
 72
49
 73
48
 74
48
 0
VERTEX
 8
MESH_127_F0
 10
0
 20
0
 30
0
 70
128
 71
50
 72
49
 73
152
 74
152
 0
VERTEX
 8
MESH_127_F0
 10
0
 20
0
 30
0
 70
128
 71
51
 72
50
 73
151
 74
151
 0
VERTEX
 8
MESH_127_F0
 10
0
 20
0
 30
0
 70
128
 71
52
 72
51
 73
127
 74
127
 0
VERTEX
 8
MESH_127_F0
 10
0
 20
0
 30
0
 70
128
 71
52
 72
127
 73
53
 74
53
 0
VERTEX
 8
MESH_127_F0
 10
0
 20
0
 30
0
 70
128
 71
127
 72
54
 73
53
 74
53
 0
VERTEX
 8
MESH_127_F0
 10
0
 20
0
 30
0
 70
128
 71
55
 72
54
 73
127
 74
127
 0
VERTEX
 8
MESH_127_F0
 10
0
 20
0
 30
0
 70
128
 71
55
 72
127
 73
56
 74
56
 0
VERTEX
 8
MESH_127_F0
 10
0
 20
0
 30
0
 70
128
 71
127
 72
57
 73
56
 74
56
 0
VERTEX
 8
MESH_127_F0
 10
0
 20
0
 30
0
 70
128
 71
58
 72
57
 73
127
 74
127
 0
VERTEX
 8
MESH_127_F0
 10
0
 20
0
 30
0
 70
128
 71
58
 72
127
 73
59
 74
59
 0
VERTEX
 8
MESH_127_F0
 10
0
 20
0
 30
0
 70
128
 71
127
 72
60
 73
59
 74
59
 0
VERTEX
 8
MESH_127_F0
 10
0
 20
0
 30
0
 70
128
 71
61
 72
60
 73
127
 74
127
 0
VERTEX
 8
MESH_127_F0
 10
0
 20
0
 30
0
 70
128
 71
61
 72
127
 73
62
 74
62
 0
VERTEX
 8
MESH_127_F0
 10
0
 20
0
 30
0
 70
128
 71
127
 72
63
 73
62
 74
62
 0
VERTEX
 8
MESH_127_F0
 10
0
 20
0
 30
0
 70
128
 71
64
 72
63
 73
127
 74
127
 0
VERTEX
 8
MESH_127_F0
 10
0
 20
0
 30
0
 70
128
 71
64
 72
127
 73
65
 74
65
 0
VERTEX
 8
MESH_127_F0
 10
0
 20
0
 30
0
 70
128
 71
127
 72
66
 73
65
 74
65
 0
VERTEX
 8
MESH_127_F0
 10
0
 20
0
 30
0
 70
128
 71
67
 72
66
 73
127
 74
127
 0
VERTEX
 8
MESH_127_F0
 10
0
 20
0
 30
0
 70
128
 71
67
 72
127
 73
68
 74
68
 0
VERTEX
 8
MESH_127_F0
 10
0
 20
0
 30
0
 70
128
 71
127
 72
69
 73
68
 74
68
 0
VERTEX
 8
MESH_127_F0
 10
0
 20
0
 30
0
 70
128
 71
70
 72
69
 73
127
 74
127
 0
VERTEX
 8
MESH_127_F0
 10
0
 20
0
 30
0
 70
128
 71
70
 72
127
 73
71
 74
71
 0
VERTEX
 8
MESH_127_F0
 10
0
 20
0
 30
0
 70
128
 71
127
 72
72
 73
71
 74
71
 0
VERTEX
 8
MESH_127_F0
 10
0
 20
0
 30
0
 70
128
 71
73
 72
72
 73
127
 74
127
 0
VERTEX
 8
MESH_127_F0
 10
0
 20
0
 30
0
 70
128
 71
73
 72
127
 73
74
 74
74
 0
VERTEX
 8
MESH_127_F0
 10
0
 20
0
 30
0
 70
128
 71
127
 72
75
 73
74
 74
74
 0
VERTEX
 8
MESH_127_F0
 10
0
 20
0
 30
0
 70
128
 71
76
 72
75
 73
127
 74
127
 0
VERTEX
 8
MESH_127_F0
 10
0
 20
0
 30
0
 70
128
 71
77
 72
76
 73
126
 74
126
 0
VERTEX
 8
MESH_127_F0
 10
0
 20
0
 30
0
 70
128
 71
77
 72
126
 73
78
 74
78
 0
VERTEX
 8
MESH_127_F0
 10
0
 20
0
 30
0
 70
128
 71
126
 72
79
 73
78
 74
78
 0
VERTEX
 8
MESH_127_F0
 10
0
 20
0
 30
0
 70
128
 71
80
 72
79
 73
126
 74
126
 0
VERTEX
 8
MESH_127_F0
 10
0
 20
0
 30
0
 70
128
 71
80
 72
126
 73
81
 74
81
 0
VERTEX
 8
MESH_127_F0
 10
0
 20
0
 30
0
 70
128
 71
126
 72
82
 73
81
 74
81
 0
VERTEX
 8
MESH_127_F0
 10
0
 20
0
 30
0
 70
128
 71
83
 72
82
 73
126
 74
126
 0
VERTEX
 8
MESH_127_F0
 10
0
 20
0
 30
0
 70
128
 71
83
 72
126
 73
84
 74
84
 0
VERTEX
 8
MESH_127_F0
 10
0
 20
0
 30
0
 70
128
 71
126
 72
85
 73
84
 74
84
 0
VERTEX
 8
MESH_127_F0
 10
0
 20
0
 30
0
 70
128
 71
86
 72
85
 73
126
 74
126
 0
VERTEX
 8
MESH_127_F0
 10
0
 20
0
 30
0
 70
128
 71
86
 72
126
 73
87
 74
87
 0
VERTEX
 8
MESH_127_F0
 10
0
 20
0
 30
0
 70
128
 71
126
 72
88
 73
87
 74
87
 0
VERTEX
 8
MESH_127_F0
 10
0
 20
0
 30
0
 70
128
 71
89
 72
88
 73
126
 74
126
 0
VERTEX
 8
MESH_127_F0
 10
0
 20
0
 30
0
 70
128
 71
89
 72
126
 73
90
 74
90
 0
VERTEX
 8
MESH_127_F0
 10
0
 20
0
 30
0
 70
128
 71
126
 72
91
 73
90
 74
90
 0
VERTEX
 8
MESH_127_F0
 10
0
 20
0
 30
0
 70
128
 71
92
 72
91
 73
126
 74
126
 0
VERTEX
 8
MESH_127_F0
 10
0
 20
0
 30
0
 70
128
 71
92
 72
126
 73
93
 74
93
 0
VERTEX
 8
MESH_127_F0
 10
0
 20
0
 30
0
 70
128
 71
126
 72
102
 73
93
 74
93
 0
VERTEX
 8
MESH_127_F0
 10
0
 20
0
 30
0
 70
128
 71
102
 72
94
 73
93
 74
93
 0
VERTEX
 8
MESH_127_F0
 10
0
 20
0
 30
0
 70
128
 71
95
 72
94
 73
102
 74
102
 0
VERTEX
 8
MESH_127_F0
 10
0
 20
0
 30
0
 70
128
 71
95
 72
102
 73
96
 74
96
 0
VERTEX
 8
MESH_127_F0
 10
0
 20
0
 30
0
 70
128
 71
102
 72
97
 73
96
 74
96
 0
VERTEX
 8
MESH_127_F0
 10
0
 20
0
 30
0
 70
128
 71
98
 72
97
 73
102
 74
102
 0
VERTEX
 8
MESH_127_F0
 10
0
 20
0
 30
0
 70
128
 71
98
 72
102
 73
99
 74
99
 0
VERTEX
 8
MESH_127_F0
 10
0
 20
0
 30
0
 70
128
 71
102
 72
100
 73
99
 74
99
 0
VERTEX
 8
MESH_127_F0
 10
0
 20
0
 30
0
 70
128
 71
1
 72
100
 73
102
 74
102
 0
VERTEX
 8
MESH_127_F0
 10
0
 20
0
 30
0
 70
128
 71
1
 72
102
 73
101
 74
101
 0
VERTEX
 8
MESH_127_F0
 10
0
 20
0
 30
0
 70
128
 71
126
 72
103
 73
102
 74
102
 0
VERTEX
 8
MESH_127_F0
 10
0
 20
0
 30
0
 70
128
 71
104
 72
103
 73
126
 74
126
 0
VERTEX
 8
MESH_127_F0
 10
0
 20
0
 30
0
 70
128
 71
104
 72
126
 73
105
 74
105
 0
VERTEX
 8
MESH_127_F0
 10
0
 20
0
 30
0
 70
128
 71
126
 72
106
 73
105
 74
105
 0
VERTEX
 8
MESH_127_F0
 10
0
 20
0
 30
0
 70
128
 71
107
 72
106
 73
126
 74
126
 0
VERTEX
 8
MESH_127_F0
 10
0
 20
0
 30
0
 70
128
 71
107
 72
126
 73
108
 74
108
 0
VERTEX
 8
MESH_127_F0
 10
0
 20
0
 30
0
 70
128
 71
126
 72
109
 73
108
 74
108
 0
VERTEX
 8
MESH_127_F0
 10
0
 20
0
 30
0
 70
128
 71
110
 72
109
 73
126
 74
126
 0
VERTEX
 8
MESH_127_F0
 10
0
 20
0
 30
0
 70
128
 71
110
 72
126
 73
111
 74
111
 0
VERTEX
 8
MESH_127_F0
 10
0
 20
0
 30
0
 70
128
 71
126
 72
112
 73
111
 74
111
 0
VERTEX
 8
MESH_127_F0
 10
0
 20
0
 30
0
 70
128
 71
113
 72
112
 73
126
 74
126
 0
VERTEX
 8
MESH_127_F0
 10
0
 20
0
 30
0
 70
128
 71
113
 72
126
 73
114
 74
114
 0
VERTEX
 8
MESH_127_F0
 10
0
 20
0
 30
0
 70
128
 71
126
 72
115
 73
114
 74
114
 0
VERTEX
 8
MESH_127_F0
 10
0
 20
0
 30
0
 70
128
 71
116
 72
115
 73
126
 74
126
 0
VERTEX
 8
MESH_127_F0
 10
0
 20
0
 30
0
 70
128
 71
116
 72
126
 73
117
 74
117
 0
VERTEX
 8
MESH_127_F0
 10
0
 20
0
 30
0
 70
128
 71
126
 72
118
 73
117
 74
117
 0
VERTEX
 8
MESH_127_F0
 10
0
 20
0
 30
0
 70
128
 71
119
 72
118
 73
126
 74
126
 0
VERTEX
 8
MESH_127_F0
 10
0
 20
0
 30
0
 70
128
 71
119
 72
126
 73
120
 74
120
 0
VERTEX
 8
MESH_127_F0
 10
0
 20
0
 30
0
 70
128
 71
126
 72
121
 73
120
 74
120
 0
VERTEX
 8
MESH_127_F0
 10
0
 20
0
 30
0
 70
128
 71
122
 72
121
 73
126
 74
126
 0
VERTEX
 8
MESH_127_F0
 10
0
 20
0
 30
0
 70
128
 71
122
 72
126
 73
123
 74
123
 0
VERTEX
 8
MESH_127_F0
 10
0
 20
0
 30
0
 70
128
 71
126
 72
124
 73
123
 74
123
 0
VERTEX
 8
MESH_127_F0
 10
0
 20
0
 30
0
 70
128
 71
125
 72
124
 73
126
 74
126
 0
VERTEX
 8
MESH_127_F0
 10
0
 20
0
 30
0
 70
128
 71
76
 72
127
 73
126
 74
126
 0
VERTEX
 8
MESH_127_F0
 10
0
 20
0
 30
0
 70
128
 71
127
 72
129
 73
128
 74
128
 0
VERTEX
 8
MESH_127_F0
 10
0
 20
0
 30
0
 70
128
 71
130
 72
129
 73
127
 74
127
 0
VERTEX
 8
MESH_127_F0
 10
0
 20
0
 30
0
 70
128
 71
130
 72
127
 73
131
 74
131
 0
VERTEX
 8
MESH_127_F0
 10
0
 20
0
 30
0
 70
128
 71
127
 72
132
 73
131
 74
131
 0
VERTEX
 8
MESH_127_F0
 10
0
 20
0
 30
0
 70
128
 71
133
 72
132
 73
127
 74
127
 0
VERTEX
 8
MESH_127_F0
 10
0
 20
0
 30
0
 70
128
 71
133
 72
127
 73
134
 74
134
 0
VERTEX
 8
MESH_127_F0
 10
0
 20
0
 30
0
 70
128
 71
127
 72
135
 73
134
 74
134
 0
VERTEX
 8
MESH_127_F0
 10
0
 20
0
 30
0
 70
128
 71
136
 72
135
 73
127
 74
127
 0
VERTEX
 8
MESH_127_F0
 10
0
 20
0
 30
0
 70
128
 71
136
 72
127
 73
137
 74
137
 0
VERTEX
 8
MESH_127_F0
 10
0
 20
0
 30
0
 70
128
 71
127
 72
138
 73
137
 74
137
 0
VERTEX
 8
MESH_127_F0
 10
0
 20
0
 30
0
 70
128
 71
139
 72
138
 73
127
 74
127
 0
VERTEX
 8
MESH_127_F0
 10
0
 20
0
 30
0
 70
128
 71
139
 72
127
 73
140
 74
140
 0
VERTEX
 8
MESH_127_F0
 10
0
 20
0
 30
0
 70
128
 71
127
 72
141
 73
140
 74
140
 0
VERTEX
 8
MESH_127_F0
 10
0
 20
0
 30
0
 70
128
 71
142
 72
141
 73
127
 74
127
 0
VERTEX
 8
MESH_127_F0
 10
0
 20
0
 30
0
 70
128
 71
142
 72
127
 73
143
 74
143
 0
VERTEX
 8
MESH_127_F0
 10
0
 20
0
 30
0
 70
128
 71
127
 72
144
 73
143
 74
143
 0
VERTEX
 8
MESH_127_F0
 10
0
 20
0
 30
0
 70
128
 71
145
 72
144
 73
127
 74
127
 0
VERTEX
 8
MESH_127_F0
 10
0
 20
0
 30
0
 70
128
 71
145
 72
127
 73
146
 74
146
 0
VERTEX
 8
MESH_127_F0
 10
0
 20
0
 30
0
 70
128
 71
127
 72
147
 73
146
 74
146
 0
VERTEX
 8
MESH_127_F0
 10
0
 20
0
 30
0
 70
128
 71
148
 72
147
 73
127
 74
127
 0
VERTEX
 8
MESH_127_F0
 10
0
 20
0
 30
0
 70
128
 71
148
 72
127
 73
149
 74
149
 0
VERTEX
 8
MESH_127_F0
 10
0
 20
0
 30
0
 70
128
 71
127
 72
150
 73
149
 74
149
 0
VERTEX
 8
MESH_127_F0
 10
0
 20
0
 30
0
 70
128
 71
151
 72
150
 73
127
 74
127
 0
VERTEX
 8
MESH_127_F0
 10
0
 20
0
 30
0
 70
128
 71
151
 72
127
 73
51
 74
51
 0
VERTEX
 8
MESH_127_F0
 10
0
 20
0
 30
0
 70
128
 71
50
 72
152
 73
151
 74
151
 0
VERTEX
 8
MESH_127_F0
 10
0
 20
0
 30
0
 70
128
 71
25
 72
101
 73
152
 74
152
 0
SEQEND
 0
ENDSEC
 0
EOF
