 0
SECTION
 2
HEADER
 9
$ACADVER
 1
AC1009
 0
ENDSEC
 0
SECTION
 2
TABLES
 0
TABLE
 2
LTYPE
 70
1
 0
LTYPE
 2
CONTINUOUS
 70
64
 3
solid line
 72
65
 73
0
 40
0.0
 0
ENDTAB
 0
TABLE
 2
LAYER
 70
6
 0
LAYER
 2
0
 70
0
 62
7
 6
CONTINUOUS
 0
LAYER
 2
MESH_182_F0
 70
64
 62
7
 6
CONTINUOUS
 0
LAYER
 2
MESH_181_F0
 70
64
 62
7
 6
CONTINUOUS
 0
LAYER
 2
MESH_180_F0
 70
64
 62
7
 6
CONTINUOUS
 0
LAYER
 2
MESH_179_F0
 70
64
 62
7
 6
CONTINUOUS
 0
LAYER
 2
MESH_178_F0
 70
64
 62
7
 6
CONTINUOUS
 0
LAYER
 2
MESH_177_F0
 70
64
 62
7
 6
CONTINUOUS
 0
LAYER
 2
MESH_176_F0
 70
64
 62
7
 6
CONTINUOUS
 0
LAYER
 2
MESH_175_F0
 70
64
 62
7
 6
CONTINUOUS
 0
LAYER
 2
MESH_174_F0
 70
64
 62
7
 6
CONTINUOUS
 0
LAYER
 2
MESH_173_F0
 70
64
 62
7
 6
CONTINUOUS
 0
LAYER
 2
MESH_172_F0
 70
64
 62
7
 6
CONTINUOUS
 0
LAYER
 2
MESH_171_F0
 70
64
 62
7
 6
CONTINUOUS
 0
LAYER
 2
MESH_170_F0
 70
64
 62
7
 6
CONTINUOUS
 0
LAYER
 2
MESH_169_F0
 70
64
 62
7
 6
CONTINUOUS
 0
LAYER
 2
MESH_168_F0
 70
64
 62
7
 6
CONTINUOUS
 0
LAYER
 2
MESH_167_F0
 70
64
 62
7
 6
CONTINUOUS
 0
LAYER
 2
MESH_166_F0
 70
64
 62
7
 6
CONTINUOUS
 0
LAYER
 2
MESH_165_F0
 70
64
 62
7
 6
CONTINUOUS
 0
LAYER
 2
MESH_164_F0
 70
64
 62
7
 6
CONTINUOUS
 0
LAYER
 2
MESH_163_F0
 70
64
 62
7
 6
CONTINUOUS
 0
LAYER
 2
MESH_162_F0
 70
64
 62
7
 6
CONTINUOUS
 0
LAYER
 2
MESH_161_F0
 70
64
 62
7
 6
CONTINUOUS
 0
LAYER
 2
MESH_160_F0
 70
64
 62
7
 6
CONTINUOUS
 0
LAYER
 2
MESH_159_F0
 70
64
 62
7
 6
CONTINUOUS
 0
ENDTAB
 0
ENDSEC
 0
SECTION
 2
BLOCKS
 0
ENDSEC
 0
SECTION
 2
ENTITIES
 0
POLYLINE
 8
MESH_182_F0
 66
1
 10
0.0
 20
0.0
 30
0.0
 70
64
 71
4
 72
2
 0
VERTEX
 8
MESH_182_F0
 10
700
 20
0
 30
25
 70
192
 0
VERTEX
 8
MESH_182_F0
 10
700
 20
0
 30
0
 70
192
 0
VERTEX
 8
MESH_182_F0
 10
-700
 20
0
 30
0
 70
192
 0
VERTEX
 8
MESH_182_F0
 10
-700
 20
0
 30
25
 70
192
 0
VERTEX
 8
MESH_182_F0
 10
0
 20
0
 30
0
 70
128
 71
1
 72
3
 73
2
 74
2
 0
VERTEX
 8
MESH_182_F0
 10
0
 20
0
 30
0
 70
128
 71
4
 72
3
 73
1
 74
1
 0
SEQEND
 0
POLYLINE
 8
MESH_181_F0
 66
1
 10
0.0
 20
0.0
 30
0.0
 70
64
 71
4
 72
2
 0
VERTEX
 8
MESH_181_F0
 10
-700
 20
0
 30
25
 70
192
 0
VERTEX
 8
MESH_181_F0
 10
-700
 20
0
 30
0
 70
192
 0
VERTEX
 8
MESH_181_F0
 10
-700
 20
-417
 30
0
 70
192
 0
VERTEX
 8
MESH_181_F0
 10
-700
 20
-417
 30
25
 70
192
 0
VERTEX
 8
MESH_181_F0
 10
0
 20
0
 30
0
 70
128
 71
1
 72
3
 73
2
 74
2
 0
VERTEX
 8
MESH_181_F0
 10
0
 20
0
 30
0
 70
128
 71
4
 72
3
 73
1
 74
1
 0
SEQEND
 0
POLYLINE
 8
MESH_180_F0
 66
1
 10
0.0
 20
0.0
 30
0.0
 70
64
 71
50
 72
48
 0
VERTEX
 8
MESH_180_F0
 10
-700
 20
-417
 30
25
 70
192
 0
VERTEX
 8
MESH_180_F0
 10
-700
 20
-417
 30
0
 70
192
 0
VERTEX
 8
MESH_180_F0
 10
-699.9462
 20
-418.5291
 30
0
 70
192
 0
VERTEX
 8
MESH_180_F0
 10
-699.7975
 20
-420.0316
 30
0
 70
192
 0
VERTEX
 8
MESH_180_F0
 10
-699.5532
 20
-421.5106
 30
0
 70
192
 0
VERTEX
 8
MESH_180_F0
 10
-699.212
 20
-422.9687
 30
0
 70
192
 0
VERTEX
 8
MESH_180_F0
 10
-698.7753
 20
-424.4023
 30
0
 70
192
 0
VERTEX
 8
MESH_180_F0
 10
-698.2445
 20
-425.8095
 30
0
 70
192
 0
VERTEX
 8
MESH_180_F0
 10
-697.6223
 20
-427.1821
 30
0
 70
192
 0
VERTEX
 8
MESH_180_F0
 10
-696.9119
 20
-428.5114
 30
0
 70
192
 0
VERTEX
 8
MESH_180_F0
 10
-696.1176
 20
-429.7876
 30
0
 70
192
 0
VERTEX
 8
MESH_180_F0
 10
-695.2422
 20
-431.0079
 30
0
 70
192
 0
VERTEX
 8
MESH_180_F0
 10
-694.2896
 20
-432.1679
 30
0
 70
192
 0
VERTEX
 8
MESH_180_F0
 10
-693.2636
 20
-433.2631
 30
0
 70
192
 0
VERTEX
 8
MESH_180_F0
 10
-692.1685
 20
-434.289
 30
0
 70
192
 0
VERTEX
 8
MESH_180_F0
 10
-691.0086
 20
-435.2417
 30
0
 70
192
 0
VERTEX
 8
MESH_180_F0
 10
-689.7883
 20
-436.1172
 30
0
 70
192
 0
VERTEX
 8
MESH_180_F0
 10
-688.512
 20
-436.9115
 30
0
 70
192
 0
VERTEX
 8
MESH_180_F0
 10
-687.1826
 20
-437.6221
 30
0
 70
192
 0
VERTEX
 8
MESH_180_F0
 10
-685.8101
 20
-438.2443
 30
0
 70
192
 0
VERTEX
 8
MESH_180_F0
 10
-684.4027
 20
-438.7751
 30
0
 70
192
 0
VERTEX
 8
MESH_180_F0
 10
-682.9691
 20
-439.2119
 30
0
 70
192
 0
VERTEX
 8
MESH_180_F0
 10
-681.5109
 20
-439.5531
 30
0
 70
192
 0
VERTEX
 8
MESH_180_F0
 10
-680.0319
 20
-439.7975
 30
0
 70
192
 0
VERTEX
 8
MESH_180_F0
 10
-678.5292
 20
-439.9462
 30
0
 70
192
 0
VERTEX
 8
MESH_180_F0
 10
-677
 20
-440
 30
0
 70
192
 0
VERTEX
 8
MESH_180_F0
 10
-677
 20
-440
 30
25
 70
192
 0
VERTEX
 8
MESH_180_F0
 10
-678.5291
 20
-439.9462
 30
25
 70
192
 0
VERTEX
 8
MESH_180_F0
 10
-680.0316
 20
-439.7976
 30
25
 70
192
 0
VERTEX
 8
MESH_180_F0
 10
-681.5105
 20
-439.5532
 30
25
 70
192
 0
VERTEX
 8
MESH_180_F0
 10
-682.9686
 20
-439.212
 30
25
 70
192
 0
VERTEX
 8
MESH_180_F0
 10
-684.4022
 20
-438.7753
 30
25
 70
192
 0
VERTEX
 8
MESH_180_F0
 10
-685.8095
 20
-438.2445
 30
25
 70
192
 0
VERTEX
 8
MESH_180_F0
 10
-687.182
 20
-437.6224
 30
25
 70
192
 0
VERTEX
 8
MESH_180_F0
 10
-688.5114
 20
-436.9119
 30
25
 70
192
 0
VERTEX
 8
MESH_180_F0
 10
-689.7877
 20
-436.1176
 30
25
 70
192
 0
VERTEX
 8
MESH_180_F0
 10
-691.0079
 20
-435.2422
 30
25
 70
192
 0
VERTEX
 8
MESH_180_F0
 10
-692.1679
 20
-434.2896
 30
25
 70
192
 0
VERTEX
 8
MESH_180_F0
 10
-693.2631
 20
-433.2637
 30
25
 70
192
 0
VERTEX
 8
MESH_180_F0
 10
-694.289
 20
-432.1685
 30
25
 70
192
 0
VERTEX
 8
MESH_180_F0
 10
-695.2417
 20
-431.0086
 30
25
 70
192
 0
VERTEX
 8
MESH_180_F0
 10
-696.1172
 20
-429.7882
 30
25
 70
192
 0
VERTEX
 8
MESH_180_F0
 10
-696.9115
 20
-428.512
 30
25
 70
192
 0
VERTEX
 8
MESH_180_F0
 10
-697.622
 20
-427.1826
 30
25
 70
192
 0
VERTEX
 8
MESH_180_F0
 10
-698.2443
 20
-425.8101
 30
25
 70
192
 0
VERTEX
 8
MESH_180_F0
 10
-698.7751
 20
-424.4027
 30
25
 70
192
 0
VERTEX
 8
MESH_180_F0
 10
-699.2119
 20
-422.9691
 30
25
 70
192
 0
VERTEX
 8
MESH_180_F0
 10
-699.5531
 20
-421.5109
 30
25
 70
192
 0
VERTEX
 8
MESH_180_F0
 10
-699.7975
 20
-420.0319
 30
25
 70
192
 0
VERTEX
 8
MESH_180_F0
 10
-699.9462
 20
-418.5291
 30
25
 70
192
 0
VERTEX
 8
MESH_180_F0
 10
0
 20
0
 30
0
 70
128
 71
1
 72
3
 73
2
 74
2
 0
VERTEX
 8
MESH_180_F0
 10
0
 20
0
 30
0
 70
128
 71
50
 72
3
 73
1
 74
1
 0
VERTEX
 8
MESH_180_F0
 10
0
 20
0
 30
0
 70
128
 71
4
 72
3
 73
50
 74
50
 0
VERTEX
 8
MESH_180_F0
 10
0
 20
0
 30
0
 70
128
 71
5
 72
4
 73
49
 74
49
 0
VERTEX
 8
MESH_180_F0
 10
0
 20
0
 30
0
 70
128
 71
6
 72
5
 73
48
 74
48
 0
VERTEX
 8
MESH_180_F0
 10
0
 20
0
 30
0
 70
128
 71
7
 72
6
 73
47
 74
47
 0
VERTEX
 8
MESH_180_F0
 10
0
 20
0
 30
0
 70
128
 71
8
 72
7
 73
46
 74
46
 0
VERTEX
 8
MESH_180_F0
 10
0
 20
0
 30
0
 70
128
 71
9
 72
8
 73
45
 74
45
 0
VERTEX
 8
MESH_180_F0
 10
0
 20
0
 30
0
 70
128
 71
10
 72
9
 73
44
 74
44
 0
VERTEX
 8
MESH_180_F0
 10
0
 20
0
 30
0
 70
128
 71
11
 72
10
 73
43
 74
43
 0
VERTEX
 8
MESH_180_F0
 10
0
 20
0
 30
0
 70
128
 71
12
 72
11
 73
42
 74
42
 0
VERTEX
 8
MESH_180_F0
 10
0
 20
0
 30
0
 70
128
 71
13
 72
12
 73
41
 74
41
 0
VERTEX
 8
MESH_180_F0
 10
0
 20
0
 30
0
 70
128
 71
14
 72
13
 73
40
 74
40
 0
VERTEX
 8
MESH_180_F0
 10
0
 20
0
 30
0
 70
128
 71
15
 72
14
 73
39
 74
39
 0
VERTEX
 8
MESH_180_F0
 10
0
 20
0
 30
0
 70
128
 71
16
 72
15
 73
38
 74
38
 0
VERTEX
 8
MESH_180_F0
 10
0
 20
0
 30
0
 70
128
 71
17
 72
16
 73
37
 74
37
 0
VERTEX
 8
MESH_180_F0
 10
0
 20
0
 30
0
 70
128
 71
18
 72
17
 73
36
 74
36
 0
VERTEX
 8
MESH_180_F0
 10
0
 20
0
 30
0
 70
128
 71
19
 72
18
 73
35
 74
35
 0
VERTEX
 8
MESH_180_F0
 10
0
 20
0
 30
0
 70
128
 71
20
 72
19
 73
34
 74
34
 0
VERTEX
 8
MESH_180_F0
 10
0
 20
0
 30
0
 70
128
 71
21
 72
20
 73
33
 74
33
 0
VERTEX
 8
MESH_180_F0
 10
0
 20
0
 30
0
 70
128
 71
22
 72
21
 73
32
 74
32
 0
VERTEX
 8
MESH_180_F0
 10
0
 20
0
 30
0
 70
128
 71
23
 72
22
 73
31
 74
31
 0
VERTEX
 8
MESH_180_F0
 10
0
 20
0
 30
0
 70
128
 71
24
 72
23
 73
30
 74
30
 0
VERTEX
 8
MESH_180_F0
 10
0
 20
0
 30
0
 70
128
 71
25
 72
24
 73
29
 74
29
 0
VERTEX
 8
MESH_180_F0
 10
0
 20
0
 30
0
 70
128
 71
27
 72
25
 73
28
 74
28
 0
VERTEX
 8
MESH_180_F0
 10
0
 20
0
 30
0
 70
128
 71
25
 72
29
 73
28
 74
28
 0
VERTEX
 8
MESH_180_F0
 10
0
 20
0
 30
0
 70
128
 71
27
 72
26
 73
25
 74
25
 0
VERTEX
 8
MESH_180_F0
 10
0
 20
0
 30
0
 70
128
 71
24
 72
30
 73
29
 74
29
 0
VERTEX
 8
MESH_180_F0
 10
0
 20
0
 30
0
 70
128
 71
23
 72
31
 73
30
 74
30
 0
VERTEX
 8
MESH_180_F0
 10
0
 20
0
 30
0
 70
128
 71
22
 72
32
 73
31
 74
31
 0
VERTEX
 8
MESH_180_F0
 10
0
 20
0
 30
0
 70
128
 71
21
 72
33
 73
32
 74
32
 0
VERTEX
 8
MESH_180_F0
 10
0
 20
0
 30
0
 70
128
 71
20
 72
34
 73
33
 74
33
 0
VERTEX
 8
MESH_180_F0
 10
0
 20
0
 30
0
 70
128
 71
19
 72
35
 73
34
 74
34
 0
VERTEX
 8
MESH_180_F0
 10
0
 20
0
 30
0
 70
128
 71
18
 72
36
 73
35
 74
35
 0
VERTEX
 8
MESH_180_F0
 10
0
 20
0
 30
0
 70
128
 71
17
 72
37
 73
36
 74
36
 0
VERTEX
 8
MESH_180_F0
 10
0
 20
0
 30
0
 70
128
 71
16
 72
38
 73
37
 74
37
 0
VERTEX
 8
MESH_180_F0
 10
0
 20
0
 30
0
 70
128
 71
15
 72
39
 73
38
 74
38
 0
VERTEX
 8
MESH_180_F0
 10
0
 20
0
 30
0
 70
128
 71
14
 72
40
 73
39
 74
39
 0
VERTEX
 8
MESH_180_F0
 10
0
 20
0
 30
0
 70
128
 71
13
 72
41
 73
40
 74
40
 0
VERTEX
 8
MESH_180_F0
 10
0
 20
0
 30
0
 70
128
 71
12
 72
42
 73
41
 74
41
 0
VERTEX
 8
MESH_180_F0
 10
0
 20
0
 30
0
 70
128
 71
11
 72
43
 73
42
 74
42
 0
VERTEX
 8
MESH_180_F0
 10
0
 20
0
 30
0
 70
128
 71
10
 72
44
 73
43
 74
43
 0
VERTEX
 8
MESH_180_F0
 10
0
 20
0
 30
0
 70
128
 71
9
 72
45
 73
44
 74
44
 0
VERTEX
 8
MESH_180_F0
 10
0
 20
0
 30
0
 70
128
 71
8
 72
46
 73
45
 74
45
 0
VERTEX
 8
MESH_180_F0
 10
0
 20
0
 30
0
 70
128
 71
7
 72
47
 73
46
 74
46
 0
VERTEX
 8
MESH_180_F0
 10
0
 20
0
 30
0
 70
128
 71
6
 72
48
 73
47
 74
47
 0
VERTEX
 8
MESH_180_F0
 10
0
 20
0
 30
0
 70
128
 71
5
 72
49
 73
48
 74
48
 0
VERTEX
 8
MESH_180_F0
 10
0
 20
0
 30
0
 70
128
 71
4
 72
50
 73
49
 74
49
 0
SEQEND
 0
POLYLINE
 8
MESH_179_F0
 66
1
 10
0.0
 20
0.0
 30
0.0
 70
64
 71
4
 72
2
 0
VERTEX
 8
MESH_179_F0
 10
-677
 20
-440
 30
25
 70
192
 0
VERTEX
 8
MESH_179_F0
 10
-677
 20
-440
 30
0
 70
192
 0
VERTEX
 8
MESH_179_F0
 10
677
 20
-440
 30
0
 70
192
 0
VERTEX
 8
MESH_179_F0
 10
677
 20
-440
 30
25
 70
192
 0
VERTEX
 8
MESH_179_F0
 10
0
 20
0
 30
0
 70
128
 71
1
 72
3
 73
2
 74
2
 0
VERTEX
 8
MESH_179_F0
 10
0
 20
0
 30
0
 70
128
 71
4
 72
3
 73
1
 74
1
 0
SEQEND
 0
POLYLINE
 8
MESH_178_F0
 66
1
 10
0.0
 20
0.0
 30
0.0
 70
64
 71
50
 72
48
 0
VERTEX
 8
MESH_178_F0
 10
677
 20
-440
 30
25
 70
192
 0
VERTEX
 8
MESH_178_F0
 10
677
 20
-440
 30
0
 70
192
 0
VERTEX
 8
MESH_178_F0
 10
678.5291
 20
-439.9462
 30
0
 70
192
 0
VERTEX
 8
MESH_178_F0
 10
680.0316
 20
-439.7976
 30
0
 70
192
 0
VERTEX
 8
MESH_178_F0
 10
681.5105
 20
-439.5532
 30
0
 70
192
 0
VERTEX
 8
MESH_178_F0
 10
682.9686
 20
-439.212
 30
0
 70
192
 0
VERTEX
 8
MESH_178_F0
 10
684.4022
 20
-438.7753
 30
0
 70
192
 0
VERTEX
 8
MESH_178_F0
 10
685.8095
 20
-438.2445
 30
0
 70
192
 0
VERTEX
 8
MESH_178_F0
 10
687.182
 20
-437.6224
 30
0
 70
192
 0
VERTEX
 8
MESH_178_F0
 10
688.5114
 20
-436.9119
 30
0
 70
192
 0
VERTEX
 8
MESH_178_F0
 10
689.7877
 20
-436.1176
 30
0
 70
192
 0
VERTEX
 8
MESH_178_F0
 10
691.0079
 20
-435.2422
 30
0
 70
192
 0
VERTEX
 8
MESH_178_F0
 10
692.1679
 20
-434.2896
 30
0
 70
192
 0
VERTEX
 8
MESH_178_F0
 10
693.2631
 20
-433.2637
 30
0
 70
192
 0
VERTEX
 8
MESH_178_F0
 10
694.289
 20
-432.1685
 30
0
 70
192
 0
VERTEX
 8
MESH_178_F0
 10
695.2417
 20
-431.0086
 30
0
 70
192
 0
VERTEX
 8
MESH_178_F0
 10
696.1172
 20
-429.7882
 30
0
 70
192
 0
VERTEX
 8
MESH_178_F0
 10
696.9115
 20
-428.512
 30
0
 70
192
 0
VERTEX
 8
MESH_178_F0
 10
697.622
 20
-427.1826
 30
0
 70
192
 0
VERTEX
 8
MESH_178_F0
 10
698.2443
 20
-425.8101
 30
0
 70
192
 0
VERTEX
 8
MESH_178_F0
 10
698.7751
 20
-424.4027
 30
0
 70
192
 0
VERTEX
 8
MESH_178_F0
 10
699.2119
 20
-422.9691
 30
0
 70
192
 0
VERTEX
 8
MESH_178_F0
 10
699.5531
 20
-421.5109
 30
0
 70
192
 0
VERTEX
 8
MESH_178_F0
 10
699.7975
 20
-420.0319
 30
0
 70
192
 0
VERTEX
 8
MESH_178_F0
 10
699.9462
 20
-418.5291
 30
0
 70
192
 0
VERTEX
 8
MESH_178_F0
 10
700
 20
-417
 30
0
 70
192
 0
VERTEX
 8
MESH_178_F0
 10
700
 20
-417
 30
25
 70
192
 0
VERTEX
 8
MESH_178_F0
 10
699.9462
 20
-418.5291
 30
25
 70
192
 0
VERTEX
 8
MESH_178_F0
 10
699.7975
 20
-420.0316
 30
25
 70
192
 0
VERTEX
 8
MESH_178_F0
 10
699.5532
 20
-421.5106
 30
25
 70
192
 0
VERTEX
 8
MESH_178_F0
 10
699.212
 20
-422.9687
 30
25
 70
192
 0
VERTEX
 8
MESH_178_F0
 10
698.7753
 20
-424.4023
 30
25
 70
192
 0
VERTEX
 8
MESH_178_F0
 10
698.2445
 20
-425.8095
 30
25
 70
192
 0
VERTEX
 8
MESH_178_F0
 10
697.6223
 20
-427.1821
 30
25
 70
192
 0
VERTEX
 8
MESH_178_F0
 10
696.9119
 20
-428.5114
 30
25
 70
192
 0
VERTEX
 8
MESH_178_F0
 10
696.1176
 20
-429.7876
 30
25
 70
192
 0
VERTEX
 8
MESH_178_F0
 10
695.2422
 20
-431.0079
 30
25
 70
192
 0
VERTEX
 8
MESH_178_F0
 10
694.2896
 20
-432.1679
 30
25
 70
192
 0
VERTEX
 8
MESH_178_F0
 10
693.2636
 20
-433.2631
 30
25
 70
192
 0
VERTEX
 8
MESH_178_F0
 10
692.1685
 20
-434.289
 30
25
 70
192
 0
VERTEX
 8
MESH_178_F0
 10
691.0086
 20
-435.2417
 30
25
 70
192
 0
VERTEX
 8
MESH_178_F0
 10
689.7883
 20
-436.1172
 30
25
 70
192
 0
VERTEX
 8
MESH_178_F0
 10
688.512
 20
-436.9115
 30
25
 70
192
 0
VERTEX
 8
MESH_178_F0
 10
687.1826
 20
-437.6221
 30
25
 70
192
 0
VERTEX
 8
MESH_178_F0
 10
685.8101
 20
-438.2443
 30
25
 70
192
 0
VERTEX
 8
MESH_178_F0
 10
684.4027
 20
-438.7751
 30
25
 70
192
 0
VERTEX
 8
MESH_178_F0
 10
682.9691
 20
-439.2119
 30
25
 70
192
 0
VERTEX
 8
MESH_178_F0
 10
681.5109
 20
-439.5531
 30
25
 70
192
 0
VERTEX
 8
MESH_178_F0
 10
680.0319
 20
-439.7975
 30
25
 70
192
 0
VERTEX
 8
MESH_178_F0
 10
678.5292
 20
-439.9462
 30
25
 70
192
 0
VERTEX
 8
MESH_178_F0
 10
0
 20
0
 30
0
 70
128
 71
1
 72
3
 73
2
 74
2
 0
VERTEX
 8
MESH_178_F0
 10
0
 20
0
 30
0
 70
128
 71
50
 72
3
 73
1
 74
1
 0
VERTEX
 8
MESH_178_F0
 10
0
 20
0
 30
0
 70
128
 71
4
 72
3
 73
50
 74
50
 0
VERTEX
 8
MESH_178_F0
 10
0
 20
0
 30
0
 70
128
 71
5
 72
4
 73
49
 74
49
 0
VERTEX
 8
MESH_178_F0
 10
0
 20
0
 30
0
 70
128
 71
6
 72
5
 73
48
 74
48
 0
VERTEX
 8
MESH_178_F0
 10
0
 20
0
 30
0
 70
128
 71
7
 72
6
 73
47
 74
47
 0
VERTEX
 8
MESH_178_F0
 10
0
 20
0
 30
0
 70
128
 71
8
 72
7
 73
46
 74
46
 0
VERTEX
 8
MESH_178_F0
 10
0
 20
0
 30
0
 70
128
 71
9
 72
8
 73
45
 74
45
 0
VERTEX
 8
MESH_178_F0
 10
0
 20
0
 30
0
 70
128
 71
10
 72
9
 73
44
 74
44
 0
VERTEX
 8
MESH_178_F0
 10
0
 20
0
 30
0
 70
128
 71
11
 72
10
 73
43
 74
43
 0
VERTEX
 8
MESH_178_F0
 10
0
 20
0
 30
0
 70
128
 71
12
 72
11
 73
42
 74
42
 0
VERTEX
 8
MESH_178_F0
 10
0
 20
0
 30
0
 70
128
 71
13
 72
12
 73
41
 74
41
 0
VERTEX
 8
MESH_178_F0
 10
0
 20
0
 30
0
 70
128
 71
14
 72
13
 73
40
 74
40
 0
VERTEX
 8
MESH_178_F0
 10
0
 20
0
 30
0
 70
128
 71
15
 72
14
 73
39
 74
39
 0
VERTEX
 8
MESH_178_F0
 10
0
 20
0
 30
0
 70
128
 71
16
 72
15
 73
38
 74
38
 0
VERTEX
 8
MESH_178_F0
 10
0
 20
0
 30
0
 70
128
 71
17
 72
16
 73
37
 74
37
 0
VERTEX
 8
MESH_178_F0
 10
0
 20
0
 30
0
 70
128
 71
18
 72
17
 73
36
 74
36
 0
VERTEX
 8
MESH_178_F0
 10
0
 20
0
 30
0
 70
128
 71
19
 72
18
 73
35
 74
35
 0
VERTEX
 8
MESH_178_F0
 10
0
 20
0
 30
0
 70
128
 71
20
 72
19
 73
34
 74
34
 0
VERTEX
 8
MESH_178_F0
 10
0
 20
0
 30
0
 70
128
 71
21
 72
20
 73
33
 74
33
 0
VERTEX
 8
MESH_178_F0
 10
0
 20
0
 30
0
 70
128
 71
22
 72
21
 73
32
 74
32
 0
VERTEX
 8
MESH_178_F0
 10
0
 20
0
 30
0
 70
128
 71
23
 72
22
 73
31
 74
31
 0
VERTEX
 8
MESH_178_F0
 10
0
 20
0
 30
0
 70
128
 71
24
 72
23
 73
30
 74
30
 0
VERTEX
 8
MESH_178_F0
 10
0
 20
0
 30
0
 70
128
 71
25
 72
24
 73
29
 74
29
 0
VERTEX
 8
MESH_178_F0
 10
0
 20
0
 30
0
 70
128
 71
27
 72
25
 73
28
 74
28
 0
VERTEX
 8
MESH_178_F0
 10
0
 20
0
 30
0
 70
128
 71
25
 72
29
 73
28
 74
28
 0
VERTEX
 8
MESH_178_F0
 10
0
 20
0
 30
0
 70
128
 71
27
 72
26
 73
25
 74
25
 0
VERTEX
 8
MESH_178_F0
 10
0
 20
0
 30
0
 70
128
 71
24
 72
30
 73
29
 74
29
 0
VERTEX
 8
MESH_178_F0
 10
0
 20
0
 30
0
 70
128
 71
23
 72
31
 73
30
 74
30
 0
VERTEX
 8
MESH_178_F0
 10
0
 20
0
 30
0
 70
128
 71
22
 72
32
 73
31
 74
31
 0
VERTEX
 8
MESH_178_F0
 10
0
 20
0
 30
0
 70
128
 71
21
 72
33
 73
32
 74
32
 0
VERTEX
 8
MESH_178_F0
 10
0
 20
0
 30
0
 70
128
 71
20
 72
34
 73
33
 74
33
 0
VERTEX
 8
MESH_178_F0
 10
0
 20
0
 30
0
 70
128
 71
19
 72
35
 73
34
 74
34
 0
VERTEX
 8
MESH_178_F0
 10
0
 20
0
 30
0
 70
128
 71
18
 72
36
 73
35
 74
35
 0
VERTEX
 8
MESH_178_F0
 10
0
 20
0
 30
0
 70
128
 71
17
 72
37
 73
36
 74
36
 0
VERTEX
 8
MESH_178_F0
 10
0
 20
0
 30
0
 70
128
 71
16
 72
38
 73
37
 74
37
 0
VERTEX
 8
MESH_178_F0
 10
0
 20
0
 30
0
 70
128
 71
15
 72
39
 73
38
 74
38
 0
VERTEX
 8
MESH_178_F0
 10
0
 20
0
 30
0
 70
128
 71
14
 72
40
 73
39
 74
39
 0
VERTEX
 8
MESH_178_F0
 10
0
 20
0
 30
0
 70
128
 71
13
 72
41
 73
40
 74
40
 0
VERTEX
 8
MESH_178_F0
 10
0
 20
0
 30
0
 70
128
 71
12
 72
42
 73
41
 74
41
 0
VERTEX
 8
MESH_178_F0
 10
0
 20
0
 30
0
 70
128
 71
11
 72
43
 73
42
 74
42
 0
VERTEX
 8
MESH_178_F0
 10
0
 20
0
 30
0
 70
128
 71
10
 72
44
 73
43
 74
43
 0
VERTEX
 8
MESH_178_F0
 10
0
 20
0
 30
0
 70
128
 71
9
 72
45
 73
44
 74
44
 0
VERTEX
 8
MESH_178_F0
 10
0
 20
0
 30
0
 70
128
 71
8
 72
46
 73
45
 74
45
 0
VERTEX
 8
MESH_178_F0
 10
0
 20
0
 30
0
 70
128
 71
7
 72
47
 73
46
 74
46
 0
VERTEX
 8
MESH_178_F0
 10
0
 20
0
 30
0
 70
128
 71
6
 72
48
 73
47
 74
47
 0
VERTEX
 8
MESH_178_F0
 10
0
 20
0
 30
0
 70
128
 71
5
 72
49
 73
48
 74
48
 0
VERTEX
 8
MESH_178_F0
 10
0
 20
0
 30
0
 70
128
 71
4
 72
50
 73
49
 74
49
 0
SEQEND
 0
POLYLINE
 8
MESH_177_F0
 66
1
 10
0.0
 20
0.0
 30
0.0
 70
64
 71
4
 72
2
 0
VERTEX
 8
MESH_177_F0
 10
700
 20
-417
 30
25
 70
192
 0
VERTEX
 8
MESH_177_F0
 10
700
 20
-417
 30
0
 70
192
 0
VERTEX
 8
MESH_177_F0
 10
700
 20
0
 30
0
 70
192
 0
VERTEX
 8
MESH_177_F0
 10
700
 20
0
 30
25
 70
192
 0
VERTEX
 8
MESH_177_F0
 10
0
 20
0
 30
0
 70
128
 71
1
 72
3
 73
2
 74
2
 0
VERTEX
 8
MESH_177_F0
 10
0
 20
0
 30
0
 70
128
 71
4
 72
3
 73
1
 74
1
 0
SEQEND
 0
POLYLINE
 8
MESH_176_F0
 66
1
 10
0.0
 20
0.0
 30
0.0
 70
64
 71
4
 72
2
 0
VERTEX
 8
MESH_176_F0
 10
285
 20
-298
 30
25
 70
192
 0
VERTEX
 8
MESH_176_F0
 10
285
 20
-298
 30
0
 70
192
 0
VERTEX
 8
MESH_176_F0
 10
285
 20
-120
 30
0
 70
192
 0
VERTEX
 8
MESH_176_F0
 10
285
 20
-120
 30
25
 70
192
 0
VERTEX
 8
MESH_176_F0
 10
0
 20
0
 30
0
 70
128
 71
1
 72
3
 73
2
 74
2
 0
VERTEX
 8
MESH_176_F0
 10
0
 20
0
 30
0
 70
128
 71
4
 72
3
 73
1
 74
1
 0
SEQEND
 0
POLYLINE
 8
MESH_175_F0
 66
1
 10
0.0
 20
0.0
 30
0.0
 70
64
 71
50
 72
48
 0
VERTEX
 8
MESH_175_F0
 10
285
 20
-120
 30
25
 70
192
 0
VERTEX
 8
MESH_175_F0
 10
285
 20
-120
 30
0
 70
192
 0
VERTEX
 8
MESH_175_F0
 10
285.0585
 20
-118.338
 30
0
 70
192
 0
VERTEX
 8
MESH_175_F0
 10
285.22
 20
-116.7047
 30
0
 70
192
 0
VERTEX
 8
MESH_175_F0
 10
285.4857
 20
-115.0972
 30
0
 70
192
 0
VERTEX
 8
MESH_175_F0
 10
285.8565
 20
-113.5124
 30
0
 70
192
 0
VERTEX
 8
MESH_175_F0
 10
286.3311
 20
-111.9541
 30
0
 70
192
 0
VERTEX
 8
MESH_175_F0
 10
286.9082
 20
-110.4244
 30
0
 70
192
 0
VERTEX
 8
MESH_175_F0
 10
287.5844
 20
-108.9326
 30
0
 70
192
 0
VERTEX
 8
MESH_175_F0
 10
288.3567
 20
-107.4876
 30
0
 70
192
 0
VERTEX
 8
MESH_175_F0
 10
289.22
 20
-106.1004
 30
0
 70
192
 0
VERTEX
 8
MESH_175_F0
 10
290.1715
 20
-104.7739
 30
0
 70
192
 0
VERTEX
 8
MESH_175_F0
 10
291.207
 20
-103.5131
 30
0
 70
192
 0
VERTEX
 8
MESH_175_F0
 10
292.3221
 20
-102.3227
 30
0
 70
192
 0
VERTEX
 8
MESH_175_F0
 10
293.5125
 20
-101.2076
 30
0
 70
192
 0
VERTEX
 8
MESH_175_F0
 10
294.7733
 20
-100.172
 30
0
 70
192
 0
VERTEX
 8
MESH_175_F0
 10
296.0997
 20
-99.2204
 30
0
 70
192
 0
VERTEX
 8
MESH_175_F0
 10
297.4869
 20
-98.357
 30
0
 70
192
 0
VERTEX
 8
MESH_175_F0
 10
298.9319
 20
-97.5847
 30
0
 70
192
 0
VERTEX
 8
MESH_175_F0
 10
300.4238
 20
-96.9084
 30
0
 70
192
 0
VERTEX
 8
MESH_175_F0
 10
301.9536
 20
-96.3313
 30
0
 70
192
 0
VERTEX
 8
MESH_175_F0
 10
303.5119
 20
-95.8566
 30
0
 70
192
 0
VERTEX
 8
MESH_175_F0
 10
305.0969
 20
-95.4858
 30
0
 70
192
 0
VERTEX
 8
MESH_175_F0
 10
306.7045
 20
-95.2201
 30
0
 70
192
 0
VERTEX
 8
MESH_175_F0
 10
308.3379
 20
-95.0585
 30
0
 70
192
 0
VERTEX
 8
MESH_175_F0
 10
310
 20
-95
 30
0
 70
192
 0
VERTEX
 8
MESH_175_F0
 10
310
 20
-95
 30
25
 70
192
 0
VERTEX
 8
MESH_175_F0
 10
308.338
 20
-95.0585
 30
25
 70
192
 0
VERTEX
 8
MESH_175_F0
 10
306.7047
 20
-95.22
 30
25
 70
192
 0
VERTEX
 8
MESH_175_F0
 10
305.0972
 20
-95.4857
 30
25
 70
192
 0
VERTEX
 8
MESH_175_F0
 10
303.5124
 20
-95.8565
 30
25
 70
192
 0
VERTEX
 8
MESH_175_F0
 10
301.9541
 20
-96.3311
 30
25
 70
192
 0
VERTEX
 8
MESH_175_F0
 10
300.4244
 20
-96.9082
 30
25
 70
192
 0
VERTEX
 8
MESH_175_F0
 10
298.9326
 20
-97.5844
 30
25
 70
192
 0
VERTEX
 8
MESH_175_F0
 10
297.4876
 20
-98.3566
 30
25
 70
192
 0
VERTEX
 8
MESH_175_F0
 10
296.1004
 20
-99.22
 30
25
 70
192
 0
VERTEX
 8
MESH_175_F0
 10
294.7739
 20
-100.1715
 30
25
 70
192
 0
VERTEX
 8
MESH_175_F0
 10
293.5131
 20
-101.207
 30
25
 70
192
 0
VERTEX
 8
MESH_175_F0
 10
292.3227
 20
-102.3221
 30
25
 70
192
 0
VERTEX
 8
MESH_175_F0
 10
291.2076
 20
-103.5125
 30
25
 70
192
 0
VERTEX
 8
MESH_175_F0
 10
290.172
 20
-104.7733
 30
25
 70
192
 0
VERTEX
 8
MESH_175_F0
 10
289.2204
 20
-106.0997
 30
25
 70
192
 0
VERTEX
 8
MESH_175_F0
 10
288.357
 20
-107.4869
 30
25
 70
192
 0
VERTEX
 8
MESH_175_F0
 10
287.5847
 20
-108.9319
 30
25
 70
192
 0
VERTEX
 8
MESH_175_F0
 10
286.9084
 20
-110.4238
 30
25
 70
192
 0
VERTEX
 8
MESH_175_F0
 10
286.3313
 20
-111.9536
 30
25
 70
192
 0
VERTEX
 8
MESH_175_F0
 10
285.8566
 20
-113.5119
 30
25
 70
192
 0
VERTEX
 8
MESH_175_F0
 10
285.4857
 20
-115.0969
 30
25
 70
192
 0
VERTEX
 8
MESH_175_F0
 10
285.2201
 20
-116.7045
 30
25
 70
192
 0
VERTEX
 8
MESH_175_F0
 10
285.0585
 20
-118.3379
 30
25
 70
192
 0
VERTEX
 8
MESH_175_F0
 10
0
 20
0
 30
0
 70
128
 71
50
 72
2
 73
1
 74
1
 0
VERTEX
 8
MESH_175_F0
 10
0
 20
0
 30
0
 70
128
 71
3
 72
2
 73
50
 74
50
 0
VERTEX
 8
MESH_175_F0
 10
0
 20
0
 30
0
 70
128
 71
3
 72
50
 73
4
 74
4
 0
VERTEX
 8
MESH_175_F0
 10
0
 20
0
 30
0
 70
128
 71
50
 72
49
 73
4
 74
4
 0
VERTEX
 8
MESH_175_F0
 10
0
 20
0
 30
0
 70
128
 71
49
 72
5
 73
4
 74
4
 0
VERTEX
 8
MESH_175_F0
 10
0
 20
0
 30
0
 70
128
 71
48
 72
5
 73
49
 74
49
 0
VERTEX
 8
MESH_175_F0
 10
0
 20
0
 30
0
 70
128
 71
6
 72
5
 73
48
 74
48
 0
VERTEX
 8
MESH_175_F0
 10
0
 20
0
 30
0
 70
128
 71
7
 72
6
 73
47
 74
47
 0
VERTEX
 8
MESH_175_F0
 10
0
 20
0
 30
0
 70
128
 71
8
 72
7
 73
46
 74
46
 0
VERTEX
 8
MESH_175_F0
 10
0
 20
0
 30
0
 70
128
 71
9
 72
8
 73
45
 74
45
 0
VERTEX
 8
MESH_175_F0
 10
0
 20
0
 30
0
 70
128
 71
10
 72
9
 73
44
 74
44
 0
VERTEX
 8
MESH_175_F0
 10
0
 20
0
 30
0
 70
128
 71
11
 72
10
 73
43
 74
43
 0
VERTEX
 8
MESH_175_F0
 10
0
 20
0
 30
0
 70
128
 71
12
 72
11
 73
42
 74
42
 0
VERTEX
 8
MESH_175_F0
 10
0
 20
0
 30
0
 70
128
 71
13
 72
12
 73
41
 74
41
 0
VERTEX
 8
MESH_175_F0
 10
0
 20
0
 30
0
 70
128
 71
14
 72
13
 73
40
 74
40
 0
VERTEX
 8
MESH_175_F0
 10
0
 20
0
 30
0
 70
128
 71
15
 72
14
 73
39
 74
39
 0
VERTEX
 8
MESH_175_F0
 10
0
 20
0
 30
0
 70
128
 71
16
 72
15
 73
38
 74
38
 0
VERTEX
 8
MESH_175_F0
 10
0
 20
0
 30
0
 70
128
 71
17
 72
16
 73
37
 74
37
 0
VERTEX
 8
MESH_175_F0
 10
0
 20
0
 30
0
 70
128
 71
18
 72
17
 73
36
 74
36
 0
VERTEX
 8
MESH_175_F0
 10
0
 20
0
 30
0
 70
128
 71
19
 72
18
 73
35
 74
35
 0
VERTEX
 8
MESH_175_F0
 10
0
 20
0
 30
0
 70
128
 71
20
 72
19
 73
34
 74
34
 0
VERTEX
 8
MESH_175_F0
 10
0
 20
0
 30
0
 70
128
 71
21
 72
20
 73
33
 74
33
 0
VERTEX
 8
MESH_175_F0
 10
0
 20
0
 30
0
 70
128
 71
22
 72
21
 73
32
 74
32
 0
VERTEX
 8
MESH_175_F0
 10
0
 20
0
 30
0
 70
128
 71
23
 72
22
 73
31
 74
31
 0
VERTEX
 8
MESH_175_F0
 10
0
 20
0
 30
0
 70
128
 71
24
 72
23
 73
30
 74
30
 0
VERTEX
 8
MESH_175_F0
 10
0
 20
0
 30
0
 70
128
 71
25
 72
24
 73
29
 74
29
 0
VERTEX
 8
MESH_175_F0
 10
0
 20
0
 30
0
 70
128
 71
26
 72
25
 73
28
 74
28
 0
VERTEX
 8
MESH_175_F0
 10
0
 20
0
 30
0
 70
128
 71
26
 72
28
 73
27
 74
27
 0
VERTEX
 8
MESH_175_F0
 10
0
 20
0
 30
0
 70
128
 71
25
 72
29
 73
28
 74
28
 0
VERTEX
 8
MESH_175_F0
 10
0
 20
0
 30
0
 70
128
 71
24
 72
30
 73
29
 74
29
 0
VERTEX
 8
MESH_175_F0
 10
0
 20
0
 30
0
 70
128
 71
23
 72
31
 73
30
 74
30
 0
VERTEX
 8
MESH_175_F0
 10
0
 20
0
 30
0
 70
128
 71
22
 72
32
 73
31
 74
31
 0
VERTEX
 8
MESH_175_F0
 10
0
 20
0
 30
0
 70
128
 71
21
 72
33
 73
32
 74
32
 0
VERTEX
 8
MESH_175_F0
 10
0
 20
0
 30
0
 70
128
 71
20
 72
34
 73
33
 74
33
 0
VERTEX
 8
MESH_175_F0
 10
0
 20
0
 30
0
 70
128
 71
19
 72
35
 73
34
 74
34
 0
VERTEX
 8
MESH_175_F0
 10
0
 20
0
 30
0
 70
128
 71
18
 72
36
 73
35
 74
35
 0
VERTEX
 8
MESH_175_F0
 10
0
 20
0
 30
0
 70
128
 71
17
 72
37
 73
36
 74
36
 0
VERTEX
 8
MESH_175_F0
 10
0
 20
0
 30
0
 70
128
 71
16
 72
38
 73
37
 74
37
 0
VERTEX
 8
MESH_175_F0
 10
0
 20
0
 30
0
 70
128
 71
15
 72
39
 73
38
 74
38
 0
VERTEX
 8
MESH_175_F0
 10
0
 20
0
 30
0
 70
128
 71
14
 72
40
 73
39
 74
39
 0
VERTEX
 8
MESH_175_F0
 10
0
 20
0
 30
0
 70
128
 71
13
 72
41
 73
40
 74
40
 0
VERTEX
 8
MESH_175_F0
 10
0
 20
0
 30
0
 70
128
 71
12
 72
42
 73
41
 74
41
 0
VERTEX
 8
MESH_175_F0
 10
0
 20
0
 30
0
 70
128
 71
11
 72
43
 73
42
 74
42
 0
VERTEX
 8
MESH_175_F0
 10
0
 20
0
 30
0
 70
128
 71
10
 72
44
 73
43
 74
43
 0
VERTEX
 8
MESH_175_F0
 10
0
 20
0
 30
0
 70
128
 71
9
 72
45
 73
44
 74
44
 0
VERTEX
 8
MESH_175_F0
 10
0
 20
0
 30
0
 70
128
 71
8
 72
46
 73
45
 74
45
 0
VERTEX
 8
MESH_175_F0
 10
0
 20
0
 30
0
 70
128
 71
7
 72
47
 73
46
 74
46
 0
VERTEX
 8
MESH_175_F0
 10
0
 20
0
 30
0
 70
128
 71
6
 72
48
 73
47
 74
47
 0
SEQEND
 0
POLYLINE
 8
MESH_174_F0
 66
1
 10
0.0
 20
0.0
 30
0.0
 70
64
 71
4
 72
2
 0
VERTEX
 8
MESH_174_F0
 10
310
 20
-95
 30
25
 70
192
 0
VERTEX
 8
MESH_174_F0
 10
310
 20
-95
 30
0
 70
192
 0
VERTEX
 8
MESH_174_F0
 10
380
 20
-95
 30
0
 70
192
 0
VERTEX
 8
MESH_174_F0
 10
380
 20
-95
 30
25
 70
192
 0
VERTEX
 8
MESH_174_F0
 10
0
 20
0
 30
0
 70
128
 71
1
 72
3
 73
2
 74
2
 0
VERTEX
 8
MESH_174_F0
 10
0
 20
0
 30
0
 70
128
 71
4
 72
3
 73
1
 74
1
 0
SEQEND
 0
POLYLINE
 8
MESH_173_F0
 66
1
 10
0.0
 20
0.0
 30
0.0
 70
64
 71
50
 72
48
 0
VERTEX
 8
MESH_173_F0
 10
380
 20
-95
 30
25
 70
192
 0
VERTEX
 8
MESH_173_F0
 10
380
 20
-95
 30
0
 70
192
 0
VERTEX
 8
MESH_173_F0
 10
381.662
 20
-95.0585
 30
0
 70
192
 0
VERTEX
 8
MESH_173_F0
 10
383.2953
 20
-95.22
 30
0
 70
192
 0
VERTEX
 8
MESH_173_F0
 10
384.9028
 20
-95.4857
 30
0
 70
192
 0
VERTEX
 8
MESH_173_F0
 10
386.4876
 20
-95.8565
 30
0
 70
192
 0
VERTEX
 8
MESH_173_F0
 10
388.0459
 20
-96.3311
 30
0
 70
192
 0
VERTEX
 8
MESH_173_F0
 10
389.5756
 20
-96.9082
 30
0
 70
192
 0
VERTEX
 8
MESH_173_F0
 10
391.0674
 20
-97.5844
 30
0
 70
192
 0
VERTEX
 8
MESH_173_F0
 10
392.5124
 20
-98.3566
 30
0
 70
192
 0
VERTEX
 8
MESH_173_F0
 10
393.8996
 20
-99.22
 30
0
 70
192
 0
VERTEX
 8
MESH_173_F0
 10
395.226
 20
-100.1715
 30
0
 70
192
 0
VERTEX
 8
MESH_173_F0
 10
396.4869
 20
-101.207
 30
0
 70
192
 0
VERTEX
 8
MESH_173_F0
 10
397.6773
 20
-102.3221
 30
0
 70
192
 0
VERTEX
 8
MESH_173_F0
 10
398.7924
 20
-103.5125
 30
0
 70
192
 0
VERTEX
 8
MESH_173_F0
 10
399.828
 20
-104.7733
 30
0
 70
192
 0
VERTEX
 8
MESH_173_F0
 10
400.7796
 20
-106.0997
 30
0
 70
192
 0
VERTEX
 8
MESH_173_F0
 10
401.643
 20
-107.4869
 30
0
 70
192
 0
VERTEX
 8
MESH_173_F0
 10
402.4153
 20
-108.9319
 30
0
 70
192
 0
VERTEX
 8
MESH_173_F0
 10
403.0916
 20
-110.4238
 30
0
 70
192
 0
VERTEX
 8
MESH_173_F0
 10
403.6687
 20
-111.9536
 30
0
 70
192
 0
VERTEX
 8
MESH_173_F0
 10
404.1434
 20
-113.5119
 30
0
 70
192
 0
VERTEX
 8
MESH_173_F0
 10
404.5142
 20
-115.0969
 30
0
 70
192
 0
VERTEX
 8
MESH_173_F0
 10
404.7799
 20
-116.7045
 30
0
 70
192
 0
VERTEX
 8
MESH_173_F0
 10
404.9415
 20
-118.3379
 30
0
 70
192
 0
VERTEX
 8
MESH_173_F0
 10
405
 20
-120
 30
0
 70
192
 0
VERTEX
 8
MESH_173_F0
 10
405
 20
-120
 30
25
 70
192
 0
VERTEX
 8
MESH_173_F0
 10
404.9415
 20
-118.338
 30
25
 70
192
 0
VERTEX
 8
MESH_173_F0
 10
404.78
 20
-116.7047
 30
25
 70
192
 0
VERTEX
 8
MESH_173_F0
 10
404.5143
 20
-115.0972
 30
25
 70
192
 0
VERTEX
 8
MESH_173_F0
 10
404.1435
 20
-113.5124
 30
25
 70
192
 0
VERTEX
 8
MESH_173_F0
 10
403.6688
 20
-111.9541
 30
25
 70
192
 0
VERTEX
 8
MESH_173_F0
 10
403.0918
 20
-110.4244
 30
25
 70
192
 0
VERTEX
 8
MESH_173_F0
 10
402.4156
 20
-108.9326
 30
25
 70
192
 0
VERTEX
 8
MESH_173_F0
 10
401.6433
 20
-107.4876
 30
25
 70
192
 0
VERTEX
 8
MESH_173_F0
 10
400.78
 20
-106.1004
 30
25
 70
192
 0
VERTEX
 8
MESH_173_F0
 10
399.8285
 20
-104.7739
 30
25
 70
192
 0
VERTEX
 8
MESH_173_F0
 10
398.793
 20
-103.5131
 30
25
 70
192
 0
VERTEX
 8
MESH_173_F0
 10
397.6779
 20
-102.3227
 30
25
 70
192
 0
VERTEX
 8
MESH_173_F0
 10
396.4875
 20
-101.2076
 30
25
 70
192
 0
VERTEX
 8
MESH_173_F0
 10
395.2267
 20
-100.172
 30
25
 70
192
 0
VERTEX
 8
MESH_173_F0
 10
393.9003
 20
-99.2204
 30
25
 70
192
 0
VERTEX
 8
MESH_173_F0
 10
392.5131
 20
-98.357
 30
25
 70
192
 0
VERTEX
 8
MESH_173_F0
 10
391.0681
 20
-97.5847
 30
25
 70
192
 0
VERTEX
 8
MESH_173_F0
 10
389.5761
 20
-96.9084
 30
25
 70
192
 0
VERTEX
 8
MESH_173_F0
 10
388.0464
 20
-96.3313
 30
25
 70
192
 0
VERTEX
 8
MESH_173_F0
 10
386.4881
 20
-95.8566
 30
25
 70
192
 0
VERTEX
 8
MESH_173_F0
 10
384.9031
 20
-95.4858
 30
25
 70
192
 0
VERTEX
 8
MESH_173_F0
 10
383.2955
 20
-95.2201
 30
25
 70
192
 0
VERTEX
 8
MESH_173_F0
 10
381.6621
 20
-95.0585
 30
25
 70
192
 0
VERTEX
 8
MESH_173_F0
 10
0
 20
0
 30
0
 70
128
 71
50
 72
2
 73
1
 74
1
 0
VERTEX
 8
MESH_173_F0
 10
0
 20
0
 30
0
 70
128
 71
3
 72
2
 73
50
 74
50
 0
VERTEX
 8
MESH_173_F0
 10
0
 20
0
 30
0
 70
128
 71
3
 72
50
 73
4
 74
4
 0
VERTEX
 8
MESH_173_F0
 10
0
 20
0
 30
0
 70
128
 71
50
 72
49
 73
4
 74
4
 0
VERTEX
 8
MESH_173_F0
 10
0
 20
0
 30
0
 70
128
 71
49
 72
5
 73
4
 74
4
 0
VERTEX
 8
MESH_173_F0
 10
0
 20
0
 30
0
 70
128
 71
48
 72
5
 73
49
 74
49
 0
VERTEX
 8
MESH_173_F0
 10
0
 20
0
 30
0
 70
128
 71
6
 72
5
 73
48
 74
48
 0
VERTEX
 8
MESH_173_F0
 10
0
 20
0
 30
0
 70
128
 71
7
 72
6
 73
47
 74
47
 0
VERTEX
 8
MESH_173_F0
 10
0
 20
0
 30
0
 70
128
 71
8
 72
7
 73
46
 74
46
 0
VERTEX
 8
MESH_173_F0
 10
0
 20
0
 30
0
 70
128
 71
9
 72
8
 73
45
 74
45
 0
VERTEX
 8
MESH_173_F0
 10
0
 20
0
 30
0
 70
128
 71
10
 72
9
 73
44
 74
44
 0
VERTEX
 8
MESH_173_F0
 10
0
 20
0
 30
0
 70
128
 71
11
 72
10
 73
43
 74
43
 0
VERTEX
 8
MESH_173_F0
 10
0
 20
0
 30
0
 70
128
 71
12
 72
11
 73
42
 74
42
 0
VERTEX
 8
MESH_173_F0
 10
0
 20
0
 30
0
 70
128
 71
13
 72
12
 73
41
 74
41
 0
VERTEX
 8
MESH_173_F0
 10
0
 20
0
 30
0
 70
128
 71
14
 72
13
 73
40
 74
40
 0
VERTEX
 8
MESH_173_F0
 10
0
 20
0
 30
0
 70
128
 71
15
 72
14
 73
39
 74
39
 0
VERTEX
 8
MESH_173_F0
 10
0
 20
0
 30
0
 70
128
 71
16
 72
15
 73
38
 74
38
 0
VERTEX
 8
MESH_173_F0
 10
0
 20
0
 30
0
 70
128
 71
17
 72
16
 73
37
 74
37
 0
VERTEX
 8
MESH_173_F0
 10
0
 20
0
 30
0
 70
128
 71
18
 72
17
 73
36
 74
36
 0
VERTEX
 8
MESH_173_F0
 10
0
 20
0
 30
0
 70
128
 71
19
 72
18
 73
35
 74
35
 0
VERTEX
 8
MESH_173_F0
 10
0
 20
0
 30
0
 70
128
 71
20
 72
19
 73
34
 74
34
 0
VERTEX
 8
MESH_173_F0
 10
0
 20
0
 30
0
 70
128
 71
21
 72
20
 73
33
 74
33
 0
VERTEX
 8
MESH_173_F0
 10
0
 20
0
 30
0
 70
128
 71
22
 72
21
 73
32
 74
32
 0
VERTEX
 8
MESH_173_F0
 10
0
 20
0
 30
0
 70
128
 71
23
 72
22
 73
31
 74
31
 0
VERTEX
 8
MESH_173_F0
 10
0
 20
0
 30
0
 70
128
 71
24
 72
23
 73
30
 74
30
 0
VERTEX
 8
MESH_173_F0
 10
0
 20
0
 30
0
 70
128
 71
25
 72
24
 73
29
 74
29
 0
VERTEX
 8
MESH_173_F0
 10
0
 20
0
 30
0
 70
128
 71
26
 72
25
 73
28
 74
28
 0
VERTEX
 8
MESH_173_F0
 10
0
 20
0
 30
0
 70
128
 71
26
 72
28
 73
27
 74
27
 0
VERTEX
 8
MESH_173_F0
 10
0
 20
0
 30
0
 70
128
 71
25
 72
29
 73
28
 74
28
 0
VERTEX
 8
MESH_173_F0
 10
0
 20
0
 30
0
 70
128
 71
24
 72
30
 73
29
 74
29
 0
VERTEX
 8
MESH_173_F0
 10
0
 20
0
 30
0
 70
128
 71
23
 72
31
 73
30
 74
30
 0
VERTEX
 8
MESH_173_F0
 10
0
 20
0
 30
0
 70
128
 71
22
 72
32
 73
31
 74
31
 0
VERTEX
 8
MESH_173_F0
 10
0
 20
0
 30
0
 70
128
 71
21
 72
33
 73
32
 74
32
 0
VERTEX
 8
MESH_173_F0
 10
0
 20
0
 30
0
 70
128
 71
20
 72
34
 73
33
 74
33
 0
VERTEX
 8
MESH_173_F0
 10
0
 20
0
 30
0
 70
128
 71
19
 72
35
 73
34
 74
34
 0
VERTEX
 8
MESH_173_F0
 10
0
 20
0
 30
0
 70
128
 71
18
 72
36
 73
35
 74
35
 0
VERTEX
 8
MESH_173_F0
 10
0
 20
0
 30
0
 70
128
 71
17
 72
37
 73
36
 74
36
 0
VERTEX
 8
MESH_173_F0
 10
0
 20
0
 30
0
 70
128
 71
16
 72
38
 73
37
 74
37
 0
VERTEX
 8
MESH_173_F0
 10
0
 20
0
 30
0
 70
128
 71
15
 72
39
 73
38
 74
38
 0
VERTEX
 8
MESH_173_F0
 10
0
 20
0
 30
0
 70
128
 71
14
 72
40
 73
39
 74
39
 0
VERTEX
 8
MESH_173_F0
 10
0
 20
0
 30
0
 70
128
 71
13
 72
41
 73
40
 74
40
 0
VERTEX
 8
MESH_173_F0
 10
0
 20
0
 30
0
 70
128
 71
12
 72
42
 73
41
 74
41
 0
VERTEX
 8
MESH_173_F0
 10
0
 20
0
 30
0
 70
128
 71
11
 72
43
 73
42
 74
42
 0
VERTEX
 8
MESH_173_F0
 10
0
 20
0
 30
0
 70
128
 71
10
 72
44
 73
43
 74
43
 0
VERTEX
 8
MESH_173_F0
 10
0
 20
0
 30
0
 70
128
 71
9
 72
45
 73
44
 74
44
 0
VERTEX
 8
MESH_173_F0
 10
0
 20
0
 30
0
 70
128
 71
8
 72
46
 73
45
 74
45
 0
VERTEX
 8
MESH_173_F0
 10
0
 20
0
 30
0
 70
128
 71
7
 72
47
 73
46
 74
46
 0
VERTEX
 8
MESH_173_F0
 10
0
 20
0
 30
0
 70
128
 71
6
 72
48
 73
47
 74
47
 0
SEQEND
 0
POLYLINE
 8
MESH_172_F0
 66
1
 10
0.0
 20
0.0
 30
0.0
 70
64
 71
4
 72
2
 0
VERTEX
 8
MESH_172_F0
 10
405
 20
-120
 30
25
 70
192
 0
VERTEX
 8
MESH_172_F0
 10
405
 20
-120
 30
0
 70
192
 0
VERTEX
 8
MESH_172_F0
 10
405
 20
-298
 30
0
 70
192
 0
VERTEX
 8
MESH_172_F0
 10
405
 20
-298
 30
25
 70
192
 0
VERTEX
 8
MESH_172_F0
 10
0
 20
0
 30
0
 70
128
 71
1
 72
3
 73
2
 74
2
 0
VERTEX
 8
MESH_172_F0
 10
0
 20
0
 30
0
 70
128
 71
4
 72
3
 73
1
 74
1
 0
SEQEND
 0
POLYLINE
 8
MESH_171_F0
 66
1
 10
0.0
 20
0.0
 30
0.0
 70
64
 71
50
 72
48
 0
VERTEX
 8
MESH_171_F0
 10
405
 20
-298
 30
25
 70
192
 0
VERTEX
 8
MESH_171_F0
 10
405
 20
-298
 30
0
 70
192
 0
VERTEX
 8
MESH_171_F0
 10
404.9415
 20
-299.662
 30
0
 70
192
 0
VERTEX
 8
MESH_171_F0
 10
404.78
 20
-301.2953
 30
0
 70
192
 0
VERTEX
 8
MESH_171_F0
 10
404.5143
 20
-302.9028
 30
0
 70
192
 0
VERTEX
 8
MESH_171_F0
 10
404.1435
 20
-304.4876
 30
0
 70
192
 0
VERTEX
 8
MESH_171_F0
 10
403.6688
 20
-306.0459
 30
0
 70
192
 0
VERTEX
 8
MESH_171_F0
 10
403.0918
 20
-307.5756
 30
0
 70
192
 0
VERTEX
 8
MESH_171_F0
 10
402.4156
 20
-309.0674
 30
0
 70
192
 0
VERTEX
 8
MESH_171_F0
 10
401.6433
 20
-310.5124
 30
0
 70
192
 0
VERTEX
 8
MESH_171_F0
 10
400.78
 20
-311.8996
 30
0
 70
192
 0
VERTEX
 8
MESH_171_F0
 10
399.8285
 20
-313.226
 30
0
 70
192
 0
VERTEX
 8
MESH_171_F0
 10
398.793
 20
-314.4869
 30
0
 70
192
 0
VERTEX
 8
MESH_171_F0
 10
397.6779
 20
-315.6773
 30
0
 70
192
 0
VERTEX
 8
MESH_171_F0
 10
396.4875
 20
-316.7924
 30
0
 70
192
 0
VERTEX
 8
MESH_171_F0
 10
395.2267
 20
-317.8279
 30
0
 70
192
 0
VERTEX
 8
MESH_171_F0
 10
393.9003
 20
-318.7796
 30
0
 70
192
 0
VERTEX
 8
MESH_171_F0
 10
392.5131
 20
-319.643
 30
0
 70
192
 0
VERTEX
 8
MESH_171_F0
 10
391.0681
 20
-320.4153
 30
0
 70
192
 0
VERTEX
 8
MESH_171_F0
 10
389.5761
 20
-321.0916
 30
0
 70
192
 0
VERTEX
 8
MESH_171_F0
 10
388.0464
 20
-321.6687
 30
0
 70
192
 0
VERTEX
 8
MESH_171_F0
 10
386.4881
 20
-322.1434
 30
0
 70
192
 0
VERTEX
 8
MESH_171_F0
 10
384.9031
 20
-322.5143
 30
0
 70
192
 0
VERTEX
 8
MESH_171_F0
 10
383.2955
 20
-322.7799
 30
0
 70
192
 0
VERTEX
 8
MESH_171_F0
 10
381.6621
 20
-322.9415
 30
0
 70
192
 0
VERTEX
 8
MESH_171_F0
 10
380
 20
-323
 30
0
 70
192
 0
VERTEX
 8
MESH_171_F0
 10
380
 20
-323
 30
25
 70
192
 0
VERTEX
 8
MESH_171_F0
 10
381.662
 20
-322.9415
 30
25
 70
192
 0
VERTEX
 8
MESH_171_F0
 10
383.2953
 20
-322.78
 30
25
 70
192
 0
VERTEX
 8
MESH_171_F0
 10
384.9028
 20
-322.5143
 30
25
 70
192
 0
VERTEX
 8
MESH_171_F0
 10
386.4876
 20
-322.1435
 30
25
 70
192
 0
VERTEX
 8
MESH_171_F0
 10
388.0459
 20
-321.6689
 30
25
 70
192
 0
VERTEX
 8
MESH_171_F0
 10
389.5756
 20
-321.0918
 30
25
 70
192
 0
VERTEX
 8
MESH_171_F0
 10
391.0674
 20
-320.4156
 30
25
 70
192
 0
VERTEX
 8
MESH_171_F0
 10
392.5124
 20
-319.6433
 30
25
 70
192
 0
VERTEX
 8
MESH_171_F0
 10
393.8996
 20
-318.78
 30
25
 70
192
 0
VERTEX
 8
MESH_171_F0
 10
395.226
 20
-317.8285
 30
25
 70
192
 0
VERTEX
 8
MESH_171_F0
 10
396.4869
 20
-316.793
 30
25
 70
192
 0
VERTEX
 8
MESH_171_F0
 10
397.6773
 20
-315.6779
 30
25
 70
192
 0
VERTEX
 8
MESH_171_F0
 10
398.7924
 20
-314.4875
 30
25
 70
192
 0
VERTEX
 8
MESH_171_F0
 10
399.828
 20
-313.2267
 30
25
 70
192
 0
VERTEX
 8
MESH_171_F0
 10
400.7796
 20
-311.9003
 30
25
 70
192
 0
VERTEX
 8
MESH_171_F0
 10
401.643
 20
-310.5131
 30
25
 70
192
 0
VERTEX
 8
MESH_171_F0
 10
402.4153
 20
-309.0681
 30
25
 70
192
 0
VERTEX
 8
MESH_171_F0
 10
403.0916
 20
-307.5762
 30
25
 70
192
 0
VERTEX
 8
MESH_171_F0
 10
403.6687
 20
-306.0464
 30
25
 70
192
 0
VERTEX
 8
MESH_171_F0
 10
404.1434
 20
-304.4881
 30
25
 70
192
 0
VERTEX
 8
MESH_171_F0
 10
404.5142
 20
-302.9031
 30
25
 70
192
 0
VERTEX
 8
MESH_171_F0
 10
404.7799
 20
-301.2955
 30
25
 70
192
 0
VERTEX
 8
MESH_171_F0
 10
404.9415
 20
-299.6621
 30
25
 70
192
 0
VERTEX
 8
MESH_171_F0
 10
0
 20
0
 30
0
 70
128
 71
50
 72
2
 73
1
 74
1
 0
VERTEX
 8
MESH_171_F0
 10
0
 20
0
 30
0
 70
128
 71
3
 72
2
 73
50
 74
50
 0
VERTEX
 8
MESH_171_F0
 10
0
 20
0
 30
0
 70
128
 71
3
 72
50
 73
4
 74
4
 0
VERTEX
 8
MESH_171_F0
 10
0
 20
0
 30
0
 70
128
 71
50
 72
49
 73
4
 74
4
 0
VERTEX
 8
MESH_171_F0
 10
0
 20
0
 30
0
 70
128
 71
49
 72
5
 73
4
 74
4
 0
VERTEX
 8
MESH_171_F0
 10
0
 20
0
 30
0
 70
128
 71
48
 72
5
 73
49
 74
49
 0
VERTEX
 8
MESH_171_F0
 10
0
 20
0
 30
0
 70
128
 71
6
 72
5
 73
48
 74
48
 0
VERTEX
 8
MESH_171_F0
 10
0
 20
0
 30
0
 70
128
 71
7
 72
6
 73
47
 74
47
 0
VERTEX
 8
MESH_171_F0
 10
0
 20
0
 30
0
 70
128
 71
8
 72
7
 73
46
 74
46
 0
VERTEX
 8
MESH_171_F0
 10
0
 20
0
 30
0
 70
128
 71
9
 72
8
 73
45
 74
45
 0
VERTEX
 8
MESH_171_F0
 10
0
 20
0
 30
0
 70
128
 71
10
 72
9
 73
44
 74
44
 0
VERTEX
 8
MESH_171_F0
 10
0
 20
0
 30
0
 70
128
 71
11
 72
10
 73
43
 74
43
 0
VERTEX
 8
MESH_171_F0
 10
0
 20
0
 30
0
 70
128
 71
12
 72
11
 73
42
 74
42
 0
VERTEX
 8
MESH_171_F0
 10
0
 20
0
 30
0
 70
128
 71
13
 72
12
 73
41
 74
41
 0
VERTEX
 8
MESH_171_F0
 10
0
 20
0
 30
0
 70
128
 71
14
 72
13
 73
40
 74
40
 0
VERTEX
 8
MESH_171_F0
 10
0
 20
0
 30
0
 70
128
 71
15
 72
14
 73
39
 74
39
 0
VERTEX
 8
MESH_171_F0
 10
0
 20
0
 30
0
 70
128
 71
16
 72
15
 73
38
 74
38
 0
VERTEX
 8
MESH_171_F0
 10
0
 20
0
 30
0
 70
128
 71
17
 72
16
 73
37
 74
37
 0
VERTEX
 8
MESH_171_F0
 10
0
 20
0
 30
0
 70
128
 71
18
 72
17
 73
36
 74
36
 0
VERTEX
 8
MESH_171_F0
 10
0
 20
0
 30
0
 70
128
 71
19
 72
18
 73
35
 74
35
 0
VERTEX
 8
MESH_171_F0
 10
0
 20
0
 30
0
 70
128
 71
20
 72
19
 73
34
 74
34
 0
VERTEX
 8
MESH_171_F0
 10
0
 20
0
 30
0
 70
128
 71
21
 72
20
 73
33
 74
33
 0
VERTEX
 8
MESH_171_F0
 10
0
 20
0
 30
0
 70
128
 71
22
 72
21
 73
32
 74
32
 0
VERTEX
 8
MESH_171_F0
 10
0
 20
0
 30
0
 70
128
 71
23
 72
22
 73
31
 74
31
 0
VERTEX
 8
MESH_171_F0
 10
0
 20
0
 30
0
 70
128
 71
24
 72
23
 73
30
 74
30
 0
VERTEX
 8
MESH_171_F0
 10
0
 20
0
 30
0
 70
128
 71
25
 72
24
 73
29
 74
29
 0
VERTEX
 8
MESH_171_F0
 10
0
 20
0
 30
0
 70
128
 71
26
 72
25
 73
28
 74
28
 0
VERTEX
 8
MESH_171_F0
 10
0
 20
0
 30
0
 70
128
 71
26
 72
28
 73
27
 74
27
 0
VERTEX
 8
MESH_171_F0
 10
0
 20
0
 30
0
 70
128
 71
25
 72
29
 73
28
 74
28
 0
VERTEX
 8
MESH_171_F0
 10
0
 20
0
 30
0
 70
128
 71
24
 72
30
 73
29
 74
29
 0
VERTEX
 8
MESH_171_F0
 10
0
 20
0
 30
0
 70
128
 71
23
 72
31
 73
30
 74
30
 0
VERTEX
 8
MESH_171_F0
 10
0
 20
0
 30
0
 70
128
 71
22
 72
32
 73
31
 74
31
 0
VERTEX
 8
MESH_171_F0
 10
0
 20
0
 30
0
 70
128
 71
21
 72
33
 73
32
 74
32
 0
VERTEX
 8
MESH_171_F0
 10
0
 20
0
 30
0
 70
128
 71
20
 72
34
 73
33
 74
33
 0
VERTEX
 8
MESH_171_F0
 10
0
 20
0
 30
0
 70
128
 71
19
 72
35
 73
34
 74
34
 0
VERTEX
 8
MESH_171_F0
 10
0
 20
0
 30
0
 70
128
 71
18
 72
36
 73
35
 74
35
 0
VERTEX
 8
MESH_171_F0
 10
0
 20
0
 30
0
 70
128
 71
17
 72
37
 73
36
 74
36
 0
VERTEX
 8
MESH_171_F0
 10
0
 20
0
 30
0
 70
128
 71
16
 72
38
 73
37
 74
37
 0
VERTEX
 8
MESH_171_F0
 10
0
 20
0
 30
0
 70
128
 71
15
 72
39
 73
38
 74
38
 0
VERTEX
 8
MESH_171_F0
 10
0
 20
0
 30
0
 70
128
 71
14
 72
40
 73
39
 74
39
 0
VERTEX
 8
MESH_171_F0
 10
0
 20
0
 30
0
 70
128
 71
13
 72
41
 73
40
 74
40
 0
VERTEX
 8
MESH_171_F0
 10
0
 20
0
 30
0
 70
128
 71
12
 72
42
 73
41
 74
41
 0
VERTEX
 8
MESH_171_F0
 10
0
 20
0
 30
0
 70
128
 71
11
 72
43
 73
42
 74
42
 0
VERTEX
 8
MESH_171_F0
 10
0
 20
0
 30
0
 70
128
 71
10
 72
44
 73
43
 74
43
 0
VERTEX
 8
MESH_171_F0
 10
0
 20
0
 30
0
 70
128
 71
9
 72
45
 73
44
 74
44
 0
VERTEX
 8
MESH_171_F0
 10
0
 20
0
 30
0
 70
128
 71
8
 72
46
 73
45
 74
45
 0
VERTEX
 8
MESH_171_F0
 10
0
 20
0
 30
0
 70
128
 71
7
 72
47
 73
46
 74
46
 0
VERTEX
 8
MESH_171_F0
 10
0
 20
0
 30
0
 70
128
 71
6
 72
48
 73
47
 74
47
 0
SEQEND
 0
POLYLINE
 8
MESH_170_F0
 66
1
 10
0.0
 20
0.0
 30
0.0
 70
64
 71
4
 72
2
 0
VERTEX
 8
MESH_170_F0
 10
380
 20
-323
 30
25
 70
192
 0
VERTEX
 8
MESH_170_F0
 10
380
 20
-323
 30
0
 70
192
 0
VERTEX
 8
MESH_170_F0
 10
310
 20
-323
 30
0
 70
192
 0
VERTEX
 8
MESH_170_F0
 10
310
 20
-323
 30
25
 70
192
 0
VERTEX
 8
MESH_170_F0
 10
0
 20
0
 30
0
 70
128
 71
1
 72
3
 73
2
 74
2
 0
VERTEX
 8
MESH_170_F0
 10
0
 20
0
 30
0
 70
128
 71
4
 72
3
 73
1
 74
1
 0
SEQEND
 0
POLYLINE
 8
MESH_169_F0
 66
1
 10
0.0
 20
0.0
 30
0.0
 70
64
 71
50
 72
48
 0
VERTEX
 8
MESH_169_F0
 10
310
 20
-323
 30
25
 70
192
 0
VERTEX
 8
MESH_169_F0
 10
310
 20
-323
 30
0
 70
192
 0
VERTEX
 8
MESH_169_F0
 10
308.338
 20
-322.9415
 30
0
 70
192
 0
VERTEX
 8
MESH_169_F0
 10
306.7047
 20
-322.78
 30
0
 70
192
 0
VERTEX
 8
MESH_169_F0
 10
305.0972
 20
-322.5143
 30
0
 70
192
 0
VERTEX
 8
MESH_169_F0
 10
303.5124
 20
-322.1435
 30
0
 70
192
 0
VERTEX
 8
MESH_169_F0
 10
301.9541
 20
-321.6689
 30
0
 70
192
 0
VERTEX
 8
MESH_169_F0
 10
300.4244
 20
-321.0918
 30
0
 70
192
 0
VERTEX
 8
MESH_169_F0
 10
298.9326
 20
-320.4156
 30
0
 70
192
 0
VERTEX
 8
MESH_169_F0
 10
297.4876
 20
-319.6433
 30
0
 70
192
 0
VERTEX
 8
MESH_169_F0
 10
296.1004
 20
-318.78
 30
0
 70
192
 0
VERTEX
 8
MESH_169_F0
 10
294.7739
 20
-317.8285
 30
0
 70
192
 0
VERTEX
 8
MESH_169_F0
 10
293.5131
 20
-316.793
 30
0
 70
192
 0
VERTEX
 8
MESH_169_F0
 10
292.3227
 20
-315.6779
 30
0
 70
192
 0
VERTEX
 8
MESH_169_F0
 10
291.2076
 20
-314.4875
 30
0
 70
192
 0
VERTEX
 8
MESH_169_F0
 10
290.172
 20
-313.2267
 30
0
 70
192
 0
VERTEX
 8
MESH_169_F0
 10
289.2204
 20
-311.9003
 30
0
 70
192
 0
VERTEX
 8
MESH_169_F0
 10
288.357
 20
-310.5131
 30
0
 70
192
 0
VERTEX
 8
MESH_169_F0
 10
287.5847
 20
-309.0681
 30
0
 70
192
 0
VERTEX
 8
MESH_169_F0
 10
286.9084
 20
-307.5762
 30
0
 70
192
 0
VERTEX
 8
MESH_169_F0
 10
286.3313
 20
-306.0464
 30
0
 70
192
 0
VERTEX
 8
MESH_169_F0
 10
285.8566
 20
-304.4881
 30
0
 70
192
 0
VERTEX
 8
MESH_169_F0
 10
285.4857
 20
-302.9031
 30
0
 70
192
 0
VERTEX
 8
MESH_169_F0
 10
285.2201
 20
-301.2955
 30
0
 70
192
 0
VERTEX
 8
MESH_169_F0
 10
285.0585
 20
-299.6621
 30
0
 70
192
 0
VERTEX
 8
MESH_169_F0
 10
285
 20
-298
 30
0
 70
192
 0
VERTEX
 8
MESH_169_F0
 10
285
 20
-298
 30
25
 70
192
 0
VERTEX
 8
MESH_169_F0
 10
285.0585
 20
-299.662
 30
25
 70
192
 0
VERTEX
 8
MESH_169_F0
 10
285.22
 20
-301.2953
 30
25
 70
192
 0
VERTEX
 8
MESH_169_F0
 10
285.4857
 20
-302.9028
 30
25
 70
192
 0
VERTEX
 8
MESH_169_F0
 10
285.8565
 20
-304.4876
 30
25
 70
192
 0
VERTEX
 8
MESH_169_F0
 10
286.3311
 20
-306.0459
 30
25
 70
192
 0
VERTEX
 8
MESH_169_F0
 10
286.9082
 20
-307.5756
 30
25
 70
192
 0
VERTEX
 8
MESH_169_F0
 10
287.5844
 20
-309.0674
 30
25
 70
192
 0
VERTEX
 8
MESH_169_F0
 10
288.3567
 20
-310.5124
 30
25
 70
192
 0
VERTEX
 8
MESH_169_F0
 10
289.22
 20
-311.8996
 30
25
 70
192
 0
VERTEX
 8
MESH_169_F0
 10
290.1715
 20
-313.226
 30
25
 70
192
 0
VERTEX
 8
MESH_169_F0
 10
291.207
 20
-314.4869
 30
25
 70
192
 0
VERTEX
 8
MESH_169_F0
 10
292.3221
 20
-315.6773
 30
25
 70
192
 0
VERTEX
 8
MESH_169_F0
 10
293.5125
 20
-316.7924
 30
25
 70
192
 0
VERTEX
 8
MESH_169_F0
 10
294.7733
 20
-317.8279
 30
25
 70
192
 0
VERTEX
 8
MESH_169_F0
 10
296.0997
 20
-318.7796
 30
25
 70
192
 0
VERTEX
 8
MESH_169_F0
 10
297.4869
 20
-319.643
 30
25
 70
192
 0
VERTEX
 8
MESH_169_F0
 10
298.9319
 20
-320.4153
 30
25
 70
192
 0
VERTEX
 8
MESH_169_F0
 10
300.4238
 20
-321.0916
 30
25
 70
192
 0
VERTEX
 8
MESH_169_F0
 10
301.9536
 20
-321.6687
 30
25
 70
192
 0
VERTEX
 8
MESH_169_F0
 10
303.5119
 20
-322.1434
 30
25
 70
192
 0
VERTEX
 8
MESH_169_F0
 10
305.0969
 20
-322.5143
 30
25
 70
192
 0
VERTEX
 8
MESH_169_F0
 10
306.7045
 20
-322.7799
 30
25
 70
192
 0
VERTEX
 8
MESH_169_F0
 10
308.3379
 20
-322.9415
 30
25
 70
192
 0
VERTEX
 8
MESH_169_F0
 10
0
 20
0
 30
0
 70
128
 71
50
 72
2
 73
1
 74
1
 0
VERTEX
 8
MESH_169_F0
 10
0
 20
0
 30
0
 70
128
 71
3
 72
2
 73
50
 74
50
 0
VERTEX
 8
MESH_169_F0
 10
0
 20
0
 30
0
 70
128
 71
3
 72
50
 73
4
 74
4
 0
VERTEX
 8
MESH_169_F0
 10
0
 20
0
 30
0
 70
128
 71
50
 72
49
 73
4
 74
4
 0
VERTEX
 8
MESH_169_F0
 10
0
 20
0
 30
0
 70
128
 71
49
 72
5
 73
4
 74
4
 0
VERTEX
 8
MESH_169_F0
 10
0
 20
0
 30
0
 70
128
 71
48
 72
5
 73
49
 74
49
 0
VERTEX
 8
MESH_169_F0
 10
0
 20
0
 30
0
 70
128
 71
6
 72
5
 73
48
 74
48
 0
VERTEX
 8
MESH_169_F0
 10
0
 20
0
 30
0
 70
128
 71
7
 72
6
 73
47
 74
47
 0
VERTEX
 8
MESH_169_F0
 10
0
 20
0
 30
0
 70
128
 71
8
 72
7
 73
46
 74
46
 0
VERTEX
 8
MESH_169_F0
 10
0
 20
0
 30
0
 70
128
 71
9
 72
8
 73
45
 74
45
 0
VERTEX
 8
MESH_169_F0
 10
0
 20
0
 30
0
 70
128
 71
10
 72
9
 73
44
 74
44
 0
VERTEX
 8
MESH_169_F0
 10
0
 20
0
 30
0
 70
128
 71
11
 72
10
 73
43
 74
43
 0
VERTEX
 8
MESH_169_F0
 10
0
 20
0
 30
0
 70
128
 71
12
 72
11
 73
42
 74
42
 0
VERTEX
 8
MESH_169_F0
 10
0
 20
0
 30
0
 70
128
 71
13
 72
12
 73
41
 74
41
 0
VERTEX
 8
MESH_169_F0
 10
0
 20
0
 30
0
 70
128
 71
14
 72
13
 73
40
 74
40
 0
VERTEX
 8
MESH_169_F0
 10
0
 20
0
 30
0
 70
128
 71
15
 72
14
 73
39
 74
39
 0
VERTEX
 8
MESH_169_F0
 10
0
 20
0
 30
0
 70
128
 71
16
 72
15
 73
38
 74
38
 0
VERTEX
 8
MESH_169_F0
 10
0
 20
0
 30
0
 70
128
 71
17
 72
16
 73
37
 74
37
 0
VERTEX
 8
MESH_169_F0
 10
0
 20
0
 30
0
 70
128
 71
18
 72
17
 73
36
 74
36
 0
VERTEX
 8
MESH_169_F0
 10
0
 20
0
 30
0
 70
128
 71
19
 72
18
 73
35
 74
35
 0
VERTEX
 8
MESH_169_F0
 10
0
 20
0
 30
0
 70
128
 71
20
 72
19
 73
34
 74
34
 0
VERTEX
 8
MESH_169_F0
 10
0
 20
0
 30
0
 70
128
 71
21
 72
20
 73
33
 74
33
 0
VERTEX
 8
MESH_169_F0
 10
0
 20
0
 30
0
 70
128
 71
22
 72
21
 73
32
 74
32
 0
VERTEX
 8
MESH_169_F0
 10
0
 20
0
 30
0
 70
128
 71
23
 72
22
 73
31
 74
31
 0
VERTEX
 8
MESH_169_F0
 10
0
 20
0
 30
0
 70
128
 71
24
 72
23
 73
30
 74
30
 0
VERTEX
 8
MESH_169_F0
 10
0
 20
0
 30
0
 70
128
 71
25
 72
24
 73
29
 74
29
 0
VERTEX
 8
MESH_169_F0
 10
0
 20
0
 30
0
 70
128
 71
26
 72
25
 73
28
 74
28
 0
VERTEX
 8
MESH_169_F0
 10
0
 20
0
 30
0
 70
128
 71
26
 72
28
 73
27
 74
27
 0
VERTEX
 8
MESH_169_F0
 10
0
 20
0
 30
0
 70
128
 71
25
 72
29
 73
28
 74
28
 0
VERTEX
 8
MESH_169_F0
 10
0
 20
0
 30
0
 70
128
 71
24
 72
30
 73
29
 74
29
 0
VERTEX
 8
MESH_169_F0
 10
0
 20
0
 30
0
 70
128
 71
23
 72
31
 73
30
 74
30
 0
VERTEX
 8
MESH_169_F0
 10
0
 20
0
 30
0
 70
128
 71
22
 72
32
 73
31
 74
31
 0
VERTEX
 8
MESH_169_F0
 10
0
 20
0
 30
0
 70
128
 71
21
 72
33
 73
32
 74
32
 0
VERTEX
 8
MESH_169_F0
 10
0
 20
0
 30
0
 70
128
 71
20
 72
34
 73
33
 74
33
 0
VERTEX
 8
MESH_169_F0
 10
0
 20
0
 30
0
 70
128
 71
19
 72
35
 73
34
 74
34
 0
VERTEX
 8
MESH_169_F0
 10
0
 20
0
 30
0
 70
128
 71
18
 72
36
 73
35
 74
35
 0
VERTEX
 8
MESH_169_F0
 10
0
 20
0
 30
0
 70
128
 71
17
 72
37
 73
36
 74
36
 0
VERTEX
 8
MESH_169_F0
 10
0
 20
0
 30
0
 70
128
 71
16
 72
38
 73
37
 74
37
 0
VERTEX
 8
MESH_169_F0
 10
0
 20
0
 30
0
 70
128
 71
15
 72
39
 73
38
 74
38
 0
VERTEX
 8
MESH_169_F0
 10
0
 20
0
 30
0
 70
128
 71
14
 72
40
 73
39
 74
39
 0
VERTEX
 8
MESH_169_F0
 10
0
 20
0
 30
0
 70
128
 71
13
 72
41
 73
40
 74
40
 0
VERTEX
 8
MESH_169_F0
 10
0
 20
0
 30
0
 70
128
 71
12
 72
42
 73
41
 74
41
 0
VERTEX
 8
MESH_169_F0
 10
0
 20
0
 30
0
 70
128
 71
11
 72
43
 73
42
 74
42
 0
VERTEX
 8
MESH_169_F0
 10
0
 20
0
 30
0
 70
128
 71
10
 72
44
 73
43
 74
43
 0
VERTEX
 8
MESH_169_F0
 10
0
 20
0
 30
0
 70
128
 71
9
 72
45
 73
44
 74
44
 0
VERTEX
 8
MESH_169_F0
 10
0
 20
0
 30
0
 70
128
 71
8
 72
46
 73
45
 74
45
 0
VERTEX
 8
MESH_169_F0
 10
0
 20
0
 30
0
 70
128
 71
7
 72
47
 73
46
 74
46
 0
VERTEX
 8
MESH_169_F0
 10
0
 20
0
 30
0
 70
128
 71
6
 72
48
 73
47
 74
47
 0
SEQEND
 0
POLYLINE
 8
MESH_168_F0
 66
1
 10
0.0
 20
0.0
 30
0.0
 70
64
 71
252
 72
254
 0
VERTEX
 8
MESH_168_F0
 10
-285
 20
-298
 30
0
 70
192
 0
VERTEX
 8
MESH_168_F0
 10
-285
 20
-120
 30
0
 70
192
 0
VERTEX
 8
MESH_168_F0
 10
-285.0585
 20
-118.3379
 30
0
 70
192
 0
VERTEX
 8
MESH_168_F0
 10
-285.2201
 20
-116.7045
 30
0
 70
192
 0
VERTEX
 8
MESH_168_F0
 10
-285.4857
 20
-115.0969
 30
0
 70
192
 0
VERTEX
 8
MESH_168_F0
 10
-285.8566
 20
-113.5119
 30
0
 70
192
 0
VERTEX
 8
MESH_168_F0
 10
-286.3313
 20
-111.9536
 30
0
 70
192
 0
VERTEX
 8
MESH_168_F0
 10
-286.9084
 20
-110.4238
 30
0
 70
192
 0
VERTEX
 8
MESH_168_F0
 10
-287.5847
 20
-108.9319
 30
0
 70
192
 0
VERTEX
 8
MESH_168_F0
 10
-288.357
 20
-107.4869
 30
0
 70
192
 0
VERTEX
 8
MESH_168_F0
 10
-289.2204
 20
-106.0997
 30
0
 70
192
 0
VERTEX
 8
MESH_168_F0
 10
-290.172
 20
-104.7733
 30
0
 70
192
 0
VERTEX
 8
MESH_168_F0
 10
-291.2076
 20
-103.5125
 30
0
 70
192
 0
VERTEX
 8
MESH_168_F0
 10
-292.3227
 20
-102.3221
 30
0
 70
192
 0
VERTEX
 8
MESH_168_F0
 10
-293.5131
 20
-101.207
 30
0
 70
192
 0
VERTEX
 8
MESH_168_F0
 10
-294.7739
 20
-100.1715
 30
0
 70
192
 0
VERTEX
 8
MESH_168_F0
 10
-296.1004
 20
-99.22
 30
0
 70
192
 0
VERTEX
 8
MESH_168_F0
 10
-297.4876
 20
-98.3566
 30
0
 70
192
 0
VERTEX
 8
MESH_168_F0
 10
-298.9326
 20
-97.5844
 30
0
 70
192
 0
VERTEX
 8
MESH_168_F0
 10
-300.4244
 20
-96.9082
 30
0
 70
192
 0
VERTEX
 8
MESH_168_F0
 10
-301.9541
 20
-96.3311
 30
0
 70
192
 0
VERTEX
 8
MESH_168_F0
 10
-303.5124
 20
-95.8565
 30
0
 70
192
 0
VERTEX
 8
MESH_168_F0
 10
-305.0972
 20
-95.4857
 30
0
 70
192
 0
VERTEX
 8
MESH_168_F0
 10
-306.7047
 20
-95.22
 30
0
 70
192
 0
VERTEX
 8
MESH_168_F0
 10
-308.338
 20
-95.0585
 30
0
 70
192
 0
VERTEX
 8
MESH_168_F0
 10
-310
 20
-95
 30
0
 70
192
 0
VERTEX
 8
MESH_168_F0
 10
-380
 20
-95
 30
0
 70
192
 0
VERTEX
 8
MESH_168_F0
 10
-381.6621
 20
-95.0585
 30
0
 70
192
 0
VERTEX
 8
MESH_168_F0
 10
-383.2955
 20
-95.2201
 30
0
 70
192
 0
VERTEX
 8
MESH_168_F0
 10
-384.9031
 20
-95.4858
 30
0
 70
192
 0
VERTEX
 8
MESH_168_F0
 10
-386.4881
 20
-95.8566
 30
0
 70
192
 0
VERTEX
 8
MESH_168_F0
 10
-388.0464
 20
-96.3313
 30
0
 70
192
 0
VERTEX
 8
MESH_168_F0
 10
-389.5761
 20
-96.9084
 30
0
 70
192
 0
VERTEX
 8
MESH_168_F0
 10
-391.0681
 20
-97.5847
 30
0
 70
192
 0
VERTEX
 8
MESH_168_F0
 10
-392.5131
 20
-98.357
 30
0
 70
192
 0
VERTEX
 8
MESH_168_F0
 10
-393.9003
 20
-99.2204
 30
0
 70
192
 0
VERTEX
 8
MESH_168_F0
 10
-395.2267
 20
-100.172
 30
0
 70
192
 0
VERTEX
 8
MESH_168_F0
 10
-396.4875
 20
-101.2076
 30
0
 70
192
 0
VERTEX
 8
MESH_168_F0
 10
-397.6779
 20
-102.3227
 30
0
 70
192
 0
VERTEX
 8
MESH_168_F0
 10
-398.793
 20
-103.5131
 30
0
 70
192
 0
VERTEX
 8
MESH_168_F0
 10
-399.8285
 20
-104.7739
 30
0
 70
192
 0
VERTEX
 8
MESH_168_F0
 10
-400.78
 20
-106.1004
 30
0
 70
192
 0
VERTEX
 8
MESH_168_F0
 10
-401.6433
 20
-107.4876
 30
0
 70
192
 0
VERTEX
 8
MESH_168_F0
 10
-402.4156
 20
-108.9326
 30
0
 70
192
 0
VERTEX
 8
MESH_168_F0
 10
-403.0918
 20
-110.4244
 30
0
 70
192
 0
VERTEX
 8
MESH_168_F0
 10
-403.6688
 20
-111.9541
 30
0
 70
192
 0
VERTEX
 8
MESH_168_F0
 10
-404.1435
 20
-113.5124
 30
0
 70
192
 0
VERTEX
 8
MESH_168_F0
 10
-404.5143
 20
-115.0972
 30
0
 70
192
 0
VERTEX
 8
MESH_168_F0
 10
-404.78
 20
-116.7047
 30
0
 70
192
 0
VERTEX
 8
MESH_168_F0
 10
-404.9415
 20
-118.338
 30
0
 70
192
 0
VERTEX
 8
MESH_168_F0
 10
-405
 20
-120
 30
0
 70
192
 0
VERTEX
 8
MESH_168_F0
 10
-405
 20
-298
 30
0
 70
192
 0
VERTEX
 8
MESH_168_F0
 10
-404.9415
 20
-299.6621
 30
0
 70
192
 0
VERTEX
 8
MESH_168_F0
 10
-404.7799
 20
-301.2955
 30
0
 70
192
 0
VERTEX
 8
MESH_168_F0
 10
-404.5142
 20
-302.9031
 30
0
 70
192
 0
VERTEX
 8
MESH_168_F0
 10
-404.1434
 20
-304.4881
 30
0
 70
192
 0
VERTEX
 8
MESH_168_F0
 10
-403.6687
 20
-306.0464
 30
0
 70
192
 0
VERTEX
 8
MESH_168_F0
 10
-403.0916
 20
-307.5762
 30
0
 70
192
 0
VERTEX
 8
MESH_168_F0
 10
-402.4153
 20
-309.0681
 30
0
 70
192
 0
VERTEX
 8
MESH_168_F0
 10
-401.643
 20
-310.5131
 30
0
 70
192
 0
VERTEX
 8
MESH_168_F0
 10
-400.7796
 20
-311.9003
 30
0
 70
192
 0
VERTEX
 8
MESH_168_F0
 10
-399.828
 20
-313.2267
 30
0
 70
192
 0
VERTEX
 8
MESH_168_F0
 10
-398.7924
 20
-314.4875
 30
0
 70
192
 0
VERTEX
 8
MESH_168_F0
 10
-397.6773
 20
-315.6779
 30
0
 70
192
 0
VERTEX
 8
MESH_168_F0
 10
-396.4869
 20
-316.793
 30
0
 70
192
 0
VERTEX
 8
MESH_168_F0
 10
-395.226
 20
-317.8285
 30
0
 70
192
 0
VERTEX
 8
MESH_168_F0
 10
-393.8996
 20
-318.78
 30
0
 70
192
 0
VERTEX
 8
MESH_168_F0
 10
-392.5124
 20
-319.6433
 30
0
 70
192
 0
VERTEX
 8
MESH_168_F0
 10
-391.0674
 20
-320.4156
 30
0
 70
192
 0
VERTEX
 8
MESH_168_F0
 10
-389.5756
 20
-321.0918
 30
0
 70
192
 0
VERTEX
 8
MESH_168_F0
 10
-388.0459
 20
-321.6689
 30
0
 70
192
 0
VERTEX
 8
MESH_168_F0
 10
-386.4876
 20
-322.1435
 30
0
 70
192
 0
VERTEX
 8
MESH_168_F0
 10
-384.9028
 20
-322.5143
 30
0
 70
192
 0
VERTEX
 8
MESH_168_F0
 10
-383.2953
 20
-322.78
 30
0
 70
192
 0
VERTEX
 8
MESH_168_F0
 10
-381.662
 20
-322.9415
 30
0
 70
192
 0
VERTEX
 8
MESH_168_F0
 10
-380
 20
-323
 30
0
 70
192
 0
VERTEX
 8
MESH_168_F0
 10
-310
 20
-323
 30
0
 70
192
 0
VERTEX
 8
MESH_168_F0
 10
-308.3379
 20
-322.9415
 30
0
 70
192
 0
VERTEX
 8
MESH_168_F0
 10
-306.7045
 20
-322.7799
 30
0
 70
192
 0
VERTEX
 8
MESH_168_F0
 10
-305.0969
 20
-322.5143
 30
0
 70
192
 0
VERTEX
 8
MESH_168_F0
 10
-303.5119
 20
-322.1434
 30
0
 70
192
 0
VERTEX
 8
MESH_168_F0
 10
-301.9536
 20
-321.6687
 30
0
 70
192
 0
VERTEX
 8
MESH_168_F0
 10
-300.4238
 20
-321.0916
 30
0
 70
192
 0
VERTEX
 8
MESH_168_F0
 10
-298.9319
 20
-320.4153
 30
0
 70
192
 0
VERTEX
 8
MESH_168_F0
 10
-297.4869
 20
-319.643
 30
0
 70
192
 0
VERTEX
 8
MESH_168_F0
 10
-296.0997
 20
-318.7796
 30
0
 70
192
 0
VERTEX
 8
MESH_168_F0
 10
-294.7733
 20
-317.8279
 30
0
 70
192
 0
VERTEX
 8
MESH_168_F0
 10
-293.5125
 20
-316.7924
 30
0
 70
192
 0
VERTEX
 8
MESH_168_F0
 10
-292.3221
 20
-315.6773
 30
0
 70
192
 0
VERTEX
 8
MESH_168_F0
 10
-291.207
 20
-314.4869
 30
0
 70
192
 0
VERTEX
 8
MESH_168_F0
 10
-290.1715
 20
-313.226
 30
0
 70
192
 0
VERTEX
 8
MESH_168_F0
 10
-289.22
 20
-311.8996
 30
0
 70
192
 0
VERTEX
 8
MESH_168_F0
 10
-288.3567
 20
-310.5124
 30
0
 70
192
 0
VERTEX
 8
MESH_168_F0
 10
-287.5844
 20
-309.0674
 30
0
 70
192
 0
VERTEX
 8
MESH_168_F0
 10
-286.9082
 20
-307.5756
 30
0
 70
192
 0
VERTEX
 8
MESH_168_F0
 10
-286.3311
 20
-306.0459
 30
0
 70
192
 0
VERTEX
 8
MESH_168_F0
 10
-285.8565
 20
-304.4876
 30
0
 70
192
 0
VERTEX
 8
MESH_168_F0
 10
-285.4857
 20
-302.9028
 30
0
 70
192
 0
VERTEX
 8
MESH_168_F0
 10
-285.22
 20
-301.2953
 30
0
 70
192
 0
VERTEX
 8
MESH_168_F0
 10
-285.0585
 20
-299.662
 30
0
 70
192
 0
VERTEX
 8
MESH_168_F0
 10
285
 20
-298
 30
0
 70
192
 0
VERTEX
 8
MESH_168_F0
 10
285.0585
 20
-299.6621
 30
0
 70
192
 0
VERTEX
 8
MESH_168_F0
 10
285.2201
 20
-301.2955
 30
0
 70
192
 0
VERTEX
 8
MESH_168_F0
 10
285.4857
 20
-302.9031
 30
0
 70
192
 0
VERTEX
 8
MESH_168_F0
 10
285.8566
 20
-304.4881
 30
0
 70
192
 0
VERTEX
 8
MESH_168_F0
 10
286.3313
 20
-306.0464
 30
0
 70
192
 0
VERTEX
 8
MESH_168_F0
 10
286.9084
 20
-307.5762
 30
0
 70
192
 0
VERTEX
 8
MESH_168_F0
 10
287.5847
 20
-309.0681
 30
0
 70
192
 0
VERTEX
 8
MESH_168_F0
 10
288.357
 20
-310.5131
 30
0
 70
192
 0
VERTEX
 8
MESH_168_F0
 10
289.2204
 20
-311.9003
 30
0
 70
192
 0
VERTEX
 8
MESH_168_F0
 10
290.172
 20
-313.2267
 30
0
 70
192
 0
VERTEX
 8
MESH_168_F0
 10
291.2076
 20
-314.4875
 30
0
 70
192
 0
VERTEX
 8
MESH_168_F0
 10
292.3227
 20
-315.6779
 30
0
 70
192
 0
VERTEX
 8
MESH_168_F0
 10
293.5131
 20
-316.793
 30
0
 70
192
 0
VERTEX
 8
MESH_168_F0
 10
294.7739
 20
-317.8285
 30
0
 70
192
 0
VERTEX
 8
MESH_168_F0
 10
296.1004
 20
-318.78
 30
0
 70
192
 0
VERTEX
 8
MESH_168_F0
 10
297.4876
 20
-319.6433
 30
0
 70
192
 0
VERTEX
 8
MESH_168_F0
 10
298.9326
 20
-320.4156
 30
0
 70
192
 0
VERTEX
 8
MESH_168_F0
 10
300.4244
 20
-321.0918
 30
0
 70
192
 0
VERTEX
 8
MESH_168_F0
 10
301.9541
 20
-321.6689
 30
0
 70
192
 0
VERTEX
 8
MESH_168_F0
 10
303.5124
 20
-322.1435
 30
0
 70
192
 0
VERTEX
 8
MESH_168_F0
 10
305.0972
 20
-322.5143
 30
0
 70
192
 0
VERTEX
 8
MESH_168_F0
 10
306.7047
 20
-322.78
 30
0
 70
192
 0
VERTEX
 8
MESH_168_F0
 10
308.338
 20
-322.9415
 30
0
 70
192
 0
VERTEX
 8
MESH_168_F0
 10
310
 20
-323
 30
0
 70
192
 0
VERTEX
 8
MESH_168_F0
 10
380
 20
-323
 30
0
 70
192
 0
VERTEX
 8
MESH_168_F0
 10
381.6621
 20
-322.9415
 30
0
 70
192
 0
VERTEX
 8
MESH_168_F0
 10
383.2955
 20
-322.7799
 30
0
 70
192
 0
VERTEX
 8
MESH_168_F0
 10
384.9031
 20
-322.5143
 30
0
 70
192
 0
VERTEX
 8
MESH_168_F0
 10
386.4881
 20
-322.1434
 30
0
 70
192
 0
VERTEX
 8
MESH_168_F0
 10
388.0464
 20
-321.6687
 30
0
 70
192
 0
VERTEX
 8
MESH_168_F0
 10
389.5761
 20
-321.0916
 30
0
 70
192
 0
VERTEX
 8
MESH_168_F0
 10
391.0681
 20
-320.4153
 30
0
 70
192
 0
VERTEX
 8
MESH_168_F0
 10
392.5131
 20
-319.643
 30
0
 70
192
 0
VERTEX
 8
MESH_168_F0
 10
393.9003
 20
-318.7796
 30
0
 70
192
 0
VERTEX
 8
MESH_168_F0
 10
395.2267
 20
-317.8279
 30
0
 70
192
 0
VERTEX
 8
MESH_168_F0
 10
396.4875
 20
-316.7924
 30
0
 70
192
 0
VERTEX
 8
MESH_168_F0
 10
397.6779
 20
-315.6773
 30
0
 70
192
 0
VERTEX
 8
MESH_168_F0
 10
398.793
 20
-314.4869
 30
0
 70
192
 0
VERTEX
 8
MESH_168_F0
 10
399.8285
 20
-313.226
 30
0
 70
192
 0
VERTEX
 8
MESH_168_F0
 10
400.78
 20
-311.8996
 30
0
 70
192
 0
VERTEX
 8
MESH_168_F0
 10
401.6433
 20
-310.5124
 30
0
 70
192
 0
VERTEX
 8
MESH_168_F0
 10
402.4156
 20
-309.0674
 30
0
 70
192
 0
VERTEX
 8
MESH_168_F0
 10
403.0918
 20
-307.5756
 30
0
 70
192
 0
VERTEX
 8
MESH_168_F0
 10
403.6688
 20
-306.0459
 30
0
 70
192
 0
VERTEX
 8
MESH_168_F0
 10
404.1435
 20
-304.4876
 30
0
 70
192
 0
VERTEX
 8
MESH_168_F0
 10
404.5143
 20
-302.9028
 30
0
 70
192
 0
VERTEX
 8
MESH_168_F0
 10
404.78
 20
-301.2953
 30
0
 70
192
 0
VERTEX
 8
MESH_168_F0
 10
404.9415
 20
-299.662
 30
0
 70
192
 0
VERTEX
 8
MESH_168_F0
 10
405
 20
-298
 30
0
 70
192
 0
VERTEX
 8
MESH_168_F0
 10
405
 20
-120
 30
0
 70
192
 0
VERTEX
 8
MESH_168_F0
 10
404.9415
 20
-118.3379
 30
0
 70
192
 0
VERTEX
 8
MESH_168_F0
 10
404.7799
 20
-116.7045
 30
0
 70
192
 0
VERTEX
 8
MESH_168_F0
 10
404.5142
 20
-115.0969
 30
0
 70
192
 0
VERTEX
 8
MESH_168_F0
 10
404.1434
 20
-113.5119
 30
0
 70
192
 0
VERTEX
 8
MESH_168_F0
 10
403.6687
 20
-111.9536
 30
0
 70
192
 0
VERTEX
 8
MESH_168_F0
 10
403.0916
 20
-110.4238
 30
0
 70
192
 0
VERTEX
 8
MESH_168_F0
 10
402.4153
 20
-108.9319
 30
0
 70
192
 0
VERTEX
 8
MESH_168_F0
 10
401.643
 20
-107.4869
 30
0
 70
192
 0
VERTEX
 8
MESH_168_F0
 10
400.7796
 20
-106.0997
 30
0
 70
192
 0
VERTEX
 8
MESH_168_F0
 10
399.828
 20
-104.7733
 30
0
 70
192
 0
VERTEX
 8
MESH_168_F0
 10
398.7924
 20
-103.5125
 30
0
 70
192
 0
VERTEX
 8
MESH_168_F0
 10
397.6773
 20
-102.3221
 30
0
 70
192
 0
VERTEX
 8
MESH_168_F0
 10
396.4869
 20
-101.207
 30
0
 70
192
 0
VERTEX
 8
MESH_168_F0
 10
395.226
 20
-100.1715
 30
0
 70
192
 0
VERTEX
 8
MESH_168_F0
 10
393.8996
 20
-99.22
 30
0
 70
192
 0
VERTEX
 8
MESH_168_F0
 10
392.5124
 20
-98.3566
 30
0
 70
192
 0
VERTEX
 8
MESH_168_F0
 10
391.0674
 20
-97.5844
 30
0
 70
192
 0
VERTEX
 8
MESH_168_F0
 10
389.5756
 20
-96.9082
 30
0
 70
192
 0
VERTEX
 8
MESH_168_F0
 10
388.0459
 20
-96.3311
 30
0
 70
192
 0
VERTEX
 8
MESH_168_F0
 10
386.4876
 20
-95.8565
 30
0
 70
192
 0
VERTEX
 8
MESH_168_F0
 10
384.9028
 20
-95.4857
 30
0
 70
192
 0
VERTEX
 8
MESH_168_F0
 10
383.2953
 20
-95.22
 30
0
 70
192
 0
VERTEX
 8
MESH_168_F0
 10
381.662
 20
-95.0585
 30
0
 70
192
 0
VERTEX
 8
MESH_168_F0
 10
380
 20
-95
 30
0
 70
192
 0
VERTEX
 8
MESH_168_F0
 10
310
 20
-95
 30
0
 70
192
 0
VERTEX
 8
MESH_168_F0
 10
308.3379
 20
-95.0585
 30
0
 70
192
 0
VERTEX
 8
MESH_168_F0
 10
306.7045
 20
-95.2201
 30
0
 70
192
 0
VERTEX
 8
MESH_168_F0
 10
305.0969
 20
-95.4858
 30
0
 70
192
 0
VERTEX
 8
MESH_168_F0
 10
303.5119
 20
-95.8566
 30
0
 70
192
 0
VERTEX
 8
MESH_168_F0
 10
301.9536
 20
-96.3313
 30
0
 70
192
 0
VERTEX
 8
MESH_168_F0
 10
300.4238
 20
-96.9084
 30
0
 70
192
 0
VERTEX
 8
MESH_168_F0
 10
298.9319
 20
-97.5847
 30
0
 70
192
 0
VERTEX
 8
MESH_168_F0
 10
297.4869
 20
-98.357
 30
0
 70
192
 0
VERTEX
 8
MESH_168_F0
 10
296.0997
 20
-99.2204
 30
0
 70
192
 0
VERTEX
 8
MESH_168_F0
 10
294.7733
 20
-100.172
 30
0
 70
192
 0
VERTEX
 8
MESH_168_F0
 10
293.5125
 20
-101.2076
 30
0
 70
192
 0
VERTEX
 8
MESH_168_F0
 10
292.3221
 20
-102.3227
 30
0
 70
192
 0
VERTEX
 8
MESH_168_F0
 10
291.207
 20
-103.5131
 30
0
 70
192
 0
VERTEX
 8
MESH_168_F0
 10
290.1715
 20
-104.7739
 30
0
 70
192
 0
VERTEX
 8
MESH_168_F0
 10
289.22
 20
-106.1004
 30
0
 70
192
 0
VERTEX
 8
MESH_168_F0
 10
288.3567
 20
-107.4876
 30
0
 70
192
 0
VERTEX
 8
MESH_168_F0
 10
287.5844
 20
-108.9326
 30
0
 70
192
 0
VERTEX
 8
MESH_168_F0
 10
286.9082
 20
-110.4244
 30
0
 70
192
 0
VERTEX
 8
MESH_168_F0
 10
286.3311
 20
-111.9541
 30
0
 70
192
 0
VERTEX
 8
MESH_168_F0
 10
285.8565
 20
-113.5124
 30
0
 70
192
 0
VERTEX
 8
MESH_168_F0
 10
285.4857
 20
-115.0972
 30
0
 70
192
 0
VERTEX
 8
MESH_168_F0
 10
285.22
 20
-116.7047
 30
0
 70
192
 0
VERTEX
 8
MESH_168_F0
 10
285.0585
 20
-118.338
 30
0
 70
192
 0
VERTEX
 8
MESH_168_F0
 10
285
 20
-120
 30
0
 70
192
 0
VERTEX
 8
MESH_168_F0
 10
700
 20
0
 30
0
 70
192
 0
VERTEX
 8
MESH_168_F0
 10
700
 20
-417
 30
0
 70
192
 0
VERTEX
 8
MESH_168_F0
 10
699.9462
 20
-418.5291
 30
0
 70
192
 0
VERTEX
 8
MESH_168_F0
 10
699.7975
 20
-420.0319
 30
0
 70
192
 0
VERTEX
 8
MESH_168_F0
 10
699.5531
 20
-421.5109
 30
0
 70
192
 0
VERTEX
 8
MESH_168_F0
 10
699.2119
 20
-422.9691
 30
0
 70
192
 0
VERTEX
 8
MESH_168_F0
 10
698.7751
 20
-424.4027
 30
0
 70
192
 0
VERTEX
 8
MESH_168_F0
 10
698.2443
 20
-425.8101
 30
0
 70
192
 0
VERTEX
 8
MESH_168_F0
 10
697.622
 20
-427.1826
 30
0
 70
192
 0
VERTEX
 8
MESH_168_F0
 10
696.9115
 20
-428.512
 30
0
 70
192
 0
VERTEX
 8
MESH_168_F0
 10
696.1172
 20
-429.7882
 30
0
 70
192
 0
VERTEX
 8
MESH_168_F0
 10
695.2417
 20
-431.0086
 30
0
 70
192
 0
VERTEX
 8
MESH_168_F0
 10
694.289
 20
-432.1685
 30
0
 70
192
 0
VERTEX
 8
MESH_168_F0
 10
693.2631
 20
-433.2637
 30
0
 70
192
 0
VERTEX
 8
MESH_168_F0
 10
692.1679
 20
-434.2896
 30
0
 70
192
 0
VERTEX
 8
MESH_168_F0
 10
691.0079
 20
-435.2422
 30
0
 70
192
 0
VERTEX
 8
MESH_168_F0
 10
689.7877
 20
-436.1176
 30
0
 70
192
 0
VERTEX
 8
MESH_168_F0
 10
688.5114
 20
-436.9119
 30
0
 70
192
 0
VERTEX
 8
MESH_168_F0
 10
687.182
 20
-437.6224
 30
0
 70
192
 0
VERTEX
 8
MESH_168_F0
 10
685.8095
 20
-438.2445
 30
0
 70
192
 0
VERTEX
 8
MESH_168_F0
 10
684.4022
 20
-438.7753
 30
0
 70
192
 0
VERTEX
 8
MESH_168_F0
 10
682.9686
 20
-439.212
 30
0
 70
192
 0
VERTEX
 8
MESH_168_F0
 10
681.5105
 20
-439.5532
 30
0
 70
192
 0
VERTEX
 8
MESH_168_F0
 10
680.0316
 20
-439.7976
 30
0
 70
192
 0
VERTEX
 8
MESH_168_F0
 10
678.5291
 20
-439.9462
 30
0
 70
192
 0
VERTEX
 8
MESH_168_F0
 10
677
 20
-440
 30
0
 70
192
 0
VERTEX
 8
MESH_168_F0
 10
-677
 20
-440
 30
0
 70
192
 0
VERTEX
 8
MESH_168_F0
 10
-678.5292
 20
-439.9462
 30
0
 70
192
 0
VERTEX
 8
MESH_168_F0
 10
-680.0319
 20
-439.7975
 30
0
 70
192
 0
VERTEX
 8
MESH_168_F0
 10
-681.5109
 20
-439.5531
 30
0
 70
192
 0
VERTEX
 8
MESH_168_F0
 10
-682.9691
 20
-439.2119
 30
0
 70
192
 0
VERTEX
 8
MESH_168_F0
 10
-684.4027
 20
-438.7751
 30
0
 70
192
 0
VERTEX
 8
MESH_168_F0
 10
-685.8101
 20
-438.2443
 30
0
 70
192
 0
VERTEX
 8
MESH_168_F0
 10
-687.1826
 20
-437.6221
 30
0
 70
192
 0
VERTEX
 8
MESH_168_F0
 10
-688.512
 20
-436.9115
 30
0
 70
192
 0
VERTEX
 8
MESH_168_F0
 10
-689.7883
 20
-436.1172
 30
0
 70
192
 0
VERTEX
 8
MESH_168_F0
 10
-691.0086
 20
-435.2417
 30
0
 70
192
 0
VERTEX
 8
MESH_168_F0
 10
-692.1685
 20
-434.289
 30
0
 70
192
 0
VERTEX
 8
MESH_168_F0
 10
-693.2636
 20
-433.2631
 30
0
 70
192
 0
VERTEX
 8
MESH_168_F0
 10
-694.2896
 20
-432.1679
 30
0
 70
192
 0
VERTEX
 8
MESH_168_F0
 10
-695.2422
 20
-431.0079
 30
0
 70
192
 0
VERTEX
 8
MESH_168_F0
 10
-696.1176
 20
-429.7876
 30
0
 70
192
 0
VERTEX
 8
MESH_168_F0
 10
-696.9119
 20
-428.5114
 30
0
 70
192
 0
VERTEX
 8
MESH_168_F0
 10
-697.6223
 20
-427.1821
 30
0
 70
192
 0
VERTEX
 8
MESH_168_F0
 10
-698.2445
 20
-425.8095
 30
0
 70
192
 0
VERTEX
 8
MESH_168_F0
 10
-698.7753
 20
-424.4023
 30
0
 70
192
 0
VERTEX
 8
MESH_168_F0
 10
-699.212
 20
-422.9687
 30
0
 70
192
 0
VERTEX
 8
MESH_168_F0
 10
-699.5532
 20
-421.5106
 30
0
 70
192
 0
VERTEX
 8
MESH_168_F0
 10
-699.7975
 20
-420.0316
 30
0
 70
192
 0
VERTEX
 8
MESH_168_F0
 10
-699.9462
 20
-418.5291
 30
0
 70
192
 0
VERTEX
 8
MESH_168_F0
 10
-700
 20
-417
 30
0
 70
192
 0
VERTEX
 8
MESH_168_F0
 10
-700
 20
0
 30
0
 70
192
 0
VERTEX
 8
MESH_168_F0
 10
0
 20
0
 30
0
 70
128
 71
2
 72
200
 73
199
 74
199
 0
VERTEX
 8
MESH_168_F0
 10
0
 20
0
 30
0
 70
128
 71
197
 72
2
 73
198
 74
198
 0
VERTEX
 8
MESH_168_F0
 10
0
 20
0
 30
0
 70
128
 71
2
 72
199
 73
198
 74
198
 0
VERTEX
 8
MESH_168_F0
 10
0
 20
0
 30
0
 70
128
 71
2
 72
180
 73
3
 74
3
 0
VERTEX
 8
MESH_168_F0
 10
0
 20
0
 30
0
 70
128
 71
180
 72
4
 73
3
 74
3
 0
VERTEX
 8
MESH_168_F0
 10
0
 20
0
 30
0
 70
128
 71
5
 72
4
 73
180
 74
180
 0
VERTEX
 8
MESH_168_F0
 10
0
 20
0
 30
0
 70
128
 71
5
 72
180
 73
6
 74
6
 0
VERTEX
 8
MESH_168_F0
 10
0
 20
0
 30
0
 70
128
 71
180
 72
7
 73
6
 74
6
 0
VERTEX
 8
MESH_168_F0
 10
0
 20
0
 30
0
 70
128
 71
8
 72
7
 73
180
 74
180
 0
VERTEX
 8
MESH_168_F0
 10
0
 20
0
 30
0
 70
128
 71
8
 72
180
 73
9
 74
9
 0
VERTEX
 8
MESH_168_F0
 10
0
 20
0
 30
0
 70
128
 71
180
 72
10
 73
9
 74
9
 0
VERTEX
 8
MESH_168_F0
 10
0
 20
0
 30
0
 70
128
 71
11
 72
10
 73
180
 74
180
 0
VERTEX
 8
MESH_168_F0
 10
0
 20
0
 30
0
 70
128
 71
11
 72
180
 73
12
 74
12
 0
VERTEX
 8
MESH_168_F0
 10
0
 20
0
 30
0
 70
128
 71
180
 72
13
 73
12
 74
12
 0
VERTEX
 8
MESH_168_F0
 10
0
 20
0
 30
0
 70
128
 71
14
 72
13
 73
180
 74
180
 0
VERTEX
 8
MESH_168_F0
 10
0
 20
0
 30
0
 70
128
 71
14
 72
180
 73
15
 74
15
 0
VERTEX
 8
MESH_168_F0
 10
0
 20
0
 30
0
 70
128
 71
180
 72
16
 73
15
 74
15
 0
VERTEX
 8
MESH_168_F0
 10
0
 20
0
 30
0
 70
128
 71
17
 72
16
 73
180
 74
180
 0
VERTEX
 8
MESH_168_F0
 10
0
 20
0
 30
0
 70
128
 71
17
 72
180
 73
18
 74
18
 0
VERTEX
 8
MESH_168_F0
 10
0
 20
0
 30
0
 70
128
 71
180
 72
19
 73
18
 74
18
 0
VERTEX
 8
MESH_168_F0
 10
0
 20
0
 30
0
 70
128
 71
20
 72
19
 73
180
 74
180
 0
VERTEX
 8
MESH_168_F0
 10
0
 20
0
 30
0
 70
128
 71
20
 72
180
 73
21
 74
21
 0
VERTEX
 8
MESH_168_F0
 10
0
 20
0
 30
0
 70
128
 71
180
 72
22
 73
21
 74
21
 0
VERTEX
 8
MESH_168_F0
 10
0
 20
0
 30
0
 70
128
 71
23
 72
22
 73
180
 74
180
 0
VERTEX
 8
MESH_168_F0
 10
0
 20
0
 30
0
 70
128
 71
23
 72
180
 73
24
 74
24
 0
VERTEX
 8
MESH_168_F0
 10
0
 20
0
 30
0
 70
128
 71
180
 72
179
 73
24
 74
24
 0
VERTEX
 8
MESH_168_F0
 10
0
 20
0
 30
0
 70
128
 71
179
 72
178
 73
24
 74
24
 0
VERTEX
 8
MESH_168_F0
 10
0
 20
0
 30
0
 70
128
 71
178
 72
201
 73
24
 74
24
 0
VERTEX
 8
MESH_168_F0
 10
0
 20
0
 30
0
 70
128
 71
201
 72
252
 73
24
 74
24
 0
VERTEX
 8
MESH_168_F0
 10
0
 20
0
 30
0
 70
128
 71
252
 72
25
 73
24
 74
24
 0
VERTEX
 8
MESH_168_F0
 10
0
 20
0
 30
0
 70
128
 71
26
 72
25
 73
252
 74
252
 0
VERTEX
 8
MESH_168_F0
 10
0
 20
0
 30
0
 70
128
 71
26
 72
252
 73
27
 74
27
 0
VERTEX
 8
MESH_168_F0
 10
0
 20
0
 30
0
 70
128
 71
252
 72
28
 73
27
 74
27
 0
VERTEX
 8
MESH_168_F0
 10
0
 20
0
 30
0
 70
128
 71
29
 72
28
 73
252
 74
252
 0
VERTEX
 8
MESH_168_F0
 10
0
 20
0
 30
0
 70
128
 71
29
 72
252
 73
30
 74
30
 0
VERTEX
 8
MESH_168_F0
 10
0
 20
0
 30
0
 70
128
 71
252
 72
31
 73
30
 74
30
 0
VERTEX
 8
MESH_168_F0
 10
0
 20
0
 30
0
 70
128
 71
32
 72
31
 73
252
 74
252
 0
VERTEX
 8
MESH_168_F0
 10
0
 20
0
 30
0
 70
128
 71
32
 72
252
 73
33
 74
33
 0
VERTEX
 8
MESH_168_F0
 10
0
 20
0
 30
0
 70
128
 71
252
 72
34
 73
33
 74
33
 0
VERTEX
 8
MESH_168_F0
 10
0
 20
0
 30
0
 70
128
 71
35
 72
34
 73
252
 74
252
 0
VERTEX
 8
MESH_168_F0
 10
0
 20
0
 30
0
 70
128
 71
35
 72
252
 73
36
 74
36
 0
VERTEX
 8
MESH_168_F0
 10
0
 20
0
 30
0
 70
128
 71
252
 72
37
 73
36
 74
36
 0
VERTEX
 8
MESH_168_F0
 10
0
 20
0
 30
0
 70
128
 71
38
 72
37
 73
252
 74
252
 0
VERTEX
 8
MESH_168_F0
 10
0
 20
0
 30
0
 70
128
 71
38
 72
252
 73
39
 74
39
 0
VERTEX
 8
MESH_168_F0
 10
0
 20
0
 30
0
 70
128
 71
252
 72
40
 73
39
 74
39
 0
VERTEX
 8
MESH_168_F0
 10
0
 20
0
 30
0
 70
128
 71
41
 72
40
 73
252
 74
252
 0
VERTEX
 8
MESH_168_F0
 10
0
 20
0
 30
0
 70
128
 71
41
 72
252
 73
42
 74
42
 0
VERTEX
 8
MESH_168_F0
 10
0
 20
0
 30
0
 70
128
 71
252
 72
43
 73
42
 74
42
 0
VERTEX
 8
MESH_168_F0
 10
0
 20
0
 30
0
 70
128
 71
44
 72
43
 73
252
 74
252
 0
VERTEX
 8
MESH_168_F0
 10
0
 20
0
 30
0
 70
128
 71
44
 72
252
 73
45
 74
45
 0
VERTEX
 8
MESH_168_F0
 10
0
 20
0
 30
0
 70
128
 71
252
 72
46
 73
45
 74
45
 0
VERTEX
 8
MESH_168_F0
 10
0
 20
0
 30
0
 70
128
 71
47
 72
46
 73
252
 74
252
 0
VERTEX
 8
MESH_168_F0
 10
0
 20
0
 30
0
 70
128
 71
47
 72
252
 73
48
 74
48
 0
VERTEX
 8
MESH_168_F0
 10
0
 20
0
 30
0
 70
128
 71
252
 72
49
 73
48
 74
48
 0
VERTEX
 8
MESH_168_F0
 10
0
 20
0
 30
0
 70
128
 71
50
 72
49
 73
252
 74
252
 0
VERTEX
 8
MESH_168_F0
 10
0
 20
0
 30
0
 70
128
 71
50
 72
252
 73
51
 74
51
 0
VERTEX
 8
MESH_168_F0
 10
0
 20
0
 30
0
 70
128
 71
252
 72
251
 73
51
 74
51
 0
VERTEX
 8
MESH_168_F0
 10
0
 20
0
 30
0
 70
128
 71
251
 72
52
 73
51
 74
51
 0
VERTEX
 8
MESH_168_F0
 10
0
 20
0
 30
0
 70
128
 71
53
 72
52
 73
251
 74
251
 0
VERTEX
 8
MESH_168_F0
 10
0
 20
0
 30
0
 70
128
 71
53
 72
251
 73
54
 74
54
 0
VERTEX
 8
MESH_168_F0
 10
0
 20
0
 30
0
 70
128
 71
251
 72
55
 73
54
 74
54
 0
VERTEX
 8
MESH_168_F0
 10
0
 20
0
 30
0
 70
128
 71
56
 72
55
 73
251
 74
251
 0
VERTEX
 8
MESH_168_F0
 10
0
 20
0
 30
0
 70
128
 71
56
 72
251
 73
57
 74
57
 0
VERTEX
 8
MESH_168_F0
 10
0
 20
0
 30
0
 70
128
 71
251
 72
58
 73
57
 74
57
 0
VERTEX
 8
MESH_168_F0
 10
0
 20
0
 30
0
 70
128
 71
59
 72
58
 73
251
 74
251
 0
VERTEX
 8
MESH_168_F0
 10
0
 20
0
 30
0
 70
128
 71
59
 72
251
 73
60
 74
60
 0
VERTEX
 8
MESH_168_F0
 10
0
 20
0
 30
0
 70
128
 71
251
 72
61
 73
60
 74
60
 0
VERTEX
 8
MESH_168_F0
 10
0
 20
0
 30
0
 70
128
 71
62
 72
61
 73
251
 74
251
 0
VERTEX
 8
MESH_168_F0
 10
0
 20
0
 30
0
 70
128
 71
62
 72
251
 73
63
 74
63
 0
VERTEX
 8
MESH_168_F0
 10
0
 20
0
 30
0
 70
128
 71
251
 72
64
 73
63
 74
63
 0
VERTEX
 8
MESH_168_F0
 10
0
 20
0
 30
0
 70
128
 71
65
 72
64
 73
251
 74
251
 0
VERTEX
 8
MESH_168_F0
 10
0
 20
0
 30
0
 70
128
 71
65
 72
251
 73
66
 74
66
 0
VERTEX
 8
MESH_168_F0
 10
0
 20
0
 30
0
 70
128
 71
251
 72
67
 73
66
 74
66
 0
VERTEX
 8
MESH_168_F0
 10
0
 20
0
 30
0
 70
128
 71
68
 72
67
 73
251
 74
251
 0
VERTEX
 8
MESH_168_F0
 10
0
 20
0
 30
0
 70
128
 71
68
 72
251
 73
69
 74
69
 0
VERTEX
 8
MESH_168_F0
 10
0
 20
0
 30
0
 70
128
 71
251
 72
70
 73
69
 74
69
 0
VERTEX
 8
MESH_168_F0
 10
0
 20
0
 30
0
 70
128
 71
71
 72
70
 73
251
 74
251
 0
VERTEX
 8
MESH_168_F0
 10
0
 20
0
 30
0
 70
128
 71
71
 72
251
 73
72
 74
72
 0
VERTEX
 8
MESH_168_F0
 10
0
 20
0
 30
0
 70
128
 71
251
 72
73
 73
72
 74
72
 0
VERTEX
 8
MESH_168_F0
 10
0
 20
0
 30
0
 70
128
 71
227
 72
73
 73
251
 74
251
 0
VERTEX
 8
MESH_168_F0
 10
0
 20
0
 30
0
 70
128
 71
249
 72
227
 73
250
 74
250
 0
VERTEX
 8
MESH_168_F0
 10
0
 20
0
 30
0
 70
128
 71
227
 72
251
 73
250
 74
250
 0
VERTEX
 8
MESH_168_F0
 10
0
 20
0
 30
0
 70
128
 71
227
 72
74
 73
73
 74
73
 0
VERTEX
 8
MESH_168_F0
 10
0
 20
0
 30
0
 70
128
 71
75
 72
74
 73
227
 74
227
 0
VERTEX
 8
MESH_168_F0
 10
0
 20
0
 30
0
 70
128
 71
75
 72
227
 73
76
 74
76
 0
VERTEX
 8
MESH_168_F0
 10
0
 20
0
 30
0
 70
128
 71
227
 72
77
 73
76
 74
76
 0
VERTEX
 8
MESH_168_F0
 10
0
 20
0
 30
0
 70
128
 71
78
 72
77
 73
227
 74
227
 0
VERTEX
 8
MESH_168_F0
 10
0
 20
0
 30
0
 70
128
 71
78
 72
227
 73
79
 74
79
 0
VERTEX
 8
MESH_168_F0
 10
0
 20
0
 30
0
 70
128
 71
227
 72
226
 73
79
 74
79
 0
VERTEX
 8
MESH_168_F0
 10
0
 20
0
 30
0
 70
128
 71
226
 72
123
 73
79
 74
79
 0
VERTEX
 8
MESH_168_F0
 10
0
 20
0
 30
0
 70
128
 71
123
 72
122
 73
79
 74
79
 0
VERTEX
 8
MESH_168_F0
 10
0
 20
0
 30
0
 70
128
 71
122
 72
121
 73
79
 74
79
 0
VERTEX
 8
MESH_168_F0
 10
0
 20
0
 30
0
 70
128
 71
121
 72
120
 73
79
 74
79
 0
VERTEX
 8
MESH_168_F0
 10
0
 20
0
 30
0
 70
128
 71
120
 72
80
 73
79
 74
79
 0
VERTEX
 8
MESH_168_F0
 10
0
 20
0
 30
0
 70
128
 71
81
 72
80
 73
120
 74
120
 0
VERTEX
 8
MESH_168_F0
 10
0
 20
0
 30
0
 70
128
 71
81
 72
120
 73
82
 74
82
 0
VERTEX
 8
MESH_168_F0
 10
0
 20
0
 30
0
 70
128
 71
120
 72
83
 73
82
 74
82
 0
VERTEX
 8
MESH_168_F0
 10
0
 20
0
 30
0
 70
128
 71
84
 72
83
 73
120
 74
120
 0
VERTEX
 8
MESH_168_F0
 10
0
 20
0
 30
0
 70
128
 71
84
 72
120
 73
85
 74
85
 0
VERTEX
 8
MESH_168_F0
 10
0
 20
0
 30
0
 70
128
 71
120
 72
86
 73
85
 74
85
 0
VERTEX
 8
MESH_168_F0
 10
0
 20
0
 30
0
 70
128
 71
87
 72
86
 73
120
 74
120
 0
VERTEX
 8
MESH_168_F0
 10
0
 20
0
 30
0
 70
128
 71
87
 72
120
 73
88
 74
88
 0
VERTEX
 8
MESH_168_F0
 10
0
 20
0
 30
0
 70
128
 71
120
 72
89
 73
88
 74
88
 0
VERTEX
 8
MESH_168_F0
 10
0
 20
0
 30
0
 70
128
 71
90
 72
89
 73
120
 74
120
 0
VERTEX
 8
MESH_168_F0
 10
0
 20
0
 30
0
 70
128
 71
90
 72
120
 73
91
 74
91
 0
VERTEX
 8
MESH_168_F0
 10
0
 20
0
 30
0
 70
128
 71
120
 72
92
 73
91
 74
91
 0
VERTEX
 8
MESH_168_F0
 10
0
 20
0
 30
0
 70
128
 71
93
 72
92
 73
120
 74
120
 0
VERTEX
 8
MESH_168_F0
 10
0
 20
0
 30
0
 70
128
 71
93
 72
120
 73
94
 74
94
 0
VERTEX
 8
MESH_168_F0
 10
0
 20
0
 30
0
 70
128
 71
120
 72
95
 73
94
 74
94
 0
VERTEX
 8
MESH_168_F0
 10
0
 20
0
 30
0
 70
128
 71
96
 72
95
 73
120
 74
120
 0
VERTEX
 8
MESH_168_F0
 10
0
 20
0
 30
0
 70
128
 71
96
 72
120
 73
97
 74
97
 0
VERTEX
 8
MESH_168_F0
 10
0
 20
0
 30
0
 70
128
 71
120
 72
98
 73
97
 74
97
 0
VERTEX
 8
MESH_168_F0
 10
0
 20
0
 30
0
 70
128
 71
99
 72
98
 73
120
 74
120
 0
VERTEX
 8
MESH_168_F0
 10
0
 20
0
 30
0
 70
128
 71
99
 72
120
 73
100
 74
100
 0
VERTEX
 8
MESH_168_F0
 10
0
 20
0
 30
0
 70
128
 71
120
 72
1
 73
100
 74
100
 0
VERTEX
 8
MESH_168_F0
 10
0
 20
0
 30
0
 70
128
 71
119
 72
1
 73
120
 74
120
 0
VERTEX
 8
MESH_168_F0
 10
0
 20
0
 30
0
 70
128
 71
118
 72
1
 73
119
 74
119
 0
VERTEX
 8
MESH_168_F0
 10
0
 20
0
 30
0
 70
128
 71
117
 72
1
 73
118
 74
118
 0
VERTEX
 8
MESH_168_F0
 10
0
 20
0
 30
0
 70
128
 71
116
 72
1
 73
117
 74
117
 0
VERTEX
 8
MESH_168_F0
 10
0
 20
0
 30
0
 70
128
 71
115
 72
1
 73
116
 74
116
 0
VERTEX
 8
MESH_168_F0
 10
0
 20
0
 30
0
 70
128
 71
114
 72
1
 73
115
 74
115
 0
VERTEX
 8
MESH_168_F0
 10
0
 20
0
 30
0
 70
128
 71
113
 72
1
 73
114
 74
114
 0
VERTEX
 8
MESH_168_F0
 10
0
 20
0
 30
0
 70
128
 71
112
 72
1
 73
113
 74
113
 0
VERTEX
 8
MESH_168_F0
 10
0
 20
0
 30
0
 70
128
 71
111
 72
1
 73
112
 74
112
 0
VERTEX
 8
MESH_168_F0
 10
0
 20
0
 30
0
 70
128
 71
110
 72
1
 73
111
 74
111
 0
VERTEX
 8
MESH_168_F0
 10
0
 20
0
 30
0
 70
128
 71
109
 72
1
 73
110
 74
110
 0
VERTEX
 8
MESH_168_F0
 10
0
 20
0
 30
0
 70
128
 71
108
 72
1
 73
109
 74
109
 0
VERTEX
 8
MESH_168_F0
 10
0
 20
0
 30
0
 70
128
 71
107
 72
1
 73
108
 74
108
 0
VERTEX
 8
MESH_168_F0
 10
0
 20
0
 30
0
 70
128
 71
106
 72
1
 73
107
 74
107
 0
VERTEX
 8
MESH_168_F0
 10
0
 20
0
 30
0
 70
128
 71
105
 72
1
 73
106
 74
106
 0
VERTEX
 8
MESH_168_F0
 10
0
 20
0
 30
0
 70
128
 71
104
 72
1
 73
105
 74
105
 0
VERTEX
 8
MESH_168_F0
 10
0
 20
0
 30
0
 70
128
 71
103
 72
1
 73
104
 74
104
 0
VERTEX
 8
MESH_168_F0
 10
0
 20
0
 30
0
 70
128
 71
102
 72
1
 73
103
 74
103
 0
VERTEX
 8
MESH_168_F0
 10
0
 20
0
 30
0
 70
128
 71
101
 72
1
 73
102
 74
102
 0
VERTEX
 8
MESH_168_F0
 10
0
 20
0
 30
0
 70
128
 71
2
 72
1
 73
101
 74
101
 0
VERTEX
 8
MESH_168_F0
 10
0
 20
0
 30
0
 70
128
 71
2
 72
101
 73
200
 74
200
 0
VERTEX
 8
MESH_168_F0
 10
0
 20
0
 30
0
 70
128
 71
226
 72
124
 73
123
 74
123
 0
VERTEX
 8
MESH_168_F0
 10
0
 20
0
 30
0
 70
128
 71
125
 72
124
 73
226
 74
226
 0
VERTEX
 8
MESH_168_F0
 10
0
 20
0
 30
0
 70
128
 71
125
 72
226
 73
126
 74
126
 0
VERTEX
 8
MESH_168_F0
 10
0
 20
0
 30
0
 70
128
 71
226
 72
127
 73
126
 74
126
 0
VERTEX
 8
MESH_168_F0
 10
0
 20
0
 30
0
 70
128
 71
128
 72
127
 73
226
 74
226
 0
VERTEX
 8
MESH_168_F0
 10
0
 20
0
 30
0
 70
128
 71
128
 72
226
 73
129
 74
129
 0
VERTEX
 8
MESH_168_F0
 10
0
 20
0
 30
0
 70
128
 71
226
 72
202
 73
129
 74
129
 0
VERTEX
 8
MESH_168_F0
 10
0
 20
0
 30
0
 70
128
 71
202
 72
130
 73
129
 74
129
 0
VERTEX
 8
MESH_168_F0
 10
0
 20
0
 30
0
 70
128
 71
131
 72
130
 73
202
 74
202
 0
VERTEX
 8
MESH_168_F0
 10
0
 20
0
 30
0
 70
128
 71
131
 72
202
 73
132
 74
132
 0
VERTEX
 8
MESH_168_F0
 10
0
 20
0
 30
0
 70
128
 71
202
 72
133
 73
132
 74
132
 0
VERTEX
 8
MESH_168_F0
 10
0
 20
0
 30
0
 70
128
 71
134
 72
133
 73
202
 74
202
 0
VERTEX
 8
MESH_168_F0
 10
0
 20
0
 30
0
 70
128
 71
134
 72
202
 73
135
 74
135
 0
VERTEX
 8
MESH_168_F0
 10
0
 20
0
 30
0
 70
128
 71
202
 72
136
 73
135
 74
135
 0
VERTEX
 8
MESH_168_F0
 10
0
 20
0
 30
0
 70
128
 71
137
 72
136
 73
202
 74
202
 0
VERTEX
 8
MESH_168_F0
 10
0
 20
0
 30
0
 70
128
 71
137
 72
202
 73
138
 74
138
 0
VERTEX
 8
MESH_168_F0
 10
0
 20
0
 30
0
 70
128
 71
202
 72
139
 73
138
 74
138
 0
VERTEX
 8
MESH_168_F0
 10
0
 20
0
 30
0
 70
128
 71
140
 72
139
 73
202
 74
202
 0
VERTEX
 8
MESH_168_F0
 10
0
 20
0
 30
0
 70
128
 71
140
 72
202
 73
141
 74
141
 0
VERTEX
 8
MESH_168_F0
 10
0
 20
0
 30
0
 70
128
 71
202
 72
142
 73
141
 74
141
 0
VERTEX
 8
MESH_168_F0
 10
0
 20
0
 30
0
 70
128
 71
143
 72
142
 73
202
 74
202
 0
VERTEX
 8
MESH_168_F0
 10
0
 20
0
 30
0
 70
128
 71
143
 72
202
 73
144
 74
144
 0
VERTEX
 8
MESH_168_F0
 10
0
 20
0
 30
0
 70
128
 71
202
 72
145
 73
144
 74
144
 0
VERTEX
 8
MESH_168_F0
 10
0
 20
0
 30
0
 70
128
 71
146
 72
145
 73
202
 74
202
 0
VERTEX
 8
MESH_168_F0
 10
0
 20
0
 30
0
 70
128
 71
146
 72
202
 73
147
 74
147
 0
VERTEX
 8
MESH_168_F0
 10
0
 20
0
 30
0
 70
128
 71
202
 72
148
 73
147
 74
147
 0
VERTEX
 8
MESH_168_F0
 10
0
 20
0
 30
0
 70
128
 71
149
 72
148
 73
202
 74
202
 0
VERTEX
 8
MESH_168_F0
 10
0
 20
0
 30
0
 70
128
 71
149
 72
202
 73
150
 74
150
 0
VERTEX
 8
MESH_168_F0
 10
0
 20
0
 30
0
 70
128
 71
202
 72
151
 73
150
 74
150
 0
VERTEX
 8
MESH_168_F0
 10
0
 20
0
 30
0
 70
128
 71
201
 72
151
 73
202
 74
202
 0
VERTEX
 8
MESH_168_F0
 10
0
 20
0
 30
0
 70
128
 71
152
 72
151
 73
201
 74
201
 0
VERTEX
 8
MESH_168_F0
 10
0
 20
0
 30
0
 70
128
 71
152
 72
201
 73
153
 74
153
 0
VERTEX
 8
MESH_168_F0
 10
0
 20
0
 30
0
 70
128
 71
201
 72
154
 73
153
 74
153
 0
VERTEX
 8
MESH_168_F0
 10
0
 20
0
 30
0
 70
128
 71
155
 72
154
 73
201
 74
201
 0
VERTEX
 8
MESH_168_F0
 10
0
 20
0
 30
0
 70
128
 71
155
 72
201
 73
156
 74
156
 0
VERTEX
 8
MESH_168_F0
 10
0
 20
0
 30
0
 70
128
 71
201
 72
157
 73
156
 74
156
 0
VERTEX
 8
MESH_168_F0
 10
0
 20
0
 30
0
 70
128
 71
158
 72
157
 73
201
 74
201
 0
VERTEX
 8
MESH_168_F0
 10
0
 20
0
 30
0
 70
128
 71
158
 72
201
 73
159
 74
159
 0
VERTEX
 8
MESH_168_F0
 10
0
 20
0
 30
0
 70
128
 71
201
 72
160
 73
159
 74
159
 0
VERTEX
 8
MESH_168_F0
 10
0
 20
0
 30
0
 70
128
 71
161
 72
160
 73
201
 74
201
 0
VERTEX
 8
MESH_168_F0
 10
0
 20
0
 30
0
 70
128
 71
161
 72
201
 73
162
 74
162
 0
VERTEX
 8
MESH_168_F0
 10
0
 20
0
 30
0
 70
128
 71
201
 72
163
 73
162
 74
162
 0
VERTEX
 8
MESH_168_F0
 10
0
 20
0
 30
0
 70
128
 71
164
 72
163
 73
201
 74
201
 0
VERTEX
 8
MESH_168_F0
 10
0
 20
0
 30
0
 70
128
 71
164
 72
201
 73
165
 74
165
 0
VERTEX
 8
MESH_168_F0
 10
0
 20
0
 30
0
 70
128
 71
201
 72
166
 73
165
 74
165
 0
VERTEX
 8
MESH_168_F0
 10
0
 20
0
 30
0
 70
128
 71
167
 72
166
 73
201
 74
201
 0
VERTEX
 8
MESH_168_F0
 10
0
 20
0
 30
0
 70
128
 71
167
 72
201
 73
168
 74
168
 0
VERTEX
 8
MESH_168_F0
 10
0
 20
0
 30
0
 70
128
 71
201
 72
169
 73
168
 74
168
 0
VERTEX
 8
MESH_168_F0
 10
0
 20
0
 30
0
 70
128
 71
170
 72
169
 73
201
 74
201
 0
VERTEX
 8
MESH_168_F0
 10
0
 20
0
 30
0
 70
128
 71
170
 72
201
 73
171
 74
171
 0
VERTEX
 8
MESH_168_F0
 10
0
 20
0
 30
0
 70
128
 71
201
 72
172
 73
171
 74
171
 0
VERTEX
 8
MESH_168_F0
 10
0
 20
0
 30
0
 70
128
 71
173
 72
172
 73
201
 74
201
 0
VERTEX
 8
MESH_168_F0
 10
0
 20
0
 30
0
 70
128
 71
173
 72
201
 73
174
 74
174
 0
VERTEX
 8
MESH_168_F0
 10
0
 20
0
 30
0
 70
128
 71
201
 72
175
 73
174
 74
174
 0
VERTEX
 8
MESH_168_F0
 10
0
 20
0
 30
0
 70
128
 71
176
 72
175
 73
201
 74
201
 0
VERTEX
 8
MESH_168_F0
 10
0
 20
0
 30
0
 70
128
 71
176
 72
201
 73
177
 74
177
 0
VERTEX
 8
MESH_168_F0
 10
0
 20
0
 30
0
 70
128
 71
201
 72
178
 73
177
 74
177
 0
VERTEX
 8
MESH_168_F0
 10
0
 20
0
 30
0
 70
128
 71
2
 72
181
 73
180
 74
180
 0
VERTEX
 8
MESH_168_F0
 10
0
 20
0
 30
0
 70
128
 71
182
 72
181
 73
2
 74
2
 0
VERTEX
 8
MESH_168_F0
 10
0
 20
0
 30
0
 70
128
 71
182
 72
2
 73
183
 74
183
 0
VERTEX
 8
MESH_168_F0
 10
0
 20
0
 30
0
 70
128
 71
2
 72
184
 73
183
 74
183
 0
VERTEX
 8
MESH_168_F0
 10
0
 20
0
 30
0
 70
128
 71
185
 72
184
 73
2
 74
2
 0
VERTEX
 8
MESH_168_F0
 10
0
 20
0
 30
0
 70
128
 71
185
 72
2
 73
186
 74
186
 0
VERTEX
 8
MESH_168_F0
 10
0
 20
0
 30
0
 70
128
 71
2
 72
187
 73
186
 74
186
 0
VERTEX
 8
MESH_168_F0
 10
0
 20
0
 30
0
 70
128
 71
188
 72
187
 73
2
 74
2
 0
VERTEX
 8
MESH_168_F0
 10
0
 20
0
 30
0
 70
128
 71
188
 72
2
 73
189
 74
189
 0
VERTEX
 8
MESH_168_F0
 10
0
 20
0
 30
0
 70
128
 71
2
 72
190
 73
189
 74
189
 0
VERTEX
 8
MESH_168_F0
 10
0
 20
0
 30
0
 70
128
 71
191
 72
190
 73
2
 74
2
 0
VERTEX
 8
MESH_168_F0
 10
0
 20
0
 30
0
 70
128
 71
191
 72
2
 73
192
 74
192
 0
VERTEX
 8
MESH_168_F0
 10
0
 20
0
 30
0
 70
128
 71
2
 72
193
 73
192
 74
192
 0
VERTEX
 8
MESH_168_F0
 10
0
 20
0
 30
0
 70
128
 71
194
 72
193
 73
2
 74
2
 0
VERTEX
 8
MESH_168_F0
 10
0
 20
0
 30
0
 70
128
 71
194
 72
2
 73
195
 74
195
 0
VERTEX
 8
MESH_168_F0
 10
0
 20
0
 30
0
 70
128
 71
2
 72
196
 73
195
 74
195
 0
VERTEX
 8
MESH_168_F0
 10
0
 20
0
 30
0
 70
128
 71
197
 72
196
 73
2
 74
2
 0
VERTEX
 8
MESH_168_F0
 10
0
 20
0
 30
0
 70
128
 71
226
 72
203
 73
202
 74
202
 0
VERTEX
 8
MESH_168_F0
 10
0
 20
0
 30
0
 70
128
 71
204
 72
203
 73
226
 74
226
 0
VERTEX
 8
MESH_168_F0
 10
0
 20
0
 30
0
 70
128
 71
204
 72
226
 73
205
 74
205
 0
VERTEX
 8
MESH_168_F0
 10
0
 20
0
 30
0
 70
128
 71
226
 72
206
 73
205
 74
205
 0
VERTEX
 8
MESH_168_F0
 10
0
 20
0
 30
0
 70
128
 71
207
 72
206
 73
226
 74
226
 0
VERTEX
 8
MESH_168_F0
 10
0
 20
0
 30
0
 70
128
 71
207
 72
226
 73
208
 74
208
 0
VERTEX
 8
MESH_168_F0
 10
0
 20
0
 30
0
 70
128
 71
226
 72
209
 73
208
 74
208
 0
VERTEX
 8
MESH_168_F0
 10
0
 20
0
 30
0
 70
128
 71
210
 72
209
 73
226
 74
226
 0
VERTEX
 8
MESH_168_F0
 10
0
 20
0
 30
0
 70
128
 71
210
 72
226
 73
211
 74
211
 0
VERTEX
 8
MESH_168_F0
 10
0
 20
0
 30
0
 70
128
 71
226
 72
212
 73
211
 74
211
 0
VERTEX
 8
MESH_168_F0
 10
0
 20
0
 30
0
 70
128
 71
213
 72
212
 73
226
 74
226
 0
VERTEX
 8
MESH_168_F0
 10
0
 20
0
 30
0
 70
128
 71
213
 72
226
 73
214
 74
214
 0
VERTEX
 8
MESH_168_F0
 10
0
 20
0
 30
0
 70
128
 71
226
 72
215
 73
214
 74
214
 0
VERTEX
 8
MESH_168_F0
 10
0
 20
0
 30
0
 70
128
 71
216
 72
215
 73
226
 74
226
 0
VERTEX
 8
MESH_168_F0
 10
0
 20
0
 30
0
 70
128
 71
216
 72
226
 73
217
 74
217
 0
VERTEX
 8
MESH_168_F0
 10
0
 20
0
 30
0
 70
128
 71
226
 72
218
 73
217
 74
217
 0
VERTEX
 8
MESH_168_F0
 10
0
 20
0
 30
0
 70
128
 71
219
 72
218
 73
226
 74
226
 0
VERTEX
 8
MESH_168_F0
 10
0
 20
0
 30
0
 70
128
 71
219
 72
226
 73
220
 74
220
 0
VERTEX
 8
MESH_168_F0
 10
0
 20
0
 30
0
 70
128
 71
226
 72
221
 73
220
 74
220
 0
VERTEX
 8
MESH_168_F0
 10
0
 20
0
 30
0
 70
128
 71
222
 72
221
 73
226
 74
226
 0
VERTEX
 8
MESH_168_F0
 10
0
 20
0
 30
0
 70
128
 71
222
 72
226
 73
223
 74
223
 0
VERTEX
 8
MESH_168_F0
 10
0
 20
0
 30
0
 70
128
 71
226
 72
224
 73
223
 74
223
 0
VERTEX
 8
MESH_168_F0
 10
0
 20
0
 30
0
 70
128
 71
225
 72
224
 73
226
 74
226
 0
VERTEX
 8
MESH_168_F0
 10
0
 20
0
 30
0
 70
128
 71
227
 72
229
 73
228
 74
228
 0
VERTEX
 8
MESH_168_F0
 10
0
 20
0
 30
0
 70
128
 71
230
 72
229
 73
227
 74
227
 0
VERTEX
 8
MESH_168_F0
 10
0
 20
0
 30
0
 70
128
 71
230
 72
227
 73
231
 74
231
 0
VERTEX
 8
MESH_168_F0
 10
0
 20
0
 30
0
 70
128
 71
227
 72
232
 73
231
 74
231
 0
VERTEX
 8
MESH_168_F0
 10
0
 20
0
 30
0
 70
128
 71
233
 72
232
 73
227
 74
227
 0
VERTEX
 8
MESH_168_F0
 10
0
 20
0
 30
0
 70
128
 71
233
 72
227
 73
234
 74
234
 0
VERTEX
 8
MESH_168_F0
 10
0
 20
0
 30
0
 70
128
 71
227
 72
235
 73
234
 74
234
 0
VERTEX
 8
MESH_168_F0
 10
0
 20
0
 30
0
 70
128
 71
236
 72
235
 73
227
 74
227
 0
VERTEX
 8
MESH_168_F0
 10
0
 20
0
 30
0
 70
128
 71
236
 72
227
 73
237
 74
237
 0
VERTEX
 8
MESH_168_F0
 10
0
 20
0
 30
0
 70
128
 71
227
 72
238
 73
237
 74
237
 0
VERTEX
 8
MESH_168_F0
 10
0
 20
0
 30
0
 70
128
 71
239
 72
238
 73
227
 74
227
 0
VERTEX
 8
MESH_168_F0
 10
0
 20
0
 30
0
 70
128
 71
239
 72
227
 73
240
 74
240
 0
VERTEX
 8
MESH_168_F0
 10
0
 20
0
 30
0
 70
128
 71
227
 72
241
 73
240
 74
240
 0
VERTEX
 8
MESH_168_F0
 10
0
 20
0
 30
0
 70
128
 71
242
 72
241
 73
227
 74
227
 0
VERTEX
 8
MESH_168_F0
 10
0
 20
0
 30
0
 70
128
 71
242
 72
227
 73
243
 74
243
 0
VERTEX
 8
MESH_168_F0
 10
0
 20
0
 30
0
 70
128
 71
227
 72
244
 73
243
 74
243
 0
VERTEX
 8
MESH_168_F0
 10
0
 20
0
 30
0
 70
128
 71
245
 72
244
 73
227
 74
227
 0
VERTEX
 8
MESH_168_F0
 10
0
 20
0
 30
0
 70
128
 71
245
 72
227
 73
246
 74
246
 0
VERTEX
 8
MESH_168_F0
 10
0
 20
0
 30
0
 70
128
 71
227
 72
247
 73
246
 74
246
 0
VERTEX
 8
MESH_168_F0
 10
0
 20
0
 30
0
 70
128
 71
248
 72
247
 73
227
 74
227
 0
VERTEX
 8
MESH_168_F0
 10
0
 20
0
 30
0
 70
128
 71
248
 72
227
 73
249
 74
249
 0
SEQEND
 0
POLYLINE
 8
MESH_167_F0
 66
1
 10
0.0
 20
0.0
 30
0.0
 70
64
 71
50
 72
48
 0
VERTEX
 8
MESH_167_F0
 10
-380
 20
-323
 30
25
 70
192
 0
VERTEX
 8
MESH_167_F0
 10
-380
 20
-323
 30
0
 70
192
 0
VERTEX
 8
MESH_167_F0
 10
-381.662
 20
-322.9415
 30
0
 70
192
 0
VERTEX
 8
MESH_167_F0
 10
-383.2953
 20
-322.78
 30
0
 70
192
 0
VERTEX
 8
MESH_167_F0
 10
-384.9028
 20
-322.5143
 30
0
 70
192
 0
VERTEX
 8
MESH_167_F0
 10
-386.4876
 20
-322.1435
 30
0
 70
192
 0
VERTEX
 8
MESH_167_F0
 10
-388.0459
 20
-321.6689
 30
0
 70
192
 0
VERTEX
 8
MESH_167_F0
 10
-389.5756
 20
-321.0918
 30
0
 70
192
 0
VERTEX
 8
MESH_167_F0
 10
-391.0674
 20
-320.4156
 30
0
 70
192
 0
VERTEX
 8
MESH_167_F0
 10
-392.5124
 20
-319.6433
 30
0
 70
192
 0
VERTEX
 8
MESH_167_F0
 10
-393.8996
 20
-318.78
 30
0
 70
192
 0
VERTEX
 8
MESH_167_F0
 10
-395.226
 20
-317.8285
 30
0
 70
192
 0
VERTEX
 8
MESH_167_F0
 10
-396.4869
 20
-316.793
 30
0
 70
192
 0
VERTEX
 8
MESH_167_F0
 10
-397.6773
 20
-315.6779
 30
0
 70
192
 0
VERTEX
 8
MESH_167_F0
 10
-398.7924
 20
-314.4875
 30
0
 70
192
 0
VERTEX
 8
MESH_167_F0
 10
-399.828
 20
-313.2267
 30
0
 70
192
 0
VERTEX
 8
MESH_167_F0
 10
-400.7796
 20
-311.9003
 30
0
 70
192
 0
VERTEX
 8
MESH_167_F0
 10
-401.643
 20
-310.5131
 30
0
 70
192
 0
VERTEX
 8
MESH_167_F0
 10
-402.4153
 20
-309.0681
 30
0
 70
192
 0
VERTEX
 8
MESH_167_F0
 10
-403.0916
 20
-307.5762
 30
0
 70
192
 0
VERTEX
 8
MESH_167_F0
 10
-403.6687
 20
-306.0464
 30
0
 70
192
 0
VERTEX
 8
MESH_167_F0
 10
-404.1434
 20
-304.4881
 30
0
 70
192
 0
VERTEX
 8
MESH_167_F0
 10
-404.5142
 20
-302.9031
 30
0
 70
192
 0
VERTEX
 8
MESH_167_F0
 10
-404.7799
 20
-301.2955
 30
0
 70
192
 0
VERTEX
 8
MESH_167_F0
 10
-404.9415
 20
-299.6621
 30
0
 70
192
 0
VERTEX
 8
MESH_167_F0
 10
-405
 20
-298
 30
0
 70
192
 0
VERTEX
 8
MESH_167_F0
 10
-405
 20
-298
 30
25
 70
192
 0
VERTEX
 8
MESH_167_F0
 10
-404.9415
 20
-299.662
 30
25
 70
192
 0
VERTEX
 8
MESH_167_F0
 10
-404.78
 20
-301.2953
 30
25
 70
192
 0
VERTEX
 8
MESH_167_F0
 10
-404.5143
 20
-302.9028
 30
25
 70
192
 0
VERTEX
 8
MESH_167_F0
 10
-404.1435
 20
-304.4876
 30
25
 70
192
 0
VERTEX
 8
MESH_167_F0
 10
-403.6688
 20
-306.0459
 30
25
 70
192
 0
VERTEX
 8
MESH_167_F0
 10
-403.0918
 20
-307.5756
 30
25
 70
192
 0
VERTEX
 8
MESH_167_F0
 10
-402.4156
 20
-309.0674
 30
25
 70
192
 0
VERTEX
 8
MESH_167_F0
 10
-401.6433
 20
-310.5124
 30
25
 70
192
 0
VERTEX
 8
MESH_167_F0
 10
-400.78
 20
-311.8996
 30
25
 70
192
 0
VERTEX
 8
MESH_167_F0
 10
-399.8285
 20
-313.226
 30
25
 70
192
 0
VERTEX
 8
MESH_167_F0
 10
-398.793
 20
-314.4869
 30
25
 70
192
 0
VERTEX
 8
MESH_167_F0
 10
-397.6779
 20
-315.6773
 30
25
 70
192
 0
VERTEX
 8
MESH_167_F0
 10
-396.4875
 20
-316.7924
 30
25
 70
192
 0
VERTEX
 8
MESH_167_F0
 10
-395.2267
 20
-317.8279
 30
25
 70
192
 0
VERTEX
 8
MESH_167_F0
 10
-393.9003
 20
-318.7796
 30
25
 70
192
 0
VERTEX
 8
MESH_167_F0
 10
-392.5131
 20
-319.643
 30
25
 70
192
 0
VERTEX
 8
MESH_167_F0
 10
-391.0681
 20
-320.4153
 30
25
 70
192
 0
VERTEX
 8
MESH_167_F0
 10
-389.5761
 20
-321.0916
 30
25
 70
192
 0
VERTEX
 8
MESH_167_F0
 10
-388.0464
 20
-321.6687
 30
25
 70
192
 0
VERTEX
 8
MESH_167_F0
 10
-386.4881
 20
-322.1434
 30
25
 70
192
 0
VERTEX
 8
MESH_167_F0
 10
-384.9031
 20
-322.5143
 30
25
 70
192
 0
VERTEX
 8
MESH_167_F0
 10
-383.2955
 20
-322.7799
 30
25
 70
192
 0
VERTEX
 8
MESH_167_F0
 10
-381.6621
 20
-322.9415
 30
25
 70
192
 0
VERTEX
 8
MESH_167_F0
 10
0
 20
0
 30
0
 70
128
 71
50
 72
2
 73
1
 74
1
 0
VERTEX
 8
MESH_167_F0
 10
0
 20
0
 30
0
 70
128
 71
3
 72
2
 73
50
 74
50
 0
VERTEX
 8
MESH_167_F0
 10
0
 20
0
 30
0
 70
128
 71
3
 72
50
 73
4
 74
4
 0
VERTEX
 8
MESH_167_F0
 10
0
 20
0
 30
0
 70
128
 71
50
 72
49
 73
4
 74
4
 0
VERTEX
 8
MESH_167_F0
 10
0
 20
0
 30
0
 70
128
 71
49
 72
5
 73
4
 74
4
 0
VERTEX
 8
MESH_167_F0
 10
0
 20
0
 30
0
 70
128
 71
48
 72
5
 73
49
 74
49
 0
VERTEX
 8
MESH_167_F0
 10
0
 20
0
 30
0
 70
128
 71
6
 72
5
 73
48
 74
48
 0
VERTEX
 8
MESH_167_F0
 10
0
 20
0
 30
0
 70
128
 71
7
 72
6
 73
47
 74
47
 0
VERTEX
 8
MESH_167_F0
 10
0
 20
0
 30
0
 70
128
 71
8
 72
7
 73
46
 74
46
 0
VERTEX
 8
MESH_167_F0
 10
0
 20
0
 30
0
 70
128
 71
9
 72
8
 73
45
 74
45
 0
VERTEX
 8
MESH_167_F0
 10
0
 20
0
 30
0
 70
128
 71
10
 72
9
 73
44
 74
44
 0
VERTEX
 8
MESH_167_F0
 10
0
 20
0
 30
0
 70
128
 71
11
 72
10
 73
43
 74
43
 0
VERTEX
 8
MESH_167_F0
 10
0
 20
0
 30
0
 70
128
 71
12
 72
11
 73
42
 74
42
 0
VERTEX
 8
MESH_167_F0
 10
0
 20
0
 30
0
 70
128
 71
13
 72
12
 73
41
 74
41
 0
VERTEX
 8
MESH_167_F0
 10
0
 20
0
 30
0
 70
128
 71
14
 72
13
 73
40
 74
40
 0
VERTEX
 8
MESH_167_F0
 10
0
 20
0
 30
0
 70
128
 71
15
 72
14
 73
39
 74
39
 0
VERTEX
 8
MESH_167_F0
 10
0
 20
0
 30
0
 70
128
 71
16
 72
15
 73
38
 74
38
 0
VERTEX
 8
MESH_167_F0
 10
0
 20
0
 30
0
 70
128
 71
17
 72
16
 73
37
 74
37
 0
VERTEX
 8
MESH_167_F0
 10
0
 20
0
 30
0
 70
128
 71
18
 72
17
 73
36
 74
36
 0
VERTEX
 8
MESH_167_F0
 10
0
 20
0
 30
0
 70
128
 71
19
 72
18
 73
35
 74
35
 0
VERTEX
 8
MESH_167_F0
 10
0
 20
0
 30
0
 70
128
 71
20
 72
19
 73
34
 74
34
 0
VERTEX
 8
MESH_167_F0
 10
0
 20
0
 30
0
 70
128
 71
21
 72
20
 73
33
 74
33
 0
VERTEX
 8
MESH_167_F0
 10
0
 20
0
 30
0
 70
128
 71
22
 72
21
 73
32
 74
32
 0
VERTEX
 8
MESH_167_F0
 10
0
 20
0
 30
0
 70
128
 71
23
 72
22
 73
31
 74
31
 0
VERTEX
 8
MESH_167_F0
 10
0
 20
0
 30
0
 70
128
 71
24
 72
23
 73
30
 74
30
 0
VERTEX
 8
MESH_167_F0
 10
0
 20
0
 30
0
 70
128
 71
25
 72
24
 73
29
 74
29
 0
VERTEX
 8
MESH_167_F0
 10
0
 20
0
 30
0
 70
128
 71
26
 72
25
 73
28
 74
28
 0
VERTEX
 8
MESH_167_F0
 10
0
 20
0
 30
0
 70
128
 71
26
 72
28
 73
27
 74
27
 0
VERTEX
 8
MESH_167_F0
 10
0
 20
0
 30
0
 70
128
 71
25
 72
29
 73
28
 74
28
 0
VERTEX
 8
MESH_167_F0
 10
0
 20
0
 30
0
 70
128
 71
24
 72
30
 73
29
 74
29
 0
VERTEX
 8
MESH_167_F0
 10
0
 20
0
 30
0
 70
128
 71
23
 72
31
 73
30
 74
30
 0
VERTEX
 8
MESH_167_F0
 10
0
 20
0
 30
0
 70
128
 71
22
 72
32
 73
31
 74
31
 0
VERTEX
 8
MESH_167_F0
 10
0
 20
0
 30
0
 70
128
 71
21
 72
33
 73
32
 74
32
 0
VERTEX
 8
MESH_167_F0
 10
0
 20
0
 30
0
 70
128
 71
20
 72
34
 73
33
 74
33
 0
VERTEX
 8
MESH_167_F0
 10
0
 20
0
 30
0
 70
128
 71
19
 72
35
 73
34
 74
34
 0
VERTEX
 8
MESH_167_F0
 10
0
 20
0
 30
0
 70
128
 71
18
 72
36
 73
35
 74
35
 0
VERTEX
 8
MESH_167_F0
 10
0
 20
0
 30
0
 70
128
 71
17
 72
37
 73
36
 74
36
 0
VERTEX
 8
MESH_167_F0
 10
0
 20
0
 30
0
 70
128
 71
16
 72
38
 73
37
 74
37
 0
VERTEX
 8
MESH_167_F0
 10
0
 20
0
 30
0
 70
128
 71
15
 72
39
 73
38
 74
38
 0
VERTEX
 8
MESH_167_F0
 10
0
 20
0
 30
0
 70
128
 71
14
 72
40
 73
39
 74
39
 0
VERTEX
 8
MESH_167_F0
 10
0
 20
0
 30
0
 70
128
 71
13
 72
41
 73
40
 74
40
 0
VERTEX
 8
MESH_167_F0
 10
0
 20
0
 30
0
 70
128
 71
12
 72
42
 73
41
 74
41
 0
VERTEX
 8
MESH_167_F0
 10
0
 20
0
 30
0
 70
128
 71
11
 72
43
 73
42
 74
42
 0
VERTEX
 8
MESH_167_F0
 10
0
 20
0
 30
0
 70
128
 71
10
 72
44
 73
43
 74
43
 0
VERTEX
 8
MESH_167_F0
 10
0
 20
0
 30
0
 70
128
 71
9
 72
45
 73
44
 74
44
 0
VERTEX
 8
MESH_167_F0
 10
0
 20
0
 30
0
 70
128
 71
8
 72
46
 73
45
 74
45
 0
VERTEX
 8
MESH_167_F0
 10
0
 20
0
 30
0
 70
128
 71
7
 72
47
 73
46
 74
46
 0
VERTEX
 8
MESH_167_F0
 10
0
 20
0
 30
0
 70
128
 71
6
 72
48
 73
47
 74
47
 0
SEQEND
 0
POLYLINE
 8
MESH_166_F0
 66
1
 10
0.0
 20
0.0
 30
0.0
 70
64
 71
4
 72
2
 0
VERTEX
 8
MESH_166_F0
 10
-405
 20
-298
 30
25
 70
192
 0
VERTEX
 8
MESH_166_F0
 10
-405
 20
-298
 30
0
 70
192
 0
VERTEX
 8
MESH_166_F0
 10
-405
 20
-120
 30
0
 70
192
 0
VERTEX
 8
MESH_166_F0
 10
-405
 20
-120
 30
25
 70
192
 0
VERTEX
 8
MESH_166_F0
 10
0
 20
0
 30
0
 70
128
 71
1
 72
3
 73
2
 74
2
 0
VERTEX
 8
MESH_166_F0
 10
0
 20
0
 30
0
 70
128
 71
4
 72
3
 73
1
 74
1
 0
SEQEND
 0
POLYLINE
 8
MESH_165_F0
 66
1
 10
0.0
 20
0.0
 30
0.0
 70
64
 71
50
 72
48
 0
VERTEX
 8
MESH_165_F0
 10
-405
 20
-120
 30
25
 70
192
 0
VERTEX
 8
MESH_165_F0
 10
-405
 20
-120
 30
0
 70
192
 0
VERTEX
 8
MESH_165_F0
 10
-404.9415
 20
-118.338
 30
0
 70
192
 0
VERTEX
 8
MESH_165_F0
 10
-404.78
 20
-116.7047
 30
0
 70
192
 0
VERTEX
 8
MESH_165_F0
 10
-404.5143
 20
-115.0972
 30
0
 70
192
 0
VERTEX
 8
MESH_165_F0
 10
-404.1435
 20
-113.5124
 30
0
 70
192
 0
VERTEX
 8
MESH_165_F0
 10
-403.6688
 20
-111.9541
 30
0
 70
192
 0
VERTEX
 8
MESH_165_F0
 10
-403.0918
 20
-110.4244
 30
0
 70
192
 0
VERTEX
 8
MESH_165_F0
 10
-402.4156
 20
-108.9326
 30
0
 70
192
 0
VERTEX
 8
MESH_165_F0
 10
-401.6433
 20
-107.4876
 30
0
 70
192
 0
VERTEX
 8
MESH_165_F0
 10
-400.78
 20
-106.1004
 30
0
 70
192
 0
VERTEX
 8
MESH_165_F0
 10
-399.8285
 20
-104.7739
 30
0
 70
192
 0
VERTEX
 8
MESH_165_F0
 10
-398.793
 20
-103.5131
 30
0
 70
192
 0
VERTEX
 8
MESH_165_F0
 10
-397.6779
 20
-102.3227
 30
0
 70
192
 0
VERTEX
 8
MESH_165_F0
 10
-396.4875
 20
-101.2076
 30
0
 70
192
 0
VERTEX
 8
MESH_165_F0
 10
-395.2267
 20
-100.172
 30
0
 70
192
 0
VERTEX
 8
MESH_165_F0
 10
-393.9003
 20
-99.2204
 30
0
 70
192
 0
VERTEX
 8
MESH_165_F0
 10
-392.5131
 20
-98.357
 30
0
 70
192
 0
VERTEX
 8
MESH_165_F0
 10
-391.0681
 20
-97.5847
 30
0
 70
192
 0
VERTEX
 8
MESH_165_F0
 10
-389.5761
 20
-96.9084
 30
0
 70
192
 0
VERTEX
 8
MESH_165_F0
 10
-388.0464
 20
-96.3313
 30
0
 70
192
 0
VERTEX
 8
MESH_165_F0
 10
-386.4881
 20
-95.8566
 30
0
 70
192
 0
VERTEX
 8
MESH_165_F0
 10
-384.9031
 20
-95.4858
 30
0
 70
192
 0
VERTEX
 8
MESH_165_F0
 10
-383.2955
 20
-95.2201
 30
0
 70
192
 0
VERTEX
 8
MESH_165_F0
 10
-381.6621
 20
-95.0585
 30
0
 70
192
 0
VERTEX
 8
MESH_165_F0
 10
-380
 20
-95
 30
0
 70
192
 0
VERTEX
 8
MESH_165_F0
 10
-380
 20
-95
 30
25
 70
192
 0
VERTEX
 8
MESH_165_F0
 10
-381.662
 20
-95.0585
 30
25
 70
192
 0
VERTEX
 8
MESH_165_F0
 10
-383.2953
 20
-95.22
 30
25
 70
192
 0
VERTEX
 8
MESH_165_F0
 10
-384.9028
 20
-95.4857
 30
25
 70
192
 0
VERTEX
 8
MESH_165_F0
 10
-386.4876
 20
-95.8565
 30
25
 70
192
 0
VERTEX
 8
MESH_165_F0
 10
-388.0459
 20
-96.3311
 30
25
 70
192
 0
VERTEX
 8
MESH_165_F0
 10
-389.5756
 20
-96.9082
 30
25
 70
192
 0
VERTEX
 8
MESH_165_F0
 10
-391.0674
 20
-97.5844
 30
25
 70
192
 0
VERTEX
 8
MESH_165_F0
 10
-392.5124
 20
-98.3566
 30
25
 70
192
 0
VERTEX
 8
MESH_165_F0
 10
-393.8996
 20
-99.22
 30
25
 70
192
 0
VERTEX
 8
MESH_165_F0
 10
-395.226
 20
-100.1715
 30
25
 70
192
 0
VERTEX
 8
MESH_165_F0
 10
-396.4869
 20
-101.207
 30
25
 70
192
 0
VERTEX
 8
MESH_165_F0
 10
-397.6773
 20
-102.3221
 30
25
 70
192
 0
VERTEX
 8
MESH_165_F0
 10
-398.7924
 20
-103.5125
 30
25
 70
192
 0
VERTEX
 8
MESH_165_F0
 10
-399.828
 20
-104.7733
 30
25
 70
192
 0
VERTEX
 8
MESH_165_F0
 10
-400.7796
 20
-106.0997
 30
25
 70
192
 0
VERTEX
 8
MESH_165_F0
 10
-401.643
 20
-107.4869
 30
25
 70
192
 0
VERTEX
 8
MESH_165_F0
 10
-402.4153
 20
-108.9319
 30
25
 70
192
 0
VERTEX
 8
MESH_165_F0
 10
-403.0916
 20
-110.4238
 30
25
 70
192
 0
VERTEX
 8
MESH_165_F0
 10
-403.6687
 20
-111.9536
 30
25
 70
192
 0
VERTEX
 8
MESH_165_F0
 10
-404.1434
 20
-113.5119
 30
25
 70
192
 0
VERTEX
 8
MESH_165_F0
 10
-404.5142
 20
-115.0969
 30
25
 70
192
 0
VERTEX
 8
MESH_165_F0
 10
-404.7799
 20
-116.7045
 30
25
 70
192
 0
VERTEX
 8
MESH_165_F0
 10
-404.9415
 20
-118.3379
 30
25
 70
192
 0
VERTEX
 8
MESH_165_F0
 10
0
 20
0
 30
0
 70
128
 71
50
 72
2
 73
1
 74
1
 0
VERTEX
 8
MESH_165_F0
 10
0
 20
0
 30
0
 70
128
 71
3
 72
2
 73
50
 74
50
 0
VERTEX
 8
MESH_165_F0
 10
0
 20
0
 30
0
 70
128
 71
3
 72
50
 73
4
 74
4
 0
VERTEX
 8
MESH_165_F0
 10
0
 20
0
 30
0
 70
128
 71
50
 72
49
 73
4
 74
4
 0
VERTEX
 8
MESH_165_F0
 10
0
 20
0
 30
0
 70
128
 71
49
 72
5
 73
4
 74
4
 0
VERTEX
 8
MESH_165_F0
 10
0
 20
0
 30
0
 70
128
 71
48
 72
5
 73
49
 74
49
 0
VERTEX
 8
MESH_165_F0
 10
0
 20
0
 30
0
 70
128
 71
6
 72
5
 73
48
 74
48
 0
VERTEX
 8
MESH_165_F0
 10
0
 20
0
 30
0
 70
128
 71
7
 72
6
 73
47
 74
47
 0
VERTEX
 8
MESH_165_F0
 10
0
 20
0
 30
0
 70
128
 71
8
 72
7
 73
46
 74
46
 0
VERTEX
 8
MESH_165_F0
 10
0
 20
0
 30
0
 70
128
 71
9
 72
8
 73
45
 74
45
 0
VERTEX
 8
MESH_165_F0
 10
0
 20
0
 30
0
 70
128
 71
10
 72
9
 73
44
 74
44
 0
VERTEX
 8
MESH_165_F0
 10
0
 20
0
 30
0
 70
128
 71
11
 72
10
 73
43
 74
43
 0
VERTEX
 8
MESH_165_F0
 10
0
 20
0
 30
0
 70
128
 71
12
 72
11
 73
42
 74
42
 0
VERTEX
 8
MESH_165_F0
 10
0
 20
0
 30
0
 70
128
 71
13
 72
12
 73
41
 74
41
 0
VERTEX
 8
MESH_165_F0
 10
0
 20
0
 30
0
 70
128
 71
14
 72
13
 73
40
 74
40
 0
VERTEX
 8
MESH_165_F0
 10
0
 20
0
 30
0
 70
128
 71
15
 72
14
 73
39
 74
39
 0
VERTEX
 8
MESH_165_F0
 10
0
 20
0
 30
0
 70
128
 71
16
 72
15
 73
38
 74
38
 0
VERTEX
 8
MESH_165_F0
 10
0
 20
0
 30
0
 70
128
 71
17
 72
16
 73
37
 74
37
 0
VERTEX
 8
MESH_165_F0
 10
0
 20
0
 30
0
 70
128
 71
18
 72
17
 73
36
 74
36
 0
VERTEX
 8
MESH_165_F0
 10
0
 20
0
 30
0
 70
128
 71
19
 72
18
 73
35
 74
35
 0
VERTEX
 8
MESH_165_F0
 10
0
 20
0
 30
0
 70
128
 71
20
 72
19
 73
34
 74
34
 0
VERTEX
 8
MESH_165_F0
 10
0
 20
0
 30
0
 70
128
 71
21
 72
20
 73
33
 74
33
 0
VERTEX
 8
MESH_165_F0
 10
0
 20
0
 30
0
 70
128
 71
22
 72
21
 73
32
 74
32
 0
VERTEX
 8
MESH_165_F0
 10
0
 20
0
 30
0
 70
128
 71
23
 72
22
 73
31
 74
31
 0
VERTEX
 8
MESH_165_F0
 10
0
 20
0
 30
0
 70
128
 71
24
 72
23
 73
30
 74
30
 0
VERTEX
 8
MESH_165_F0
 10
0
 20
0
 30
0
 70
128
 71
25
 72
24
 73
29
 74
29
 0
VERTEX
 8
MESH_165_F0
 10
0
 20
0
 30
0
 70
128
 71
26
 72
25
 73
28
 74
28
 0
VERTEX
 8
MESH_165_F0
 10
0
 20
0
 30
0
 70
128
 71
26
 72
28
 73
27
 74
27
 0
VERTEX
 8
MESH_165_F0
 10
0
 20
0
 30
0
 70
128
 71
25
 72
29
 73
28
 74
28
 0
VERTEX
 8
MESH_165_F0
 10
0
 20
0
 30
0
 70
128
 71
24
 72
30
 73
29
 74
29
 0
VERTEX
 8
MESH_165_F0
 10
0
 20
0
 30
0
 70
128
 71
23
 72
31
 73
30
 74
30
 0
VERTEX
 8
MESH_165_F0
 10
0
 20
0
 30
0
 70
128
 71
22
 72
32
 73
31
 74
31
 0
VERTEX
 8
MESH_165_F0
 10
0
 20
0
 30
0
 70
128
 71
21
 72
33
 73
32
 74
32
 0
VERTEX
 8
MESH_165_F0
 10
0
 20
0
 30
0
 70
128
 71
20
 72
34
 73
33
 74
33
 0
VERTEX
 8
MESH_165_F0
 10
0
 20
0
 30
0
 70
128
 71
19
 72
35
 73
34
 74
34
 0
VERTEX
 8
MESH_165_F0
 10
0
 20
0
 30
0
 70
128
 71
18
 72
36
 73
35
 74
35
 0
VERTEX
 8
MESH_165_F0
 10
0
 20
0
 30
0
 70
128
 71
17
 72
37
 73
36
 74
36
 0
VERTEX
 8
MESH_165_F0
 10
0
 20
0
 30
0
 70
128
 71
16
 72
38
 73
37
 74
37
 0
VERTEX
 8
MESH_165_F0
 10
0
 20
0
 30
0
 70
128
 71
15
 72
39
 73
38
 74
38
 0
VERTEX
 8
MESH_165_F0
 10
0
 20
0
 30
0
 70
128
 71
14
 72
40
 73
39
 74
39
 0
VERTEX
 8
MESH_165_F0
 10
0
 20
0
 30
0
 70
128
 71
13
 72
41
 73
40
 74
40
 0
VERTEX
 8
MESH_165_F0
 10
0
 20
0
 30
0
 70
128
 71
12
 72
42
 73
41
 74
41
 0
VERTEX
 8
MESH_165_F0
 10
0
 20
0
 30
0
 70
128
 71
11
 72
43
 73
42
 74
42
 0
VERTEX
 8
MESH_165_F0
 10
0
 20
0
 30
0
 70
128
 71
10
 72
44
 73
43
 74
43
 0
VERTEX
 8
MESH_165_F0
 10
0
 20
0
 30
0
 70
128
 71
9
 72
45
 73
44
 74
44
 0
VERTEX
 8
MESH_165_F0
 10
0
 20
0
 30
0
 70
128
 71
8
 72
46
 73
45
 74
45
 0
VERTEX
 8
MESH_165_F0
 10
0
 20
0
 30
0
 70
128
 71
7
 72
47
 73
46
 74
46
 0
VERTEX
 8
MESH_165_F0
 10
0
 20
0
 30
0
 70
128
 71
6
 72
48
 73
47
 74
47
 0
SEQEND
 0
POLYLINE
 8
MESH_164_F0
 66
1
 10
0.0
 20
0.0
 30
0.0
 70
64
 71
4
 72
2
 0
VERTEX
 8
MESH_164_F0
 10
-380
 20
-95
 30
25
 70
192
 0
VERTEX
 8
MESH_164_F0
 10
-380
 20
-95
 30
0
 70
192
 0
VERTEX
 8
MESH_164_F0
 10
-310
 20
-95
 30
0
 70
192
 0
VERTEX
 8
MESH_164_F0
 10
-310
 20
-95
 30
25
 70
192
 0
VERTEX
 8
MESH_164_F0
 10
0
 20
0
 30
0
 70
128
 71
1
 72
3
 73
2
 74
2
 0
VERTEX
 8
MESH_164_F0
 10
0
 20
0
 30
0
 70
128
 71
4
 72
3
 73
1
 74
1
 0
SEQEND
 0
POLYLINE
 8
MESH_163_F0
 66
1
 10
0.0
 20
0.0
 30
0.0
 70
64
 71
50
 72
48
 0
VERTEX
 8
MESH_163_F0
 10
-310
 20
-95
 30
25
 70
192
 0
VERTEX
 8
MESH_163_F0
 10
-310
 20
-95
 30
0
 70
192
 0
VERTEX
 8
MESH_163_F0
 10
-308.338
 20
-95.0585
 30
0
 70
192
 0
VERTEX
 8
MESH_163_F0
 10
-306.7047
 20
-95.22
 30
0
 70
192
 0
VERTEX
 8
MESH_163_F0
 10
-305.0972
 20
-95.4857
 30
0
 70
192
 0
VERTEX
 8
MESH_163_F0
 10
-303.5124
 20
-95.8565
 30
0
 70
192
 0
VERTEX
 8
MESH_163_F0
 10
-301.9541
 20
-96.3311
 30
0
 70
192
 0
VERTEX
 8
MESH_163_F0
 10
-300.4244
 20
-96.9082
 30
0
 70
192
 0
VERTEX
 8
MESH_163_F0
 10
-298.9326
 20
-97.5844
 30
0
 70
192
 0
VERTEX
 8
MESH_163_F0
 10
-297.4876
 20
-98.3566
 30
0
 70
192
 0
VERTEX
 8
MESH_163_F0
 10
-296.1004
 20
-99.22
 30
0
 70
192
 0
VERTEX
 8
MESH_163_F0
 10
-294.7739
 20
-100.1715
 30
0
 70
192
 0
VERTEX
 8
MESH_163_F0
 10
-293.5131
 20
-101.207
 30
0
 70
192
 0
VERTEX
 8
MESH_163_F0
 10
-292.3227
 20
-102.3221
 30
0
 70
192
 0
VERTEX
 8
MESH_163_F0
 10
-291.2076
 20
-103.5125
 30
0
 70
192
 0
VERTEX
 8
MESH_163_F0
 10
-290.172
 20
-104.7733
 30
0
 70
192
 0
VERTEX
 8
MESH_163_F0
 10
-289.2204
 20
-106.0997
 30
0
 70
192
 0
VERTEX
 8
MESH_163_F0
 10
-288.357
 20
-107.4869
 30
0
 70
192
 0
VERTEX
 8
MESH_163_F0
 10
-287.5847
 20
-108.9319
 30
0
 70
192
 0
VERTEX
 8
MESH_163_F0
 10
-286.9084
 20
-110.4238
 30
0
 70
192
 0
VERTEX
 8
MESH_163_F0
 10
-286.3313
 20
-111.9536
 30
0
 70
192
 0
VERTEX
 8
MESH_163_F0
 10
-285.8566
 20
-113.5119
 30
0
 70
192
 0
VERTEX
 8
MESH_163_F0
 10
-285.4857
 20
-115.0969
 30
0
 70
192
 0
VERTEX
 8
MESH_163_F0
 10
-285.2201
 20
-116.7045
 30
0
 70
192
 0
VERTEX
 8
MESH_163_F0
 10
-285.0585
 20
-118.3379
 30
0
 70
192
 0
VERTEX
 8
MESH_163_F0
 10
-285
 20
-120
 30
0
 70
192
 0
VERTEX
 8
MESH_163_F0
 10
-285
 20
-120
 30
25
 70
192
 0
VERTEX
 8
MESH_163_F0
 10
-285.0585
 20
-118.338
 30
25
 70
192
 0
VERTEX
 8
MESH_163_F0
 10
-285.22
 20
-116.7047
 30
25
 70
192
 0
VERTEX
 8
MESH_163_F0
 10
-285.4857
 20
-115.0972
 30
25
 70
192
 0
VERTEX
 8
MESH_163_F0
 10
-285.8565
 20
-113.5124
 30
25
 70
192
 0
VERTEX
 8
MESH_163_F0
 10
-286.3311
 20
-111.9541
 30
25
 70
192
 0
VERTEX
 8
MESH_163_F0
 10
-286.9082
 20
-110.4244
 30
25
 70
192
 0
VERTEX
 8
MESH_163_F0
 10
-287.5844
 20
-108.9326
 30
25
 70
192
 0
VERTEX
 8
MESH_163_F0
 10
-288.3567
 20
-107.4876
 30
25
 70
192
 0
VERTEX
 8
MESH_163_F0
 10
-289.22
 20
-106.1004
 30
25
 70
192
 0
VERTEX
 8
MESH_163_F0
 10
-290.1715
 20
-104.7739
 30
25
 70
192
 0
VERTEX
 8
MESH_163_F0
 10
-291.207
 20
-103.5131
 30
25
 70
192
 0
VERTEX
 8
MESH_163_F0
 10
-292.3221
 20
-102.3227
 30
25
 70
192
 0
VERTEX
 8
MESH_163_F0
 10
-293.5125
 20
-101.2076
 30
25
 70
192
 0
VERTEX
 8
MESH_163_F0
 10
-294.7733
 20
-100.172
 30
25
 70
192
 0
VERTEX
 8
MESH_163_F0
 10
-296.0997
 20
-99.2204
 30
25
 70
192
 0
VERTEX
 8
MESH_163_F0
 10
-297.4869
 20
-98.357
 30
25
 70
192
 0
VERTEX
 8
MESH_163_F0
 10
-298.9319
 20
-97.5847
 30
25
 70
192
 0
VERTEX
 8
MESH_163_F0
 10
-300.4238
 20
-96.9084
 30
25
 70
192
 0
VERTEX
 8
MESH_163_F0
 10
-301.9536
 20
-96.3313
 30
25
 70
192
 0
VERTEX
 8
MESH_163_F0
 10
-303.5119
 20
-95.8566
 30
25
 70
192
 0
VERTEX
 8
MESH_163_F0
 10
-305.0969
 20
-95.4858
 30
25
 70
192
 0
VERTEX
 8
MESH_163_F0
 10
-306.7045
 20
-95.2201
 30
25
 70
192
 0
VERTEX
 8
MESH_163_F0
 10
-308.3379
 20
-95.0585
 30
25
 70
192
 0
VERTEX
 8
MESH_163_F0
 10
0
 20
0
 30
0
 70
128
 71
50
 72
2
 73
1
 74
1
 0
VERTEX
 8
MESH_163_F0
 10
0
 20
0
 30
0
 70
128
 71
3
 72
2
 73
50
 74
50
 0
VERTEX
 8
MESH_163_F0
 10
0
 20
0
 30
0
 70
128
 71
3
 72
50
 73
4
 74
4
 0
VERTEX
 8
MESH_163_F0
 10
0
 20
0
 30
0
 70
128
 71
50
 72
49
 73
4
 74
4
 0
VERTEX
 8
MESH_163_F0
 10
0
 20
0
 30
0
 70
128
 71
49
 72
5
 73
4
 74
4
 0
VERTEX
 8
MESH_163_F0
 10
0
 20
0
 30
0
 70
128
 71
48
 72
5
 73
49
 74
49
 0
VERTEX
 8
MESH_163_F0
 10
0
 20
0
 30
0
 70
128
 71
6
 72
5
 73
48
 74
48
 0
VERTEX
 8
MESH_163_F0
 10
0
 20
0
 30
0
 70
128
 71
7
 72
6
 73
47
 74
47
 0
VERTEX
 8
MESH_163_F0
 10
0
 20
0
 30
0
 70
128
 71
8
 72
7
 73
46
 74
46
 0
VERTEX
 8
MESH_163_F0
 10
0
 20
0
 30
0
 70
128
 71
9
 72
8
 73
45
 74
45
 0
VERTEX
 8
MESH_163_F0
 10
0
 20
0
 30
0
 70
128
 71
10
 72
9
 73
44
 74
44
 0
VERTEX
 8
MESH_163_F0
 10
0
 20
0
 30
0
 70
128
 71
11
 72
10
 73
43
 74
43
 0
VERTEX
 8
MESH_163_F0
 10
0
 20
0
 30
0
 70
128
 71
12
 72
11
 73
42
 74
42
 0
VERTEX
 8
MESH_163_F0
 10
0
 20
0
 30
0
 70
128
 71
13
 72
12
 73
41
 74
41
 0
VERTEX
 8
MESH_163_F0
 10
0
 20
0
 30
0
 70
128
 71
14
 72
13
 73
40
 74
40
 0
VERTEX
 8
MESH_163_F0
 10
0
 20
0
 30
0
 70
128
 71
15
 72
14
 73
39
 74
39
 0
VERTEX
 8
MESH_163_F0
 10
0
 20
0
 30
0
 70
128
 71
16
 72
15
 73
38
 74
38
 0
VERTEX
 8
MESH_163_F0
 10
0
 20
0
 30
0
 70
128
 71
17
 72
16
 73
37
 74
37
 0
VERTEX
 8
MESH_163_F0
 10
0
 20
0
 30
0
 70
128
 71
18
 72
17
 73
36
 74
36
 0
VERTEX
 8
MESH_163_F0
 10
0
 20
0
 30
0
 70
128
 71
19
 72
18
 73
35
 74
35
 0
VERTEX
 8
MESH_163_F0
 10
0
 20
0
 30
0
 70
128
 71
20
 72
19
 73
34
 74
34
 0
VERTEX
 8
MESH_163_F0
 10
0
 20
0
 30
0
 70
128
 71
21
 72
20
 73
33
 74
33
 0
VERTEX
 8
MESH_163_F0
 10
0
 20
0
 30
0
 70
128
 71
22
 72
21
 73
32
 74
32
 0
VERTEX
 8
MESH_163_F0
 10
0
 20
0
 30
0
 70
128
 71
23
 72
22
 73
31
 74
31
 0
VERTEX
 8
MESH_163_F0
 10
0
 20
0
 30
0
 70
128
 71
24
 72
23
 73
30
 74
30
 0
VERTEX
 8
MESH_163_F0
 10
0
 20
0
 30
0
 70
128
 71
25
 72
24
 73
29
 74
29
 0
VERTEX
 8
MESH_163_F0
 10
0
 20
0
 30
0
 70
128
 71
26
 72
25
 73
28
 74
28
 0
VERTEX
 8
MESH_163_F0
 10
0
 20
0
 30
0
 70
128
 71
26
 72
28
 73
27
 74
27
 0
VERTEX
 8
MESH_163_F0
 10
0
 20
0
 30
0
 70
128
 71
25
 72
29
 73
28
 74
28
 0
VERTEX
 8
MESH_163_F0
 10
0
 20
0
 30
0
 70
128
 71
24
 72
30
 73
29
 74
29
 0
VERTEX
 8
MESH_163_F0
 10
0
 20
0
 30
0
 70
128
 71
23
 72
31
 73
30
 74
30
 0
VERTEX
 8
MESH_163_F0
 10
0
 20
0
 30
0
 70
128
 71
22
 72
32
 73
31
 74
31
 0
VERTEX
 8
MESH_163_F0
 10
0
 20
0
 30
0
 70
128
 71
21
 72
33
 73
32
 74
32
 0
VERTEX
 8
MESH_163_F0
 10
0
 20
0
 30
0
 70
128
 71
20
 72
34
 73
33
 74
33
 0
VERTEX
 8
MESH_163_F0
 10
0
 20
0
 30
0
 70
128
 71
19
 72
35
 73
34
 74
34
 0
VERTEX
 8
MESH_163_F0
 10
0
 20
0
 30
0
 70
128
 71
18
 72
36
 73
35
 74
35
 0
VERTEX
 8
MESH_163_F0
 10
0
 20
0
 30
0
 70
128
 71
17
 72
37
 73
36
 74
36
 0
VERTEX
 8
MESH_163_F0
 10
0
 20
0
 30
0
 70
128
 71
16
 72
38
 73
37
 74
37
 0
VERTEX
 8
MESH_163_F0
 10
0
 20
0
 30
0
 70
128
 71
15
 72
39
 73
38
 74
38
 0
VERTEX
 8
MESH_163_F0
 10
0
 20
0
 30
0
 70
128
 71
14
 72
40
 73
39
 74
39
 0
VERTEX
 8
MESH_163_F0
 10
0
 20
0
 30
0
 70
128
 71
13
 72
41
 73
40
 74
40
 0
VERTEX
 8
MESH_163_F0
 10
0
 20
0
 30
0
 70
128
 71
12
 72
42
 73
41
 74
41
 0
VERTEX
 8
MESH_163_F0
 10
0
 20
0
 30
0
 70
128
 71
11
 72
43
 73
42
 74
42
 0
VERTEX
 8
MESH_163_F0
 10
0
 20
0
 30
0
 70
128
 71
10
 72
44
 73
43
 74
43
 0
VERTEX
 8
MESH_163_F0
 10
0
 20
0
 30
0
 70
128
 71
9
 72
45
 73
44
 74
44
 0
VERTEX
 8
MESH_163_F0
 10
0
 20
0
 30
0
 70
128
 71
8
 72
46
 73
45
 74
45
 0
VERTEX
 8
MESH_163_F0
 10
0
 20
0
 30
0
 70
128
 71
7
 72
47
 73
46
 74
46
 0
VERTEX
 8
MESH_163_F0
 10
0
 20
0
 30
0
 70
128
 71
6
 72
48
 73
47
 74
47
 0
SEQEND
 0
POLYLINE
 8
MESH_162_F0
 66
1
 10
0.0
 20
0.0
 30
0.0
 70
64
 71
4
 72
2
 0
VERTEX
 8
MESH_162_F0
 10
-285
 20
-120
 30
25
 70
192
 0
VERTEX
 8
MESH_162_F0
 10
-285
 20
-120
 30
0
 70
192
 0
VERTEX
 8
MESH_162_F0
 10
-285
 20
-298
 30
0
 70
192
 0
VERTEX
 8
MESH_162_F0
 10
-285
 20
-298
 30
25
 70
192
 0
VERTEX
 8
MESH_162_F0
 10
0
 20
0
 30
0
 70
128
 71
1
 72
3
 73
2
 74
2
 0
VERTEX
 8
MESH_162_F0
 10
0
 20
0
 30
0
 70
128
 71
4
 72
3
 73
1
 74
1
 0
SEQEND
 0
POLYLINE
 8
MESH_161_F0
 66
1
 10
0.0
 20
0.0
 30
0.0
 70
64
 71
50
 72
48
 0
VERTEX
 8
MESH_161_F0
 10
-285
 20
-298
 30
25
 70
192
 0
VERTEX
 8
MESH_161_F0
 10
-285
 20
-298
 30
0
 70
192
 0
VERTEX
 8
MESH_161_F0
 10
-285.0585
 20
-299.662
 30
0
 70
192
 0
VERTEX
 8
MESH_161_F0
 10
-285.22
 20
-301.2953
 30
0
 70
192
 0
VERTEX
 8
MESH_161_F0
 10
-285.4857
 20
-302.9028
 30
0
 70
192
 0
VERTEX
 8
MESH_161_F0
 10
-285.8565
 20
-304.4876
 30
0
 70
192
 0
VERTEX
 8
MESH_161_F0
 10
-286.3311
 20
-306.0459
 30
0
 70
192
 0
VERTEX
 8
MESH_161_F0
 10
-286.9082
 20
-307.5756
 30
0
 70
192
 0
VERTEX
 8
MESH_161_F0
 10
-287.5844
 20
-309.0674
 30
0
 70
192
 0
VERTEX
 8
MESH_161_F0
 10
-288.3567
 20
-310.5124
 30
0
 70
192
 0
VERTEX
 8
MESH_161_F0
 10
-289.22
 20
-311.8996
 30
0
 70
192
 0
VERTEX
 8
MESH_161_F0
 10
-290.1715
 20
-313.226
 30
0
 70
192
 0
VERTEX
 8
MESH_161_F0
 10
-291.207
 20
-314.4869
 30
0
 70
192
 0
VERTEX
 8
MESH_161_F0
 10
-292.3221
 20
-315.6773
 30
0
 70
192
 0
VERTEX
 8
MESH_161_F0
 10
-293.5125
 20
-316.7924
 30
0
 70
192
 0
VERTEX
 8
MESH_161_F0
 10
-294.7733
 20
-317.8279
 30
0
 70
192
 0
VERTEX
 8
MESH_161_F0
 10
-296.0997
 20
-318.7796
 30
0
 70
192
 0
VERTEX
 8
MESH_161_F0
 10
-297.4869
 20
-319.643
 30
0
 70
192
 0
VERTEX
 8
MESH_161_F0
 10
-298.9319
 20
-320.4153
 30
0
 70
192
 0
VERTEX
 8
MESH_161_F0
 10
-300.4238
 20
-321.0916
 30
0
 70
192
 0
VERTEX
 8
MESH_161_F0
 10
-301.9536
 20
-321.6687
 30
0
 70
192
 0
VERTEX
 8
MESH_161_F0
 10
-303.5119
 20
-322.1434
 30
0
 70
192
 0
VERTEX
 8
MESH_161_F0
 10
-305.0969
 20
-322.5143
 30
0
 70
192
 0
VERTEX
 8
MESH_161_F0
 10
-306.7045
 20
-322.7799
 30
0
 70
192
 0
VERTEX
 8
MESH_161_F0
 10
-308.3379
 20
-322.9415
 30
0
 70
192
 0
VERTEX
 8
MESH_161_F0
 10
-310
 20
-323
 30
0
 70
192
 0
VERTEX
 8
MESH_161_F0
 10
-310
 20
-323
 30
25
 70
192
 0
VERTEX
 8
MESH_161_F0
 10
-308.338
 20
-322.9415
 30
25
 70
192
 0
VERTEX
 8
MESH_161_F0
 10
-306.7047
 20
-322.78
 30
25
 70
192
 0
VERTEX
 8
MESH_161_F0
 10
-305.0972
 20
-322.5143
 30
25
 70
192
 0
VERTEX
 8
MESH_161_F0
 10
-303.5124
 20
-322.1435
 30
25
 70
192
 0
VERTEX
 8
MESH_161_F0
 10
-301.9541
 20
-321.6689
 30
25
 70
192
 0
VERTEX
 8
MESH_161_F0
 10
-300.4244
 20
-321.0918
 30
25
 70
192
 0
VERTEX
 8
MESH_161_F0
 10
-298.9326
 20
-320.4156
 30
25
 70
192
 0
VERTEX
 8
MESH_161_F0
 10
-297.4876
 20
-319.6433
 30
25
 70
192
 0
VERTEX
 8
MESH_161_F0
 10
-296.1004
 20
-318.78
 30
25
 70
192
 0
VERTEX
 8
MESH_161_F0
 10
-294.7739
 20
-317.8285
 30
25
 70
192
 0
VERTEX
 8
MESH_161_F0
 10
-293.5131
 20
-316.793
 30
25
 70
192
 0
VERTEX
 8
MESH_161_F0
 10
-292.3227
 20
-315.6779
 30
25
 70
192
 0
VERTEX
 8
MESH_161_F0
 10
-291.2076
 20
-314.4875
 30
25
 70
192
 0
VERTEX
 8
MESH_161_F0
 10
-290.172
 20
-313.2267
 30
25
 70
192
 0
VERTEX
 8
MESH_161_F0
 10
-289.2204
 20
-311.9003
 30
25
 70
192
 0
VERTEX
 8
MESH_161_F0
 10
-288.357
 20
-310.5131
 30
25
 70
192
 0
VERTEX
 8
MESH_161_F0
 10
-287.5847
 20
-309.0681
 30
25
 70
192
 0
VERTEX
 8
MESH_161_F0
 10
-286.9084
 20
-307.5762
 30
25
 70
192
 0
VERTEX
 8
MESH_161_F0
 10
-286.3313
 20
-306.0464
 30
25
 70
192
 0
VERTEX
 8
MESH_161_F0
 10
-285.8566
 20
-304.4881
 30
25
 70
192
 0
VERTEX
 8
MESH_161_F0
 10
-285.4857
 20
-302.9031
 30
25
 70
192
 0
VERTEX
 8
MESH_161_F0
 10
-285.2201
 20
-301.2955
 30
25
 70
192
 0
VERTEX
 8
MESH_161_F0
 10
-285.0585
 20
-299.6621
 30
25
 70
192
 0
VERTEX
 8
MESH_161_F0
 10
0
 20
0
 30
0
 70
128
 71
50
 72
2
 73
1
 74
1
 0
VERTEX
 8
MESH_161_F0
 10
0
 20
0
 30
0
 70
128
 71
3
 72
2
 73
50
 74
50
 0
VERTEX
 8
MESH_161_F0
 10
0
 20
0
 30
0
 70
128
 71
3
 72
50
 73
4
 74
4
 0
VERTEX
 8
MESH_161_F0
 10
0
 20
0
 30
0
 70
128
 71
50
 72
49
 73
4
 74
4
 0
VERTEX
 8
MESH_161_F0
 10
0
 20
0
 30
0
 70
128
 71
49
 72
5
 73
4
 74
4
 0
VERTEX
 8
MESH_161_F0
 10
0
 20
0
 30
0
 70
128
 71
48
 72
5
 73
49
 74
49
 0
VERTEX
 8
MESH_161_F0
 10
0
 20
0
 30
0
 70
128
 71
6
 72
5
 73
48
 74
48
 0
VERTEX
 8
MESH_161_F0
 10
0
 20
0
 30
0
 70
128
 71
7
 72
6
 73
47
 74
47
 0
VERTEX
 8
MESH_161_F0
 10
0
 20
0
 30
0
 70
128
 71
8
 72
7
 73
46
 74
46
 0
VERTEX
 8
MESH_161_F0
 10
0
 20
0
 30
0
 70
128
 71
9
 72
8
 73
45
 74
45
 0
VERTEX
 8
MESH_161_F0
 10
0
 20
0
 30
0
 70
128
 71
10
 72
9
 73
44
 74
44
 0
VERTEX
 8
MESH_161_F0
 10
0
 20
0
 30
0
 70
128
 71
11
 72
10
 73
43
 74
43
 0
VERTEX
 8
MESH_161_F0
 10
0
 20
0
 30
0
 70
128
 71
12
 72
11
 73
42
 74
42
 0
VERTEX
 8
MESH_161_F0
 10
0
 20
0
 30
0
 70
128
 71
13
 72
12
 73
41
 74
41
 0
VERTEX
 8
MESH_161_F0
 10
0
 20
0
 30
0
 70
128
 71
14
 72
13
 73
40
 74
40
 0
VERTEX
 8
MESH_161_F0
 10
0
 20
0
 30
0
 70
128
 71
15
 72
14
 73
39
 74
39
 0
VERTEX
 8
MESH_161_F0
 10
0
 20
0
 30
0
 70
128
 71
16
 72
15
 73
38
 74
38
 0
VERTEX
 8
MESH_161_F0
 10
0
 20
0
 30
0
 70
128
 71
17
 72
16
 73
37
 74
37
 0
VERTEX
 8
MESH_161_F0
 10
0
 20
0
 30
0
 70
128
 71
18
 72
17
 73
36
 74
36
 0
VERTEX
 8
MESH_161_F0
 10
0
 20
0
 30
0
 70
128
 71
19
 72
18
 73
35
 74
35
 0
VERTEX
 8
MESH_161_F0
 10
0
 20
0
 30
0
 70
128
 71
20
 72
19
 73
34
 74
34
 0
VERTEX
 8
MESH_161_F0
 10
0
 20
0
 30
0
 70
128
 71
21
 72
20
 73
33
 74
33
 0
VERTEX
 8
MESH_161_F0
 10
0
 20
0
 30
0
 70
128
 71
22
 72
21
 73
32
 74
32
 0
VERTEX
 8
MESH_161_F0
 10
0
 20
0
 30
0
 70
128
 71
23
 72
22
 73
31
 74
31
 0
VERTEX
 8
MESH_161_F0
 10
0
 20
0
 30
0
 70
128
 71
24
 72
23
 73
30
 74
30
 0
VERTEX
 8
MESH_161_F0
 10
0
 20
0
 30
0
 70
128
 71
25
 72
24
 73
29
 74
29
 0
VERTEX
 8
MESH_161_F0
 10
0
 20
0
 30
0
 70
128
 71
26
 72
25
 73
28
 74
28
 0
VERTEX
 8
MESH_161_F0
 10
0
 20
0
 30
0
 70
128
 71
26
 72
28
 73
27
 74
27
 0
VERTEX
 8
MESH_161_F0
 10
0
 20
0
 30
0
 70
128
 71
25
 72
29
 73
28
 74
28
 0
VERTEX
 8
MESH_161_F0
 10
0
 20
0
 30
0
 70
128
 71
24
 72
30
 73
29
 74
29
 0
VERTEX
 8
MESH_161_F0
 10
0
 20
0
 30
0
 70
128
 71
23
 72
31
 73
30
 74
30
 0
VERTEX
 8
MESH_161_F0
 10
0
 20
0
 30
0
 70
128
 71
22
 72
32
 73
31
 74
31
 0
VERTEX
 8
MESH_161_F0
 10
0
 20
0
 30
0
 70
128
 71
21
 72
33
 73
32
 74
32
 0
VERTEX
 8
MESH_161_F0
 10
0
 20
0
 30
0
 70
128
 71
20
 72
34
 73
33
 74
33
 0
VERTEX
 8
MESH_161_F0
 10
0
 20
0
 30
0
 70
128
 71
19
 72
35
 73
34
 74
34
 0
VERTEX
 8
MESH_161_F0
 10
0
 20
0
 30
0
 70
128
 71
18
 72
36
 73
35
 74
35
 0
VERTEX
 8
MESH_161_F0
 10
0
 20
0
 30
0
 70
128
 71
17
 72
37
 73
36
 74
36
 0
VERTEX
 8
MESH_161_F0
 10
0
 20
0
 30
0
 70
128
 71
16
 72
38
 73
37
 74
37
 0
VERTEX
 8
MESH_161_F0
 10
0
 20
0
 30
0
 70
128
 71
15
 72
39
 73
38
 74
38
 0
VERTEX
 8
MESH_161_F0
 10
0
 20
0
 30
0
 70
128
 71
14
 72
40
 73
39
 74
39
 0
VERTEX
 8
MESH_161_F0
 10
0
 20
0
 30
0
 70
128
 71
13
 72
41
 73
40
 74
40
 0
VERTEX
 8
MESH_161_F0
 10
0
 20
0
 30
0
 70
128
 71
12
 72
42
 73
41
 74
41
 0
VERTEX
 8
MESH_161_F0
 10
0
 20
0
 30
0
 70
128
 71
11
 72
43
 73
42
 74
42
 0
VERTEX
 8
MESH_161_F0
 10
0
 20
0
 30
0
 70
128
 71
10
 72
44
 73
43
 74
43
 0
VERTEX
 8
MESH_161_F0
 10
0
 20
0
 30
0
 70
128
 71
9
 72
45
 73
44
 74
44
 0
VERTEX
 8
MESH_161_F0
 10
0
 20
0
 30
0
 70
128
 71
8
 72
46
 73
45
 74
45
 0
VERTEX
 8
MESH_161_F0
 10
0
 20
0
 30
0
 70
128
 71
7
 72
47
 73
46
 74
46
 0
VERTEX
 8
MESH_161_F0
 10
0
 20
0
 30
0
 70
128
 71
6
 72
48
 73
47
 74
47
 0
SEQEND
 0
POLYLINE
 8
MESH_160_F0
 66
1
 10
0.0
 20
0.0
 30
0.0
 70
64
 71
4
 72
2
 0
VERTEX
 8
MESH_160_F0
 10
-310
 20
-323
 30
25
 70
192
 0
VERTEX
 8
MESH_160_F0
 10
-310
 20
-323
 30
0
 70
192
 0
VERTEX
 8
MESH_160_F0
 10
-380
 20
-323
 30
0
 70
192
 0
VERTEX
 8
MESH_160_F0
 10
-380
 20
-323
 30
25
 70
192
 0
VERTEX
 8
MESH_160_F0
 10
0
 20
0
 30
0
 70
128
 71
1
 72
3
 73
2
 74
2
 0
VERTEX
 8
MESH_160_F0
 10
0
 20
0
 30
0
 70
128
 71
4
 72
3
 73
1
 74
1
 0
SEQEND
 0
POLYLINE
 8
MESH_159_F0
 66
1
 10
0.0
 20
0.0
 30
0.0
 70
64
 71
252
 72
254
 0
VERTEX
 8
MESH_159_F0
 10
-310
 20
-323
 30
25
 70
192
 0
VERTEX
 8
MESH_159_F0
 10
-380
 20
-323
 30
25
 70
192
 0
VERTEX
 8
MESH_159_F0
 10
-381.6621
 20
-322.9415
 30
25
 70
192
 0
VERTEX
 8
MESH_159_F0
 10
-383.2955
 20
-322.7799
 30
25
 70
192
 0
VERTEX
 8
MESH_159_F0
 10
-384.9031
 20
-322.5143
 30
25
 70
192
 0
VERTEX
 8
MESH_159_F0
 10
-386.4881
 20
-322.1434
 30
25
 70
192
 0
VERTEX
 8
MESH_159_F0
 10
-388.0464
 20
-321.6687
 30
25
 70
192
 0
VERTEX
 8
MESH_159_F0
 10
-389.5761
 20
-321.0916
 30
25
 70
192
 0
VERTEX
 8
MESH_159_F0
 10
-391.0681
 20
-320.4153
 30
25
 70
192
 0
VERTEX
 8
MESH_159_F0
 10
-392.5131
 20
-319.643
 30
25
 70
192
 0
VERTEX
 8
MESH_159_F0
 10
-393.9003
 20
-318.7796
 30
25
 70
192
 0
VERTEX
 8
MESH_159_F0
 10
-395.2267
 20
-317.8279
 30
25
 70
192
 0
VERTEX
 8
MESH_159_F0
 10
-396.4875
 20
-316.7924
 30
25
 70
192
 0
VERTEX
 8
MESH_159_F0
 10
-397.6779
 20
-315.6773
 30
25
 70
192
 0
VERTEX
 8
MESH_159_F0
 10
-398.793
 20
-314.4869
 30
25
 70
192
 0
VERTEX
 8
MESH_159_F0
 10
-399.8285
 20
-313.226
 30
25
 70
192
 0
VERTEX
 8
MESH_159_F0
 10
-400.78
 20
-311.8996
 30
25
 70
192
 0
VERTEX
 8
MESH_159_F0
 10
-401.6433
 20
-310.5124
 30
25
 70
192
 0
VERTEX
 8
MESH_159_F0
 10
-402.4156
 20
-309.0674
 30
25
 70
192
 0
VERTEX
 8
MESH_159_F0
 10
-403.0918
 20
-307.5756
 30
25
 70
192
 0
VERTEX
 8
MESH_159_F0
 10
-403.6688
 20
-306.0459
 30
25
 70
192
 0
VERTEX
 8
MESH_159_F0
 10
-404.1435
 20
-304.4876
 30
25
 70
192
 0
VERTEX
 8
MESH_159_F0
 10
-404.5143
 20
-302.9028
 30
25
 70
192
 0
VERTEX
 8
MESH_159_F0
 10
-404.78
 20
-301.2953
 30
25
 70
192
 0
VERTEX
 8
MESH_159_F0
 10
-404.9415
 20
-299.662
 30
25
 70
192
 0
VERTEX
 8
MESH_159_F0
 10
-405
 20
-298
 30
25
 70
192
 0
VERTEX
 8
MESH_159_F0
 10
-405
 20
-120
 30
25
 70
192
 0
VERTEX
 8
MESH_159_F0
 10
-404.9415
 20
-118.3379
 30
25
 70
192
 0
VERTEX
 8
MESH_159_F0
 10
-404.7799
 20
-116.7045
 30
25
 70
192
 0
VERTEX
 8
MESH_159_F0
 10
-404.5142
 20
-115.0969
 30
25
 70
192
 0
VERTEX
 8
MESH_159_F0
 10
-404.1434
 20
-113.5119
 30
25
 70
192
 0
VERTEX
 8
MESH_159_F0
 10
-403.6687
 20
-111.9536
 30
25
 70
192
 0
VERTEX
 8
MESH_159_F0
 10
-403.0916
 20
-110.4238
 30
25
 70
192
 0
VERTEX
 8
MESH_159_F0
 10
-402.4153
 20
-108.9319
 30
25
 70
192
 0
VERTEX
 8
MESH_159_F0
 10
-401.643
 20
-107.4869
 30
25
 70
192
 0
VERTEX
 8
MESH_159_F0
 10
-400.7796
 20
-106.0997
 30
25
 70
192
 0
VERTEX
 8
MESH_159_F0
 10
-399.828
 20
-104.7733
 30
25
 70
192
 0
VERTEX
 8
MESH_159_F0
 10
-398.7924
 20
-103.5125
 30
25
 70
192
 0
VERTEX
 8
MESH_159_F0
 10
-397.6773
 20
-102.3221
 30
25
 70
192
 0
VERTEX
 8
MESH_159_F0
 10
-396.4869
 20
-101.207
 30
25
 70
192
 0
VERTEX
 8
MESH_159_F0
 10
-395.226
 20
-100.1715
 30
25
 70
192
 0
VERTEX
 8
MESH_159_F0
 10
-393.8996
 20
-99.22
 30
25
 70
192
 0
VERTEX
 8
MESH_159_F0
 10
-392.5124
 20
-98.3566
 30
25
 70
192
 0
VERTEX
 8
MESH_159_F0
 10
-391.0674
 20
-97.5844
 30
25
 70
192
 0
VERTEX
 8
MESH_159_F0
 10
-389.5756
 20
-96.9082
 30
25
 70
192
 0
VERTEX
 8
MESH_159_F0
 10
-388.0459
 20
-96.3311
 30
25
 70
192
 0
VERTEX
 8
MESH_159_F0
 10
-386.4876
 20
-95.8565
 30
25
 70
192
 0
VERTEX
 8
MESH_159_F0
 10
-384.9028
 20
-95.4857
 30
25
 70
192
 0
VERTEX
 8
MESH_159_F0
 10
-383.2953
 20
-95.22
 30
25
 70
192
 0
VERTEX
 8
MESH_159_F0
 10
-381.662
 20
-95.0585
 30
25
 70
192
 0
VERTEX
 8
MESH_159_F0
 10
-380
 20
-95
 30
25
 70
192
 0
VERTEX
 8
MESH_159_F0
 10
-310
 20
-95
 30
25
 70
192
 0
VERTEX
 8
MESH_159_F0
 10
-308.3379
 20
-95.0585
 30
25
 70
192
 0
VERTEX
 8
MESH_159_F0
 10
-306.7045
 20
-95.2201
 30
25
 70
192
 0
VERTEX
 8
MESH_159_F0
 10
-305.0969
 20
-95.4858
 30
25
 70
192
 0
VERTEX
 8
MESH_159_F0
 10
-303.5119
 20
-95.8566
 30
25
 70
192
 0
VERTEX
 8
MESH_159_F0
 10
-301.9536
 20
-96.3313
 30
25
 70
192
 0
VERTEX
 8
MESH_159_F0
 10
-300.4238
 20
-96.9084
 30
25
 70
192
 0
VERTEX
 8
MESH_159_F0
 10
-298.9319
 20
-97.5847
 30
25
 70
192
 0
VERTEX
 8
MESH_159_F0
 10
-297.4869
 20
-98.357
 30
25
 70
192
 0
VERTEX
 8
MESH_159_F0
 10
-296.0997
 20
-99.2204
 30
25
 70
192
 0
VERTEX
 8
MESH_159_F0
 10
-294.7733
 20
-100.172
 30
25
 70
192
 0
VERTEX
 8
MESH_159_F0
 10
-293.5125
 20
-101.2076
 30
25
 70
192
 0
VERTEX
 8
MESH_159_F0
 10
-292.3221
 20
-102.3227
 30
25
 70
192
 0
VERTEX
 8
MESH_159_F0
 10
-291.207
 20
-103.5131
 30
25
 70
192
 0
VERTEX
 8
MESH_159_F0
 10
-290.1715
 20
-104.7739
 30
25
 70
192
 0
VERTEX
 8
MESH_159_F0
 10
-289.22
 20
-106.1004
 30
25
 70
192
 0
VERTEX
 8
MESH_159_F0
 10
-288.3567
 20
-107.4876
 30
25
 70
192
 0
VERTEX
 8
MESH_159_F0
 10
-287.5844
 20
-108.9326
 30
25
 70
192
 0
VERTEX
 8
MESH_159_F0
 10
-286.9082
 20
-110.4244
 30
25
 70
192
 0
VERTEX
 8
MESH_159_F0
 10
-286.3311
 20
-111.9541
 30
25
 70
192
 0
VERTEX
 8
MESH_159_F0
 10
-285.8565
 20
-113.5124
 30
25
 70
192
 0
VERTEX
 8
MESH_159_F0
 10
-285.4857
 20
-115.0972
 30
25
 70
192
 0
VERTEX
 8
MESH_159_F0
 10
-285.22
 20
-116.7047
 30
25
 70
192
 0
VERTEX
 8
MESH_159_F0
 10
-285.0585
 20
-118.338
 30
25
 70
192
 0
VERTEX
 8
MESH_159_F0
 10
-285
 20
-120
 30
25
 70
192
 0
VERTEX
 8
MESH_159_F0
 10
-285
 20
-298
 30
25
 70
192
 0
VERTEX
 8
MESH_159_F0
 10
-285.0585
 20
-299.6621
 30
25
 70
192
 0
VERTEX
 8
MESH_159_F0
 10
-285.2201
 20
-301.2955
 30
25
 70
192
 0
VERTEX
 8
MESH_159_F0
 10
-285.4857
 20
-302.9031
 30
25
 70
192
 0
VERTEX
 8
MESH_159_F0
 10
-285.8566
 20
-304.4881
 30
25
 70
192
 0
VERTEX
 8
MESH_159_F0
 10
-286.3313
 20
-306.0464
 30
25
 70
192
 0
VERTEX
 8
MESH_159_F0
 10
-286.9084
 20
-307.5762
 30
25
 70
192
 0
VERTEX
 8
MESH_159_F0
 10
-287.5847
 20
-309.0681
 30
25
 70
192
 0
VERTEX
 8
MESH_159_F0
 10
-288.357
 20
-310.5131
 30
25
 70
192
 0
VERTEX
 8
MESH_159_F0
 10
-289.2204
 20
-311.9003
 30
25
 70
192
 0
VERTEX
 8
MESH_159_F0
 10
-290.172
 20
-313.2267
 30
25
 70
192
 0
VERTEX
 8
MESH_159_F0
 10
-291.2076
 20
-314.4875
 30
25
 70
192
 0
VERTEX
 8
MESH_159_F0
 10
-292.3227
 20
-315.6779
 30
25
 70
192
 0
VERTEX
 8
MESH_159_F0
 10
-293.5131
 20
-316.793
 30
25
 70
192
 0
VERTEX
 8
MESH_159_F0
 10
-294.7739
 20
-317.8285
 30
25
 70
192
 0
VERTEX
 8
MESH_159_F0
 10
-296.1004
 20
-318.78
 30
25
 70
192
 0
VERTEX
 8
MESH_159_F0
 10
-297.4876
 20
-319.6433
 30
25
 70
192
 0
VERTEX
 8
MESH_159_F0
 10
-298.9326
 20
-320.4156
 30
25
 70
192
 0
VERTEX
 8
MESH_159_F0
 10
-300.4244
 20
-321.0918
 30
25
 70
192
 0
VERTEX
 8
MESH_159_F0
 10
-301.9541
 20
-321.6689
 30
25
 70
192
 0
VERTEX
 8
MESH_159_F0
 10
-303.5124
 20
-322.1435
 30
25
 70
192
 0
VERTEX
 8
MESH_159_F0
 10
-305.0972
 20
-322.5143
 30
25
 70
192
 0
VERTEX
 8
MESH_159_F0
 10
-306.7047
 20
-322.78
 30
25
 70
192
 0
VERTEX
 8
MESH_159_F0
 10
-308.338
 20
-322.9415
 30
25
 70
192
 0
VERTEX
 8
MESH_159_F0
 10
285
 20
-120
 30
25
 70
192
 0
VERTEX
 8
MESH_159_F0
 10
285.0585
 20
-118.3379
 30
25
 70
192
 0
VERTEX
 8
MESH_159_F0
 10
285.2201
 20
-116.7045
 30
25
 70
192
 0
VERTEX
 8
MESH_159_F0
 10
285.4857
 20
-115.0969
 30
25
 70
192
 0
VERTEX
 8
MESH_159_F0
 10
285.8566
 20
-113.5119
 30
25
 70
192
 0
VERTEX
 8
MESH_159_F0
 10
286.3313
 20
-111.9536
 30
25
 70
192
 0
VERTEX
 8
MESH_159_F0
 10
286.9084
 20
-110.4238
 30
25
 70
192
 0
VERTEX
 8
MESH_159_F0
 10
287.5847
 20
-108.9319
 30
25
 70
192
 0
VERTEX
 8
MESH_159_F0
 10
288.357
 20
-107.4869
 30
25
 70
192
 0
VERTEX
 8
MESH_159_F0
 10
289.2204
 20
-106.0997
 30
25
 70
192
 0
VERTEX
 8
MESH_159_F0
 10
290.172
 20
-104.7733
 30
25
 70
192
 0
VERTEX
 8
MESH_159_F0
 10
291.2076
 20
-103.5125
 30
25
 70
192
 0
VERTEX
 8
MESH_159_F0
 10
292.3227
 20
-102.3221
 30
25
 70
192
 0
VERTEX
 8
MESH_159_F0
 10
293.5131
 20
-101.207
 30
25
 70
192
 0
VERTEX
 8
MESH_159_F0
 10
294.7739
 20
-100.1715
 30
25
 70
192
 0
VERTEX
 8
MESH_159_F0
 10
296.1004
 20
-99.22
 30
25
 70
192
 0
VERTEX
 8
MESH_159_F0
 10
297.4876
 20
-98.3566
 30
25
 70
192
 0
VERTEX
 8
MESH_159_F0
 10
298.9326
 20
-97.5844
 30
25
 70
192
 0
VERTEX
 8
MESH_159_F0
 10
300.4244
 20
-96.9082
 30
25
 70
192
 0
VERTEX
 8
MESH_159_F0
 10
301.9541
 20
-96.3311
 30
25
 70
192
 0
VERTEX
 8
MESH_159_F0
 10
303.5124
 20
-95.8565
 30
25
 70
192
 0
VERTEX
 8
MESH_159_F0
 10
305.0972
 20
-95.4857
 30
25
 70
192
 0
VERTEX
 8
MESH_159_F0
 10
306.7047
 20
-95.22
 30
25
 70
192
 0
VERTEX
 8
MESH_159_F0
 10
308.338
 20
-95.0585
 30
25
 70
192
 0
VERTEX
 8
MESH_159_F0
 10
310
 20
-95
 30
25
 70
192
 0
VERTEX
 8
MESH_159_F0
 10
380
 20
-95
 30
25
 70
192
 0
VERTEX
 8
MESH_159_F0
 10
381.6621
 20
-95.0585
 30
25
 70
192
 0
VERTEX
 8
MESH_159_F0
 10
383.2955
 20
-95.2201
 30
25
 70
192
 0
VERTEX
 8
MESH_159_F0
 10
384.9031
 20
-95.4858
 30
25
 70
192
 0
VERTEX
 8
MESH_159_F0
 10
386.4881
 20
-95.8566
 30
25
 70
192
 0
VERTEX
 8
MESH_159_F0
 10
388.0464
 20
-96.3313
 30
25
 70
192
 0
VERTEX
 8
MESH_159_F0
 10
389.5761
 20
-96.9084
 30
25
 70
192
 0
VERTEX
 8
MESH_159_F0
 10
391.0681
 20
-97.5847
 30
25
 70
192
 0
VERTEX
 8
MESH_159_F0
 10
392.5131
 20
-98.357
 30
25
 70
192
 0
VERTEX
 8
MESH_159_F0
 10
393.9003
 20
-99.2204
 30
25
 70
192
 0
VERTEX
 8
MESH_159_F0
 10
395.2267
 20
-100.172
 30
25
 70
192
 0
VERTEX
 8
MESH_159_F0
 10
396.4875
 20
-101.2076
 30
25
 70
192
 0
VERTEX
 8
MESH_159_F0
 10
397.6779
 20
-102.3227
 30
25
 70
192
 0
VERTEX
 8
MESH_159_F0
 10
398.793
 20
-103.5131
 30
25
 70
192
 0
VERTEX
 8
MESH_159_F0
 10
399.8285
 20
-104.7739
 30
25
 70
192
 0
VERTEX
 8
MESH_159_F0
 10
400.78
 20
-106.1004
 30
25
 70
192
 0
VERTEX
 8
MESH_159_F0
 10
401.6433
 20
-107.4876
 30
25
 70
192
 0
VERTEX
 8
MESH_159_F0
 10
402.4156
 20
-108.9326
 30
25
 70
192
 0
VERTEX
 8
MESH_159_F0
 10
403.0918
 20
-110.4244
 30
25
 70
192
 0
VERTEX
 8
MESH_159_F0
 10
403.6688
 20
-111.9541
 30
25
 70
192
 0
VERTEX
 8
MESH_159_F0
 10
404.1435
 20
-113.5124
 30
25
 70
192
 0
VERTEX
 8
MESH_159_F0
 10
404.5143
 20
-115.0972
 30
25
 70
192
 0
VERTEX
 8
MESH_159_F0
 10
404.78
 20
-116.7047
 30
25
 70
192
 0
VERTEX
 8
MESH_159_F0
 10
404.9415
 20
-118.338
 30
25
 70
192
 0
VERTEX
 8
MESH_159_F0
 10
405
 20
-120
 30
25
 70
192
 0
VERTEX
 8
MESH_159_F0
 10
405
 20
-298
 30
25
 70
192
 0
VERTEX
 8
MESH_159_F0
 10
404.9415
 20
-299.6621
 30
25
 70
192
 0
VERTEX
 8
MESH_159_F0
 10
404.7799
 20
-301.2955
 30
25
 70
192
 0
VERTEX
 8
MESH_159_F0
 10
404.5142
 20
-302.9031
 30
25
 70
192
 0
VERTEX
 8
MESH_159_F0
 10
404.1434
 20
-304.4881
 30
25
 70
192
 0
VERTEX
 8
MESH_159_F0
 10
403.6687
 20
-306.0464
 30
25
 70
192
 0
VERTEX
 8
MESH_159_F0
 10
403.0916
 20
-307.5762
 30
25
 70
192
 0
VERTEX
 8
MESH_159_F0
 10
402.4153
 20
-309.0681
 30
25
 70
192
 0
VERTEX
 8
MESH_159_F0
 10
401.643
 20
-310.5131
 30
25
 70
192
 0
VERTEX
 8
MESH_159_F0
 10
400.7796
 20
-311.9003
 30
25
 70
192
 0
VERTEX
 8
MESH_159_F0
 10
399.828
 20
-313.2267
 30
25
 70
192
 0
VERTEX
 8
MESH_159_F0
 10
398.7924
 20
-314.4875
 30
25
 70
192
 0
VERTEX
 8
MESH_159_F0
 10
397.6773
 20
-315.6779
 30
25
 70
192
 0
VERTEX
 8
MESH_159_F0
 10
396.4869
 20
-316.793
 30
25
 70
192
 0
VERTEX
 8
MESH_159_F0
 10
395.226
 20
-317.8285
 30
25
 70
192
 0
VERTEX
 8
MESH_159_F0
 10
393.8996
 20
-318.78
 30
25
 70
192
 0
VERTEX
 8
MESH_159_F0
 10
392.5124
 20
-319.6433
 30
25
 70
192
 0
VERTEX
 8
MESH_159_F0
 10
391.0674
 20
-320.4156
 30
25
 70
192
 0
VERTEX
 8
MESH_159_F0
 10
389.5756
 20
-321.0918
 30
25
 70
192
 0
VERTEX
 8
MESH_159_F0
 10
388.0459
 20
-321.6689
 30
25
 70
192
 0
VERTEX
 8
MESH_159_F0
 10
386.4876
 20
-322.1435
 30
25
 70
192
 0
VERTEX
 8
MESH_159_F0
 10
384.9028
 20
-322.5143
 30
25
 70
192
 0
VERTEX
 8
MESH_159_F0
 10
383.2953
 20
-322.78
 30
25
 70
192
 0
VERTEX
 8
MESH_159_F0
 10
381.662
 20
-322.9415
 30
25
 70
192
 0
VERTEX
 8
MESH_159_F0
 10
380
 20
-323
 30
25
 70
192
 0
VERTEX
 8
MESH_159_F0
 10
310
 20
-323
 30
25
 70
192
 0
VERTEX
 8
MESH_159_F0
 10
308.3379
 20
-322.9415
 30
25
 70
192
 0
VERTEX
 8
MESH_159_F0
 10
306.7045
 20
-322.7799
 30
25
 70
192
 0
VERTEX
 8
MESH_159_F0
 10
305.0969
 20
-322.5143
 30
25
 70
192
 0
VERTEX
 8
MESH_159_F0
 10
303.5119
 20
-322.1434
 30
25
 70
192
 0
VERTEX
 8
MESH_159_F0
 10
301.9536
 20
-321.6687
 30
25
 70
192
 0
VERTEX
 8
MESH_159_F0
 10
300.4238
 20
-321.0916
 30
25
 70
192
 0
VERTEX
 8
MESH_159_F0
 10
298.9319
 20
-320.4153
 30
25
 70
192
 0
VERTEX
 8
MESH_159_F0
 10
297.4869
 20
-319.643
 30
25
 70
192
 0
VERTEX
 8
MESH_159_F0
 10
296.0997
 20
-318.7796
 30
25
 70
192
 0
VERTEX
 8
MESH_159_F0
 10
294.7733
 20
-317.8279
 30
25
 70
192
 0
VERTEX
 8
MESH_159_F0
 10
293.5125
 20
-316.7924
 30
25
 70
192
 0
VERTEX
 8
MESH_159_F0
 10
292.3221
 20
-315.6773
 30
25
 70
192
 0
VERTEX
 8
MESH_159_F0
 10
291.207
 20
-314.4869
 30
25
 70
192
 0
VERTEX
 8
MESH_159_F0
 10
290.1715
 20
-313.226
 30
25
 70
192
 0
VERTEX
 8
MESH_159_F0
 10
289.22
 20
-311.8996
 30
25
 70
192
 0
VERTEX
 8
MESH_159_F0
 10
288.3567
 20
-310.5124
 30
25
 70
192
 0
VERTEX
 8
MESH_159_F0
 10
287.5844
 20
-309.0674
 30
25
 70
192
 0
VERTEX
 8
MESH_159_F0
 10
286.9082
 20
-307.5756
 30
25
 70
192
 0
VERTEX
 8
MESH_159_F0
 10
286.3311
 20
-306.0459
 30
25
 70
192
 0
VERTEX
 8
MESH_159_F0
 10
285.8565
 20
-304.4876
 30
25
 70
192
 0
VERTEX
 8
MESH_159_F0
 10
285.4857
 20
-302.9028
 30
25
 70
192
 0
VERTEX
 8
MESH_159_F0
 10
285.22
 20
-301.2953
 30
25
 70
192
 0
VERTEX
 8
MESH_159_F0
 10
285.0585
 20
-299.662
 30
25
 70
192
 0
VERTEX
 8
MESH_159_F0
 10
285
 20
-298
 30
25
 70
192
 0
VERTEX
 8
MESH_159_F0
 10
-700
 20
0
 30
25
 70
192
 0
VERTEX
 8
MESH_159_F0
 10
-700
 20
-417
 30
25
 70
192
 0
VERTEX
 8
MESH_159_F0
 10
-699.9462
 20
-418.5291
 30
25
 70
192
 0
VERTEX
 8
MESH_159_F0
 10
-699.7975
 20
-420.0319
 30
25
 70
192
 0
VERTEX
 8
MESH_159_F0
 10
-699.5531
 20
-421.5109
 30
25
 70
192
 0
VERTEX
 8
MESH_159_F0
 10
-699.2119
 20
-422.9691
 30
25
 70
192
 0
VERTEX
 8
MESH_159_F0
 10
-698.7751
 20
-424.4027
 30
25
 70
192
 0
VERTEX
 8
MESH_159_F0
 10
-698.2443
 20
-425.8101
 30
25
 70
192
 0
VERTEX
 8
MESH_159_F0
 10
-697.622
 20
-427.1826
 30
25
 70
192
 0
VERTEX
 8
MESH_159_F0
 10
-696.9115
 20
-428.512
 30
25
 70
192
 0
VERTEX
 8
MESH_159_F0
 10
-696.1172
 20
-429.7882
 30
25
 70
192
 0
VERTEX
 8
MESH_159_F0
 10
-695.2417
 20
-431.0086
 30
25
 70
192
 0
VERTEX
 8
MESH_159_F0
 10
-694.289
 20
-432.1685
 30
25
 70
192
 0
VERTEX
 8
MESH_159_F0
 10
-693.2631
 20
-433.2637
 30
25
 70
192
 0
VERTEX
 8
MESH_159_F0
 10
-692.1679
 20
-434.2896
 30
25
 70
192
 0
VERTEX
 8
MESH_159_F0
 10
-691.0079
 20
-435.2422
 30
25
 70
192
 0
VERTEX
 8
MESH_159_F0
 10
-689.7877
 20
-436.1176
 30
25
 70
192
 0
VERTEX
 8
MESH_159_F0
 10
-688.5114
 20
-436.9119
 30
25
 70
192
 0
VERTEX
 8
MESH_159_F0
 10
-687.182
 20
-437.6224
 30
25
 70
192
 0
VERTEX
 8
MESH_159_F0
 10
-685.8095
 20
-438.2445
 30
25
 70
192
 0
VERTEX
 8
MESH_159_F0
 10
-684.4022
 20
-438.7753
 30
25
 70
192
 0
VERTEX
 8
MESH_159_F0
 10
-682.9686
 20
-439.212
 30
25
 70
192
 0
VERTEX
 8
MESH_159_F0
 10
-681.5105
 20
-439.5532
 30
25
 70
192
 0
VERTEX
 8
MESH_159_F0
 10
-680.0316
 20
-439.7976
 30
25
 70
192
 0
VERTEX
 8
MESH_159_F0
 10
-678.5291
 20
-439.9462
 30
25
 70
192
 0
VERTEX
 8
MESH_159_F0
 10
-677
 20
-440
 30
25
 70
192
 0
VERTEX
 8
MESH_159_F0
 10
677
 20
-440
 30
25
 70
192
 0
VERTEX
 8
MESH_159_F0
 10
678.5292
 20
-439.9462
 30
25
 70
192
 0
VERTEX
 8
MESH_159_F0
 10
680.0319
 20
-439.7975
 30
25
 70
192
 0
VERTEX
 8
MESH_159_F0
 10
681.5109
 20
-439.5531
 30
25
 70
192
 0
VERTEX
 8
MESH_159_F0
 10
682.9691
 20
-439.2119
 30
25
 70
192
 0
VERTEX
 8
MESH_159_F0
 10
684.4027
 20
-438.7751
 30
25
 70
192
 0
VERTEX
 8
MESH_159_F0
 10
685.8101
 20
-438.2443
 30
25
 70
192
 0
VERTEX
 8
MESH_159_F0
 10
687.1826
 20
-437.6221
 30
25
 70
192
 0
VERTEX
 8
MESH_159_F0
 10
688.512
 20
-436.9115
 30
25
 70
192
 0
VERTEX
 8
MESH_159_F0
 10
689.7883
 20
-436.1172
 30
25
 70
192
 0
VERTEX
 8
MESH_159_F0
 10
691.0086
 20
-435.2417
 30
25
 70
192
 0
VERTEX
 8
MESH_159_F0
 10
692.1685
 20
-434.289
 30
25
 70
192
 0
VERTEX
 8
MESH_159_F0
 10
693.2636
 20
-433.2631
 30
25
 70
192
 0
VERTEX
 8
MESH_159_F0
 10
694.2896
 20
-432.1679
 30
25
 70
192
 0
VERTEX
 8
MESH_159_F0
 10
695.2422
 20
-431.0079
 30
25
 70
192
 0
VERTEX
 8
MESH_159_F0
 10
696.1176
 20
-429.7876
 30
25
 70
192
 0
VERTEX
 8
MESH_159_F0
 10
696.9119
 20
-428.5114
 30
25
 70
192
 0
VERTEX
 8
MESH_159_F0
 10
697.6223
 20
-427.1821
 30
25
 70
192
 0
VERTEX
 8
MESH_159_F0
 10
698.2445
 20
-425.8095
 30
25
 70
192
 0
VERTEX
 8
MESH_159_F0
 10
698.7753
 20
-424.4023
 30
25
 70
192
 0
VERTEX
 8
MESH_159_F0
 10
699.212
 20
-422.9687
 30
25
 70
192
 0
VERTEX
 8
MESH_159_F0
 10
699.5532
 20
-421.5106
 30
25
 70
192
 0
VERTEX
 8
MESH_159_F0
 10
699.7975
 20
-420.0316
 30
25
 70
192
 0
VERTEX
 8
MESH_159_F0
 10
699.9462
 20
-418.5291
 30
25
 70
192
 0
VERTEX
 8
MESH_159_F0
 10
700
 20
-417
 30
25
 70
192
 0
VERTEX
 8
MESH_159_F0
 10
700
 20
0
 30
25
 70
192
 0
VERTEX
 8
MESH_159_F0
 10
0
 20
0
 30
0
 70
128
 71
226
 72
1
 73
100
 74
100
 0
VERTEX
 8
MESH_159_F0
 10
0
 20
0
 30
0
 70
128
 71
227
 72
226
 73
99
 74
99
 0
VERTEX
 8
MESH_159_F0
 10
0
 20
0
 30
0
 70
128
 71
177
 72
227
 73
178
 74
178
 0
VERTEX
 8
MESH_159_F0
 10
0
 20
0
 30
0
 70
128
 71
227
 72
99
 73
178
 74
178
 0
VERTEX
 8
MESH_159_F0
 10
0
 20
0
 30
0
 70
128
 71
99
 72
179
 73
178
 74
178
 0
VERTEX
 8
MESH_159_F0
 10
0
 20
0
 30
0
 70
128
 71
180
 72
179
 73
99
 74
99
 0
VERTEX
 8
MESH_159_F0
 10
0
 20
0
 30
0
 70
128
 71
180
 72
99
 73
181
 74
181
 0
VERTEX
 8
MESH_159_F0
 10
0
 20
0
 30
0
 70
128
 71
99
 72
98
 73
181
 74
181
 0
VERTEX
 8
MESH_159_F0
 10
0
 20
0
 30
0
 70
128
 71
98
 72
97
 73
181
 74
181
 0
VERTEX
 8
MESH_159_F0
 10
0
 20
0
 30
0
 70
128
 71
97
 72
96
 73
181
 74
181
 0
VERTEX
 8
MESH_159_F0
 10
0
 20
0
 30
0
 70
128
 71
96
 72
95
 73
181
 74
181
 0
VERTEX
 8
MESH_159_F0
 10
0
 20
0
 30
0
 70
128
 71
95
 72
94
 73
181
 74
181
 0
VERTEX
 8
MESH_159_F0
 10
0
 20
0
 30
0
 70
128
 71
94
 72
93
 73
181
 74
181
 0
VERTEX
 8
MESH_159_F0
 10
0
 20
0
 30
0
 70
128
 71
93
 72
92
 73
181
 74
181
 0
VERTEX
 8
MESH_159_F0
 10
0
 20
0
 30
0
 70
128
 71
92
 72
91
 73
181
 74
181
 0
VERTEX
 8
MESH_159_F0
 10
0
 20
0
 30
0
 70
128
 71
91
 72
90
 73
181
 74
181
 0
VERTEX
 8
MESH_159_F0
 10
0
 20
0
 30
0
 70
128
 71
90
 72
89
 73
181
 74
181
 0
VERTEX
 8
MESH_159_F0
 10
0
 20
0
 30
0
 70
128
 71
89
 72
88
 73
181
 74
181
 0
VERTEX
 8
MESH_159_F0
 10
0
 20
0
 30
0
 70
128
 71
88
 72
87
 73
181
 74
181
 0
VERTEX
 8
MESH_159_F0
 10
0
 20
0
 30
0
 70
128
 71
87
 72
86
 73
181
 74
181
 0
VERTEX
 8
MESH_159_F0
 10
0
 20
0
 30
0
 70
128
 71
86
 72
85
 73
181
 74
181
 0
VERTEX
 8
MESH_159_F0
 10
0
 20
0
 30
0
 70
128
 71
85
 72
84
 73
181
 74
181
 0
VERTEX
 8
MESH_159_F0
 10
0
 20
0
 30
0
 70
128
 71
84
 72
83
 73
181
 74
181
 0
VERTEX
 8
MESH_159_F0
 10
0
 20
0
 30
0
 70
128
 71
83
 72
82
 73
181
 74
181
 0
VERTEX
 8
MESH_159_F0
 10
0
 20
0
 30
0
 70
128
 71
82
 72
81
 73
181
 74
181
 0
VERTEX
 8
MESH_159_F0
 10
0
 20
0
 30
0
 70
128
 71
81
 72
80
 73
181
 74
181
 0
VERTEX
 8
MESH_159_F0
 10
0
 20
0
 30
0
 70
128
 71
80
 72
79
 73
181
 74
181
 0
VERTEX
 8
MESH_159_F0
 10
0
 20
0
 30
0
 70
128
 71
79
 72
78
 73
181
 74
181
 0
VERTEX
 8
MESH_159_F0
 10
0
 20
0
 30
0
 70
128
 71
78
 72
77
 73
181
 74
181
 0
VERTEX
 8
MESH_159_F0
 10
0
 20
0
 30
0
 70
128
 71
77
 72
182
 73
181
 74
181
 0
VERTEX
 8
MESH_159_F0
 10
0
 20
0
 30
0
 70
128
 71
183
 72
182
 73
77
 74
77
 0
VERTEX
 8
MESH_159_F0
 10
0
 20
0
 30
0
 70
128
 71
183
 72
77
 73
184
 74
184
 0
VERTEX
 8
MESH_159_F0
 10
0
 20
0
 30
0
 70
128
 71
77
 72
185
 73
184
 74
184
 0
VERTEX
 8
MESH_159_F0
 10
0
 20
0
 30
0
 70
128
 71
186
 72
185
 73
77
 74
77
 0
VERTEX
 8
MESH_159_F0
 10
0
 20
0
 30
0
 70
128
 71
186
 72
77
 73
187
 74
187
 0
VERTEX
 8
MESH_159_F0
 10
0
 20
0
 30
0
 70
128
 71
77
 72
188
 73
187
 74
187
 0
VERTEX
 8
MESH_159_F0
 10
0
 20
0
 30
0
 70
128
 71
189
 72
188
 73
77
 74
77
 0
VERTEX
 8
MESH_159_F0
 10
0
 20
0
 30
0
 70
128
 71
189
 72
77
 73
190
 74
190
 0
VERTEX
 8
MESH_159_F0
 10
0
 20
0
 30
0
 70
128
 71
77
 72
191
 73
190
 74
190
 0
VERTEX
 8
MESH_159_F0
 10
0
 20
0
 30
0
 70
128
 71
192
 72
191
 73
77
 74
77
 0
VERTEX
 8
MESH_159_F0
 10
0
 20
0
 30
0
 70
128
 71
192
 72
77
 73
193
 74
193
 0
VERTEX
 8
MESH_159_F0
 10
0
 20
0
 30
0
 70
128
 71
77
 72
194
 73
193
 74
193
 0
VERTEX
 8
MESH_159_F0
 10
0
 20
0
 30
0
 70
128
 71
195
 72
194
 73
77
 74
77
 0
VERTEX
 8
MESH_159_F0
 10
0
 20
0
 30
0
 70
128
 71
195
 72
77
 73
196
 74
196
 0
VERTEX
 8
MESH_159_F0
 10
0
 20
0
 30
0
 70
128
 71
77
 72
197
 73
196
 74
196
 0
VERTEX
 8
MESH_159_F0
 10
0
 20
0
 30
0
 70
128
 71
198
 72
197
 73
77
 74
77
 0
VERTEX
 8
MESH_159_F0
 10
0
 20
0
 30
0
 70
128
 71
198
 72
77
 73
199
 74
199
 0
VERTEX
 8
MESH_159_F0
 10
0
 20
0
 30
0
 70
128
 71
77
 72
200
 73
199
 74
199
 0
VERTEX
 8
MESH_159_F0
 10
0
 20
0
 30
0
 70
128
 71
101
 72
200
 73
77
 74
77
 0
VERTEX
 8
MESH_159_F0
 10
0
 20
0
 30
0
 70
128
 71
102
 72
101
 73
76
 74
76
 0
VERTEX
 8
MESH_159_F0
 10
0
 20
0
 30
0
 70
128
 71
102
 72
76
 73
103
 74
103
 0
VERTEX
 8
MESH_159_F0
 10
0
 20
0
 30
0
 70
128
 71
76
 72
104
 73
103
 74
103
 0
VERTEX
 8
MESH_159_F0
 10
0
 20
0
 30
0
 70
128
 71
105
 72
104
 73
76
 74
76
 0
VERTEX
 8
MESH_159_F0
 10
0
 20
0
 30
0
 70
128
 71
105
 72
76
 73
106
 74
106
 0
VERTEX
 8
MESH_159_F0
 10
0
 20
0
 30
0
 70
128
 71
76
 72
107
 73
106
 74
106
 0
VERTEX
 8
MESH_159_F0
 10
0
 20
0
 30
0
 70
128
 71
108
 72
107
 73
76
 74
76
 0
VERTEX
 8
MESH_159_F0
 10
0
 20
0
 30
0
 70
128
 71
108
 72
76
 73
109
 74
109
 0
VERTEX
 8
MESH_159_F0
 10
0
 20
0
 30
0
 70
128
 71
76
 72
110
 73
109
 74
109
 0
VERTEX
 8
MESH_159_F0
 10
0
 20
0
 30
0
 70
128
 71
111
 72
110
 73
76
 74
76
 0
VERTEX
 8
MESH_159_F0
 10
0
 20
0
 30
0
 70
128
 71
111
 72
76
 73
112
 74
112
 0
VERTEX
 8
MESH_159_F0
 10
0
 20
0
 30
0
 70
128
 71
76
 72
113
 73
112
 74
112
 0
VERTEX
 8
MESH_159_F0
 10
0
 20
0
 30
0
 70
128
 71
114
 72
113
 73
76
 74
76
 0
VERTEX
 8
MESH_159_F0
 10
0
 20
0
 30
0
 70
128
 71
114
 72
76
 73
115
 74
115
 0
VERTEX
 8
MESH_159_F0
 10
0
 20
0
 30
0
 70
128
 71
76
 72
116
 73
115
 74
115
 0
VERTEX
 8
MESH_159_F0
 10
0
 20
0
 30
0
 70
128
 71
117
 72
116
 73
76
 74
76
 0
VERTEX
 8
MESH_159_F0
 10
0
 20
0
 30
0
 70
128
 71
117
 72
76
 73
118
 74
118
 0
VERTEX
 8
MESH_159_F0
 10
0
 20
0
 30
0
 70
128
 71
76
 72
119
 73
118
 74
118
 0
VERTEX
 8
MESH_159_F0
 10
0
 20
0
 30
0
 70
128
 71
120
 72
119
 73
76
 74
76
 0
VERTEX
 8
MESH_159_F0
 10
0
 20
0
 30
0
 70
128
 71
120
 72
76
 73
121
 74
121
 0
VERTEX
 8
MESH_159_F0
 10
0
 20
0
 30
0
 70
128
 71
76
 72
75
 73
121
 74
121
 0
VERTEX
 8
MESH_159_F0
 10
0
 20
0
 30
0
 70
128
 71
75
 72
74
 73
121
 74
121
 0
VERTEX
 8
MESH_159_F0
 10
0
 20
0
 30
0
 70
128
 71
74
 72
73
 73
121
 74
121
 0
VERTEX
 8
MESH_159_F0
 10
0
 20
0
 30
0
 70
128
 71
73
 72
72
 73
121
 74
121
 0
VERTEX
 8
MESH_159_F0
 10
0
 20
0
 30
0
 70
128
 71
72
 72
71
 73
121
 74
121
 0
VERTEX
 8
MESH_159_F0
 10
0
 20
0
 30
0
 70
128
 71
71
 72
70
 73
121
 74
121
 0
VERTEX
 8
MESH_159_F0
 10
0
 20
0
 30
0
 70
128
 71
70
 72
69
 73
121
 74
121
 0
VERTEX
 8
MESH_159_F0
 10
0
 20
0
 30
0
 70
128
 71
69
 72
68
 73
121
 74
121
 0
VERTEX
 8
MESH_159_F0
 10
0
 20
0
 30
0
 70
128
 71
68
 72
67
 73
121
 74
121
 0
VERTEX
 8
MESH_159_F0
 10
0
 20
0
 30
0
 70
128
 71
67
 72
66
 73
121
 74
121
 0
VERTEX
 8
MESH_159_F0
 10
0
 20
0
 30
0
 70
128
 71
66
 72
65
 73
121
 74
121
 0
VERTEX
 8
MESH_159_F0
 10
0
 20
0
 30
0
 70
128
 71
65
 72
64
 73
121
 74
121
 0
VERTEX
 8
MESH_159_F0
 10
0
 20
0
 30
0
 70
128
 71
64
 72
63
 73
121
 74
121
 0
VERTEX
 8
MESH_159_F0
 10
0
 20
0
 30
0
 70
128
 71
63
 72
62
 73
121
 74
121
 0
VERTEX
 8
MESH_159_F0
 10
0
 20
0
 30
0
 70
128
 71
62
 72
61
 73
121
 74
121
 0
VERTEX
 8
MESH_159_F0
 10
0
 20
0
 30
0
 70
128
 71
61
 72
60
 73
121
 74
121
 0
VERTEX
 8
MESH_159_F0
 10
0
 20
0
 30
0
 70
128
 71
60
 72
59
 73
121
 74
121
 0
VERTEX
 8
MESH_159_F0
 10
0
 20
0
 30
0
 70
128
 71
59
 72
58
 73
121
 74
121
 0
VERTEX
 8
MESH_159_F0
 10
0
 20
0
 30
0
 70
128
 71
58
 72
57
 73
121
 74
121
 0
VERTEX
 8
MESH_159_F0
 10
0
 20
0
 30
0
 70
128
 71
57
 72
56
 73
121
 74
121
 0
VERTEX
 8
MESH_159_F0
 10
0
 20
0
 30
0
 70
128
 71
56
 72
55
 73
121
 74
121
 0
VERTEX
 8
MESH_159_F0
 10
0
 20
0
 30
0
 70
128
 71
55
 72
54
 73
121
 74
121
 0
VERTEX
 8
MESH_159_F0
 10
0
 20
0
 30
0
 70
128
 71
54
 72
122
 73
121
 74
121
 0
VERTEX
 8
MESH_159_F0
 10
0
 20
0
 30
0
 70
128
 71
123
 72
122
 73
54
 74
54
 0
VERTEX
 8
MESH_159_F0
 10
0
 20
0
 30
0
 70
128
 71
124
 72
123
 73
252
 74
252
 0
VERTEX
 8
MESH_159_F0
 10
0
 20
0
 30
0
 70
128
 71
124
 72
252
 73
125
 74
125
 0
VERTEX
 8
MESH_159_F0
 10
0
 20
0
 30
0
 70
128
 71
252
 72
126
 73
125
 74
125
 0
VERTEX
 8
MESH_159_F0
 10
0
 20
0
 30
0
 70
128
 71
127
 72
126
 73
252
 74
252
 0
VERTEX
 8
MESH_159_F0
 10
0
 20
0
 30
0
 70
128
 71
127
 72
252
 73
128
 74
128
 0
VERTEX
 8
MESH_159_F0
 10
0
 20
0
 30
0
 70
128
 71
252
 72
129
 73
128
 74
128
 0
VERTEX
 8
MESH_159_F0
 10
0
 20
0
 30
0
 70
128
 71
130
 72
129
 73
252
 74
252
 0
VERTEX
 8
MESH_159_F0
 10
0
 20
0
 30
0
 70
128
 71
130
 72
252
 73
131
 74
131
 0
VERTEX
 8
MESH_159_F0
 10
0
 20
0
 30
0
 70
128
 71
252
 72
132
 73
131
 74
131
 0
VERTEX
 8
MESH_159_F0
 10
0
 20
0
 30
0
 70
128
 71
133
 72
132
 73
252
 74
252
 0
VERTEX
 8
MESH_159_F0
 10
0
 20
0
 30
0
 70
128
 71
133
 72
252
 73
134
 74
134
 0
VERTEX
 8
MESH_159_F0
 10
0
 20
0
 30
0
 70
128
 71
252
 72
135
 73
134
 74
134
 0
VERTEX
 8
MESH_159_F0
 10
0
 20
0
 30
0
 70
128
 71
136
 72
135
 73
252
 74
252
 0
VERTEX
 8
MESH_159_F0
 10
0
 20
0
 30
0
 70
128
 71
136
 72
252
 73
137
 74
137
 0
VERTEX
 8
MESH_159_F0
 10
0
 20
0
 30
0
 70
128
 71
252
 72
138
 73
137
 74
137
 0
VERTEX
 8
MESH_159_F0
 10
0
 20
0
 30
0
 70
128
 71
139
 72
138
 73
252
 74
252
 0
VERTEX
 8
MESH_159_F0
 10
0
 20
0
 30
0
 70
128
 71
139
 72
252
 73
140
 74
140
 0
VERTEX
 8
MESH_159_F0
 10
0
 20
0
 30
0
 70
128
 71
252
 72
141
 73
140
 74
140
 0
VERTEX
 8
MESH_159_F0
 10
0
 20
0
 30
0
 70
128
 71
142
 72
141
 73
252
 74
252
 0
VERTEX
 8
MESH_159_F0
 10
0
 20
0
 30
0
 70
128
 71
142
 72
252
 73
143
 74
143
 0
VERTEX
 8
MESH_159_F0
 10
0
 20
0
 30
0
 70
128
 71
252
 72
144
 73
143
 74
143
 0
VERTEX
 8
MESH_159_F0
 10
0
 20
0
 30
0
 70
128
 71
145
 72
144
 73
252
 74
252
 0
VERTEX
 8
MESH_159_F0
 10
0
 20
0
 30
0
 70
128
 71
145
 72
252
 73
146
 74
146
 0
VERTEX
 8
MESH_159_F0
 10
0
 20
0
 30
0
 70
128
 71
252
 72
147
 73
146
 74
146
 0
VERTEX
 8
MESH_159_F0
 10
0
 20
0
 30
0
 70
128
 71
148
 72
147
 73
252
 74
252
 0
VERTEX
 8
MESH_159_F0
 10
0
 20
0
 30
0
 70
128
 71
148
 72
252
 73
149
 74
149
 0
VERTEX
 8
MESH_159_F0
 10
0
 20
0
 30
0
 70
128
 71
252
 72
150
 73
149
 74
149
 0
VERTEX
 8
MESH_159_F0
 10
0
 20
0
 30
0
 70
128
 71
151
 72
150
 73
252
 74
252
 0
VERTEX
 8
MESH_159_F0
 10
0
 20
0
 30
0
 70
128
 71
152
 72
151
 73
251
 74
251
 0
VERTEX
 8
MESH_159_F0
 10
0
 20
0
 30
0
 70
128
 71
152
 72
251
 73
153
 74
153
 0
VERTEX
 8
MESH_159_F0
 10
0
 20
0
 30
0
 70
128
 71
251
 72
154
 73
153
 74
153
 0
VERTEX
 8
MESH_159_F0
 10
0
 20
0
 30
0
 70
128
 71
155
 72
154
 73
251
 74
251
 0
VERTEX
 8
MESH_159_F0
 10
0
 20
0
 30
0
 70
128
 71
155
 72
251
 73
156
 74
156
 0
VERTEX
 8
MESH_159_F0
 10
0
 20
0
 30
0
 70
128
 71
251
 72
157
 73
156
 74
156
 0
VERTEX
 8
MESH_159_F0
 10
0
 20
0
 30
0
 70
128
 71
158
 72
157
 73
251
 74
251
 0
VERTEX
 8
MESH_159_F0
 10
0
 20
0
 30
0
 70
128
 71
158
 72
251
 73
159
 74
159
 0
VERTEX
 8
MESH_159_F0
 10
0
 20
0
 30
0
 70
128
 71
251
 72
160
 73
159
 74
159
 0
VERTEX
 8
MESH_159_F0
 10
0
 20
0
 30
0
 70
128
 71
161
 72
160
 73
251
 74
251
 0
VERTEX
 8
MESH_159_F0
 10
0
 20
0
 30
0
 70
128
 71
161
 72
251
 73
162
 74
162
 0
VERTEX
 8
MESH_159_F0
 10
0
 20
0
 30
0
 70
128
 71
251
 72
163
 73
162
 74
162
 0
VERTEX
 8
MESH_159_F0
 10
0
 20
0
 30
0
 70
128
 71
164
 72
163
 73
251
 74
251
 0
VERTEX
 8
MESH_159_F0
 10
0
 20
0
 30
0
 70
128
 71
164
 72
251
 73
165
 74
165
 0
VERTEX
 8
MESH_159_F0
 10
0
 20
0
 30
0
 70
128
 71
251
 72
166
 73
165
 74
165
 0
VERTEX
 8
MESH_159_F0
 10
0
 20
0
 30
0
 70
128
 71
167
 72
166
 73
251
 74
251
 0
VERTEX
 8
MESH_159_F0
 10
0
 20
0
 30
0
 70
128
 71
167
 72
251
 73
168
 74
168
 0
VERTEX
 8
MESH_159_F0
 10
0
 20
0
 30
0
 70
128
 71
251
 72
169
 73
168
 74
168
 0
VERTEX
 8
MESH_159_F0
 10
0
 20
0
 30
0
 70
128
 71
170
 72
169
 73
251
 74
251
 0
VERTEX
 8
MESH_159_F0
 10
0
 20
0
 30
0
 70
128
 71
170
 72
251
 73
171
 74
171
 0
VERTEX
 8
MESH_159_F0
 10
0
 20
0
 30
0
 70
128
 71
251
 72
172
 73
171
 74
171
 0
VERTEX
 8
MESH_159_F0
 10
0
 20
0
 30
0
 70
128
 71
227
 72
172
 73
251
 74
251
 0
VERTEX
 8
MESH_159_F0
 10
0
 20
0
 30
0
 70
128
 71
249
 72
227
 73
250
 74
250
 0
VERTEX
 8
MESH_159_F0
 10
0
 20
0
 30
0
 70
128
 71
227
 72
251
 73
250
 74
250
 0
VERTEX
 8
MESH_159_F0
 10
0
 20
0
 30
0
 70
128
 71
226
 72
2
 73
1
 74
1
 0
VERTEX
 8
MESH_159_F0
 10
0
 20
0
 30
0
 70
128
 71
3
 72
2
 73
226
 74
226
 0
VERTEX
 8
MESH_159_F0
 10
0
 20
0
 30
0
 70
128
 71
3
 72
226
 73
4
 74
4
 0
VERTEX
 8
MESH_159_F0
 10
0
 20
0
 30
0
 70
128
 71
226
 72
5
 73
4
 74
4
 0
VERTEX
 8
MESH_159_F0
 10
0
 20
0
 30
0
 70
128
 71
202
 72
5
 73
226
 74
226
 0
VERTEX
 8
MESH_159_F0
 10
0
 20
0
 30
0
 70
128
 71
202
 72
226
 73
203
 74
203
 0
VERTEX
 8
MESH_159_F0
 10
0
 20
0
 30
0
 70
128
 71
226
 72
204
 73
203
 74
203
 0
VERTEX
 8
MESH_159_F0
 10
0
 20
0
 30
0
 70
128
 71
205
 72
204
 73
226
 74
226
 0
VERTEX
 8
MESH_159_F0
 10
0
 20
0
 30
0
 70
128
 71
205
 72
226
 73
206
 74
206
 0
VERTEX
 8
MESH_159_F0
 10
0
 20
0
 30
0
 70
128
 71
226
 72
207
 73
206
 74
206
 0
VERTEX
 8
MESH_159_F0
 10
0
 20
0
 30
0
 70
128
 71
208
 72
207
 73
226
 74
226
 0
VERTEX
 8
MESH_159_F0
 10
0
 20
0
 30
0
 70
128
 71
208
 72
226
 73
209
 74
209
 0
VERTEX
 8
MESH_159_F0
 10
0
 20
0
 30
0
 70
128
 71
226
 72
210
 73
209
 74
209
 0
VERTEX
 8
MESH_159_F0
 10
0
 20
0
 30
0
 70
128
 71
211
 72
210
 73
226
 74
226
 0
VERTEX
 8
MESH_159_F0
 10
0
 20
0
 30
0
 70
128
 71
211
 72
226
 73
212
 74
212
 0
VERTEX
 8
MESH_159_F0
 10
0
 20
0
 30
0
 70
128
 71
226
 72
213
 73
212
 74
212
 0
VERTEX
 8
MESH_159_F0
 10
0
 20
0
 30
0
 70
128
 71
214
 72
213
 73
226
 74
226
 0
VERTEX
 8
MESH_159_F0
 10
0
 20
0
 30
0
 70
128
 71
214
 72
226
 73
215
 74
215
 0
VERTEX
 8
MESH_159_F0
 10
0
 20
0
 30
0
 70
128
 71
226
 72
216
 73
215
 74
215
 0
VERTEX
 8
MESH_159_F0
 10
0
 20
0
 30
0
 70
128
 71
217
 72
216
 73
226
 74
226
 0
VERTEX
 8
MESH_159_F0
 10
0
 20
0
 30
0
 70
128
 71
217
 72
226
 73
218
 74
218
 0
VERTEX
 8
MESH_159_F0
 10
0
 20
0
 30
0
 70
128
 71
226
 72
219
 73
218
 74
218
 0
VERTEX
 8
MESH_159_F0
 10
0
 20
0
 30
0
 70
128
 71
220
 72
219
 73
226
 74
226
 0
VERTEX
 8
MESH_159_F0
 10
0
 20
0
 30
0
 70
128
 71
220
 72
226
 73
221
 74
221
 0
VERTEX
 8
MESH_159_F0
 10
0
 20
0
 30
0
 70
128
 71
226
 72
222
 73
221
 74
221
 0
VERTEX
 8
MESH_159_F0
 10
0
 20
0
 30
0
 70
128
 71
223
 72
222
 73
226
 74
226
 0
VERTEX
 8
MESH_159_F0
 10
0
 20
0
 30
0
 70
128
 71
223
 72
226
 73
224
 74
224
 0
VERTEX
 8
MESH_159_F0
 10
0
 20
0
 30
0
 70
128
 71
226
 72
225
 73
224
 74
224
 0
VERTEX
 8
MESH_159_F0
 10
0
 20
0
 30
0
 70
128
 71
202
 72
6
 73
5
 74
5
 0
VERTEX
 8
MESH_159_F0
 10
0
 20
0
 30
0
 70
128
 71
7
 72
6
 73
202
 74
202
 0
VERTEX
 8
MESH_159_F0
 10
0
 20
0
 30
0
 70
128
 71
7
 72
202
 73
8
 74
8
 0
VERTEX
 8
MESH_159_F0
 10
0
 20
0
 30
0
 70
128
 71
202
 72
9
 73
8
 74
8
 0
VERTEX
 8
MESH_159_F0
 10
0
 20
0
 30
0
 70
128
 71
10
 72
9
 73
202
 74
202
 0
VERTEX
 8
MESH_159_F0
 10
0
 20
0
 30
0
 70
128
 71
10
 72
202
 73
11
 74
11
 0
VERTEX
 8
MESH_159_F0
 10
0
 20
0
 30
0
 70
128
 71
202
 72
12
 73
11
 74
11
 0
VERTEX
 8
MESH_159_F0
 10
0
 20
0
 30
0
 70
128
 71
13
 72
12
 73
202
 74
202
 0
VERTEX
 8
MESH_159_F0
 10
0
 20
0
 30
0
 70
128
 71
13
 72
202
 73
14
 74
14
 0
VERTEX
 8
MESH_159_F0
 10
0
 20
0
 30
0
 70
128
 71
202
 72
15
 73
14
 74
14
 0
VERTEX
 8
MESH_159_F0
 10
0
 20
0
 30
0
 70
128
 71
16
 72
15
 73
202
 74
202
 0
VERTEX
 8
MESH_159_F0
 10
0
 20
0
 30
0
 70
128
 71
16
 72
202
 73
17
 74
17
 0
VERTEX
 8
MESH_159_F0
 10
0
 20
0
 30
0
 70
128
 71
202
 72
18
 73
17
 74
17
 0
VERTEX
 8
MESH_159_F0
 10
0
 20
0
 30
0
 70
128
 71
19
 72
18
 73
202
 74
202
 0
VERTEX
 8
MESH_159_F0
 10
0
 20
0
 30
0
 70
128
 71
19
 72
202
 73
20
 74
20
 0
VERTEX
 8
MESH_159_F0
 10
0
 20
0
 30
0
 70
128
 71
202
 72
21
 73
20
 74
20
 0
VERTEX
 8
MESH_159_F0
 10
0
 20
0
 30
0
 70
128
 71
22
 72
21
 73
202
 74
202
 0
VERTEX
 8
MESH_159_F0
 10
0
 20
0
 30
0
 70
128
 71
22
 72
202
 73
23
 74
23
 0
VERTEX
 8
MESH_159_F0
 10
0
 20
0
 30
0
 70
128
 71
202
 72
24
 73
23
 74
23
 0
VERTEX
 8
MESH_159_F0
 10
0
 20
0
 30
0
 70
128
 71
25
 72
24
 73
202
 74
202
 0
VERTEX
 8
MESH_159_F0
 10
0
 20
0
 30
0
 70
128
 71
25
 72
202
 73
26
 74
26
 0
VERTEX
 8
MESH_159_F0
 10
0
 20
0
 30
0
 70
128
 71
202
 72
27
 73
26
 74
26
 0
VERTEX
 8
MESH_159_F0
 10
0
 20
0
 30
0
 70
128
 71
201
 72
27
 73
202
 74
202
 0
VERTEX
 8
MESH_159_F0
 10
0
 20
0
 30
0
 70
128
 71
28
 72
27
 73
201
 74
201
 0
VERTEX
 8
MESH_159_F0
 10
0
 20
0
 30
0
 70
128
 71
28
 72
201
 73
29
 74
29
 0
VERTEX
 8
MESH_159_F0
 10
0
 20
0
 30
0
 70
128
 71
201
 72
30
 73
29
 74
29
 0
VERTEX
 8
MESH_159_F0
 10
0
 20
0
 30
0
 70
128
 71
31
 72
30
 73
201
 74
201
 0
VERTEX
 8
MESH_159_F0
 10
0
 20
0
 30
0
 70
128
 71
31
 72
201
 73
32
 74
32
 0
VERTEX
 8
MESH_159_F0
 10
0
 20
0
 30
0
 70
128
 71
201
 72
33
 73
32
 74
32
 0
VERTEX
 8
MESH_159_F0
 10
0
 20
0
 30
0
 70
128
 71
34
 72
33
 73
201
 74
201
 0
VERTEX
 8
MESH_159_F0
 10
0
 20
0
 30
0
 70
128
 71
34
 72
201
 73
35
 74
35
 0
VERTEX
 8
MESH_159_F0
 10
0
 20
0
 30
0
 70
128
 71
201
 72
36
 73
35
 74
35
 0
VERTEX
 8
MESH_159_F0
 10
0
 20
0
 30
0
 70
128
 71
37
 72
36
 73
201
 74
201
 0
VERTEX
 8
MESH_159_F0
 10
0
 20
0
 30
0
 70
128
 71
37
 72
201
 73
38
 74
38
 0
VERTEX
 8
MESH_159_F0
 10
0
 20
0
 30
0
 70
128
 71
201
 72
39
 73
38
 74
38
 0
VERTEX
 8
MESH_159_F0
 10
0
 20
0
 30
0
 70
128
 71
40
 72
39
 73
201
 74
201
 0
VERTEX
 8
MESH_159_F0
 10
0
 20
0
 30
0
 70
128
 71
40
 72
201
 73
41
 74
41
 0
VERTEX
 8
MESH_159_F0
 10
0
 20
0
 30
0
 70
128
 71
201
 72
42
 73
41
 74
41
 0
VERTEX
 8
MESH_159_F0
 10
0
 20
0
 30
0
 70
128
 71
43
 72
42
 73
201
 74
201
 0
VERTEX
 8
MESH_159_F0
 10
0
 20
0
 30
0
 70
128
 71
43
 72
201
 73
44
 74
44
 0
VERTEX
 8
MESH_159_F0
 10
0
 20
0
 30
0
 70
128
 71
201
 72
45
 73
44
 74
44
 0
VERTEX
 8
MESH_159_F0
 10
0
 20
0
 30
0
 70
128
 71
46
 72
45
 73
201
 74
201
 0
VERTEX
 8
MESH_159_F0
 10
0
 20
0
 30
0
 70
128
 71
46
 72
201
 73
47
 74
47
 0
VERTEX
 8
MESH_159_F0
 10
0
 20
0
 30
0
 70
128
 71
201
 72
48
 73
47
 74
47
 0
VERTEX
 8
MESH_159_F0
 10
0
 20
0
 30
0
 70
128
 71
49
 72
48
 73
201
 74
201
 0
VERTEX
 8
MESH_159_F0
 10
0
 20
0
 30
0
 70
128
 71
49
 72
201
 73
50
 74
50
 0
VERTEX
 8
MESH_159_F0
 10
0
 20
0
 30
0
 70
128
 71
201
 72
51
 73
50
 74
50
 0
VERTEX
 8
MESH_159_F0
 10
0
 20
0
 30
0
 70
128
 71
52
 72
51
 73
201
 74
201
 0
VERTEX
 8
MESH_159_F0
 10
0
 20
0
 30
0
 70
128
 71
52
 72
201
 73
53
 74
53
 0
VERTEX
 8
MESH_159_F0
 10
0
 20
0
 30
0
 70
128
 71
201
 72
54
 73
53
 74
53
 0
VERTEX
 8
MESH_159_F0
 10
0
 20
0
 30
0
 70
128
 71
252
 72
54
 73
201
 74
201
 0
VERTEX
 8
MESH_159_F0
 10
0
 20
0
 30
0
 70
128
 71
123
 72
54
 73
252
 74
252
 0
VERTEX
 8
MESH_159_F0
 10
0
 20
0
 30
0
 70
128
 71
101
 72
77
 73
76
 74
76
 0
VERTEX
 8
MESH_159_F0
 10
0
 20
0
 30
0
 70
128
 71
226
 72
100
 73
99
 74
99
 0
VERTEX
 8
MESH_159_F0
 10
0
 20
0
 30
0
 70
128
 71
227
 72
173
 73
172
 74
172
 0
VERTEX
 8
MESH_159_F0
 10
0
 20
0
 30
0
 70
128
 71
174
 72
173
 73
227
 74
227
 0
VERTEX
 8
MESH_159_F0
 10
0
 20
0
 30
0
 70
128
 71
174
 72
227
 73
175
 74
175
 0
VERTEX
 8
MESH_159_F0
 10
0
 20
0
 30
0
 70
128
 71
227
 72
176
 73
175
 74
175
 0
VERTEX
 8
MESH_159_F0
 10
0
 20
0
 30
0
 70
128
 71
177
 72
176
 73
227
 74
227
 0
VERTEX
 8
MESH_159_F0
 10
0
 20
0
 30
0
 70
128
 71
227
 72
229
 73
228
 74
228
 0
VERTEX
 8
MESH_159_F0
 10
0
 20
0
 30
0
 70
128
 71
230
 72
229
 73
227
 74
227
 0
VERTEX
 8
MESH_159_F0
 10
0
 20
0
 30
0
 70
128
 71
230
 72
227
 73
231
 74
231
 0
VERTEX
 8
MESH_159_F0
 10
0
 20
0
 30
0
 70
128
 71
227
 72
232
 73
231
 74
231
 0
VERTEX
 8
MESH_159_F0
 10
0
 20
0
 30
0
 70
128
 71
233
 72
232
 73
227
 74
227
 0
VERTEX
 8
MESH_159_F0
 10
0
 20
0
 30
0
 70
128
 71
233
 72
227
 73
234
 74
234
 0
VERTEX
 8
MESH_159_F0
 10
0
 20
0
 30
0
 70
128
 71
227
 72
235
 73
234
 74
234
 0
VERTEX
 8
MESH_159_F0
 10
0
 20
0
 30
0
 70
128
 71
236
 72
235
 73
227
 74
227
 0
VERTEX
 8
MESH_159_F0
 10
0
 20
0
 30
0
 70
128
 71
236
 72
227
 73
237
 74
237
 0
VERTEX
 8
MESH_159_F0
 10
0
 20
0
 30
0
 70
128
 71
227
 72
238
 73
237
 74
237
 0
VERTEX
 8
MESH_159_F0
 10
0
 20
0
 30
0
 70
128
 71
239
 72
238
 73
227
 74
227
 0
VERTEX
 8
MESH_159_F0
 10
0
 20
0
 30
0
 70
128
 71
239
 72
227
 73
240
 74
240
 0
VERTEX
 8
MESH_159_F0
 10
0
 20
0
 30
0
 70
128
 71
227
 72
241
 73
240
 74
240
 0
VERTEX
 8
MESH_159_F0
 10
0
 20
0
 30
0
 70
128
 71
242
 72
241
 73
227
 74
227
 0
VERTEX
 8
MESH_159_F0
 10
0
 20
0
 30
0
 70
128
 71
242
 72
227
 73
243
 74
243
 0
VERTEX
 8
MESH_159_F0
 10
0
 20
0
 30
0
 70
128
 71
227
 72
244
 73
243
 74
243
 0
VERTEX
 8
MESH_159_F0
 10
0
 20
0
 30
0
 70
128
 71
245
 72
244
 73
227
 74
227
 0
VERTEX
 8
MESH_159_F0
 10
0
 20
0
 30
0
 70
128
 71
245
 72
227
 73
246
 74
246
 0
VERTEX
 8
MESH_159_F0
 10
0
 20
0
 30
0
 70
128
 71
227
 72
247
 73
246
 74
246
 0
VERTEX
 8
MESH_159_F0
 10
0
 20
0
 30
0
 70
128
 71
248
 72
247
 73
227
 74
227
 0
VERTEX
 8
MESH_159_F0
 10
0
 20
0
 30
0
 70
128
 71
248
 72
227
 73
249
 74
249
 0
VERTEX
 8
MESH_159_F0
 10
0
 20
0
 30
0
 70
128
 71
151
 72
252
 73
251
 74
251
 0
SEQEND
 0
ENDSEC
 0
EOF
