 0
SECTION
 2
HEADER
 9
$ACADVER
 1
AC1009
 0
ENDSEC
 0
SECTION
 2
TABLES
 0
TABLE
 2
LTYPE
 70
1
 0
LTYPE
 2
CONTINUOUS
 70
64
 3
solid line
 72
65
 73
0
 40
0.0
 0
ENDTAB
 0
TABLE
 2
LAYER
 70
6
 0
LAYER
 2
0
 70
0
 62
7
 6
CONTINUOUS
 0
LAYER
 2
MESH_257_F0
 70
64
 62
7
 6
CONTINUOUS
 0
LAYER
 2
MESH_256_F0
 70
64
 62
7
 6
CONTINUOUS
 0
LAYER
 2
MESH_255_F0
 70
64
 62
7
 6
CONTINUOUS
 0
LAYER
 2
MESH_254_F0
 70
64
 62
7
 6
CONTINUOUS
 0
LAYER
 2
MESH_253_F0
 70
64
 62
7
 6
CONTINUOUS
 0
LAYER
 2
MESH_252_F0
 70
64
 62
7
 6
CONTINUOUS
 0
LAYER
 2
MESH_251_F0
 70
64
 62
7
 6
CONTINUOUS
 0
LAYER
 2
MESH_250_F0
 70
64
 62
7
 6
CONTINUOUS
 0
LAYER
 2
MESH_249_F0
 70
64
 62
7
 6
CONTINUOUS
 0
LAYER
 2
MESH_248_F0
 70
64
 62
7
 6
CONTINUOUS
 0
LAYER
 2
MESH_247_F0
 70
64
 62
7
 6
CONTINUOUS
 0
LAYER
 2
MESH_246_F0
 70
64
 62
7
 6
CONTINUOUS
 0
LAYER
 2
MESH_245_F0
 70
64
 62
7
 6
CONTINUOUS
 0
LAYER
 2
MESH_244_F0
 70
64
 62
7
 6
CONTINUOUS
 0
LAYER
 2
MESH_243_F0
 70
64
 62
7
 6
CONTINUOUS
 0
LAYER
 2
MESH_242_F0
 70
64
 62
7
 6
CONTINUOUS
 0
LAYER
 2
MESH_241_F0
 70
64
 62
7
 6
CONTINUOUS
 0
LAYER
 2
MESH_240_F0
 70
64
 62
7
 6
CONTINUOUS
 0
LAYER
 2
MESH_239_F0
 70
64
 62
7
 6
CONTINUOUS
 0
LAYER
 2
MESH_238_F0
 70
64
 62
7
 6
CONTINUOUS
 0
LAYER
 2
MESH_237_F0
 70
64
 62
7
 6
CONTINUOUS
 0
LAYER
 2
MESH_236_F0
 70
64
 62
7
 6
CONTINUOUS
 0
LAYER
 2
MESH_235_F0
 70
64
 62
7
 6
CONTINUOUS
 0
LAYER
 2
MESH_234_F0
 70
64
 62
7
 6
CONTINUOUS
 0
LAYER
 2
MESH_233_F0
 70
64
 62
7
 6
CONTINUOUS
 0
LAYER
 2
MESH_232_F0
 70
64
 62
7
 6
CONTINUOUS
 0
LAYER
 2
MESH_231_F0
 70
64
 62
7
 6
CONTINUOUS
 0
LAYER
 2
MESH_230_F0
 70
64
 62
7
 6
CONTINUOUS
 0
LAYER
 2
MESH_229_F0
 70
64
 62
7
 6
CONTINUOUS
 0
LAYER
 2
MESH_228_F0
 70
64
 62
7
 6
CONTINUOUS
 0
LAYER
 2
MESH_227_F0
 70
64
 62
7
 6
CONTINUOUS
 0
LAYER
 2
MESH_226_F0
 70
64
 62
7
 6
CONTINUOUS
 0
LAYER
 2
MESH_225_F0
 70
64
 62
7
 6
CONTINUOUS
 0
LAYER
 2
MESH_224_F0
 70
64
 62
7
 6
CONTINUOUS
 0
LAYER
 2
MESH_223_F0
 70
64
 62
7
 6
CONTINUOUS
 0
LAYER
 2
MESH_222_F0
 70
64
 62
7
 6
CONTINUOUS
 0
LAYER
 2
MESH_221_F0
 70
64
 62
7
 6
CONTINUOUS
 0
LAYER
 2
MESH_220_F0
 70
64
 62
7
 6
CONTINUOUS
 0
LAYER
 2
MESH_219_F0
 70
64
 62
7
 6
CONTINUOUS
 0
LAYER
 2
MESH_218_F0
 70
64
 62
7
 6
CONTINUOUS
 0
LAYER
 2
MESH_217_F0
 70
64
 62
7
 6
CONTINUOUS
 0
LAYER
 2
MESH_216_F0
 70
64
 62
7
 6
CONTINUOUS
 0
LAYER
 2
MESH_215_F0
 70
64
 62
7
 6
CONTINUOUS
 0
LAYER
 2
MESH_214_F0
 70
64
 62
7
 6
CONTINUOUS
 0
LAYER
 2
MESH_213_F0
 70
64
 62
7
 6
CONTINUOUS
 0
ENDTAB
 0
ENDSEC
 0
SECTION
 2
BLOCKS
 0
ENDSEC
 0
SECTION
 2
ENTITIES
 0
POLYLINE
 8
MESH_257_F0
 66
1
 10
0.0
 20
0.0
 30
0.0
 70
64
 71
4
 72
2
 0
VERTEX
 8
MESH_257_F0
 10
170.5
 20
-21
 30
1946.9999
 70
192
 0
VERTEX
 8
MESH_257_F0
 10
170.5
 20
-21
 30
1986.5
 70
192
 0
VERTEX
 8
MESH_257_F0
 10
184.5
 20
-21
 30
1986.5
 70
192
 0
VERTEX
 8
MESH_257_F0
 10
184.5
 20
-21
 30
1946.9999
 70
192
 0
VERTEX
 8
MESH_257_F0
 10
0
 20
0
 30
0
 70
128
 71
4
 72
2
 73
1
 74
1
 0
VERTEX
 8
MESH_257_F0
 10
0
 20
0
 30
0
 70
128
 71
3
 72
2
 73
4
 74
4
 0
SEQEND
 0
POLYLINE
 8
MESH_256_F0
 66
1
 10
0.0
 20
0.0
 30
0.0
 70
64
 71
4
 72
2
 0
VERTEX
 8
MESH_256_F0
 10
170.5
 20
-21
 30
1986.5
 70
192
 0
VERTEX
 8
MESH_256_F0
 10
170.5
 20
-21
 30
1946.9999
 70
192
 0
VERTEX
 8
MESH_256_F0
 10
170.5
 20
-17.8
 30
1946.9999
 70
192
 0
VERTEX
 8
MESH_256_F0
 10
170.5
 20
-17.8
 30
1986.5
 70
192
 0
VERTEX
 8
MESH_256_F0
 10
0
 20
0
 30
0
 70
128
 71
1
 72
3
 73
2
 74
2
 0
VERTEX
 8
MESH_256_F0
 10
0
 20
0
 30
0
 70
128
 71
4
 72
3
 73
1
 74
1
 0
SEQEND
 0
POLYLINE
 8
MESH_255_F0
 66
1
 10
0.0
 20
0.0
 30
0.0
 70
64
 71
4
 72
2
 0
VERTEX
 8
MESH_255_F0
 10
184.5
 20
-17.8
 30
1946.9999
 70
192
 0
VERTEX
 8
MESH_255_F0
 10
170.5
 20
-17.8
 30
1946.9999
 70
192
 0
VERTEX
 8
MESH_255_F0
 10
170.5
 20
-21
 30
1946.9999
 70
192
 0
VERTEX
 8
MESH_255_F0
 10
184.5
 20
-21
 30
1946.9999
 70
192
 0
VERTEX
 8
MESH_255_F0
 10
0
 20
0
 30
0
 70
128
 71
1
 72
3
 73
2
 74
2
 0
VERTEX
 8
MESH_255_F0
 10
0
 20
0
 30
0
 70
128
 71
4
 72
3
 73
1
 74
1
 0
SEQEND
 0
POLYLINE
 8
MESH_254_F0
 66
1
 10
0.0
 20
0.0
 30
0.0
 70
64
 71
6
 72
4
 0
VERTEX
 8
MESH_254_F0
 10
184.5
 20
0
 30
1986.5
 70
192
 0
VERTEX
 8
MESH_254_F0
 10
184.5
 20
0
 30
373.5
 70
192
 0
VERTEX
 8
MESH_254_F0
 10
184.5
 20
-17.8
 30
373.5
 70
192
 0
VERTEX
 8
MESH_254_F0
 10
184.5
 20
-17.8
 30
1946.9999
 70
192
 0
VERTEX
 8
MESH_254_F0
 10
184.5
 20
-21
 30
1946.9999
 70
192
 0
VERTEX
 8
MESH_254_F0
 10
184.5
 20
-21
 30
1986.5
 70
192
 0
VERTEX
 8
MESH_254_F0
 10
0
 20
0
 30
0
 70
128
 71
4
 72
1
 73
6
 74
6
 0
VERTEX
 8
MESH_254_F0
 10
0
 20
0
 30
0
 70
128
 71
4
 72
6
 73
5
 74
5
 0
VERTEX
 8
MESH_254_F0
 10
0
 20
0
 30
0
 70
128
 71
2
 72
4
 73
3
 74
3
 0
VERTEX
 8
MESH_254_F0
 10
0
 20
0
 30
0
 70
128
 71
1
 72
4
 73
2
 74
2
 0
SEQEND
 0
POLYLINE
 8
MESH_253_F0
 66
1
 10
0.0
 20
0.0
 30
0.0
 70
64
 71
4
 72
2
 0
VERTEX
 8
MESH_253_F0
 10
-184.5
 20
-17.8
 30
373.5
 70
192
 0
VERTEX
 8
MESH_253_F0
 10
184.5
 20
-17.8
 30
373.5
 70
192
 0
VERTEX
 8
MESH_253_F0
 10
184.5
 20
0
 30
373.5
 70
192
 0
VERTEX
 8
MESH_253_F0
 10
-184.5
 20
0
 30
373.5
 70
192
 0
VERTEX
 8
MESH_253_F0
 10
0
 20
0
 30
0
 70
128
 71
1
 72
3
 73
2
 74
2
 0
VERTEX
 8
MESH_253_F0
 10
0
 20
0
 30
0
 70
128
 71
4
 72
3
 73
1
 74
1
 0
SEQEND
 0
POLYLINE
 8
MESH_252_F0
 66
1
 10
0.0
 20
0.0
 30
0.0
 70
64
 71
6
 72
4
 0
VERTEX
 8
MESH_252_F0
 10
-184.5
 20
-21
 30
1986.5
 70
192
 0
VERTEX
 8
MESH_252_F0
 10
-184.5
 20
-21
 30
1946.9999
 70
192
 0
VERTEX
 8
MESH_252_F0
 10
-184.5
 20
-17.8
 30
1946.9999
 70
192
 0
VERTEX
 8
MESH_252_F0
 10
-184.5
 20
-17.8
 30
373.5
 70
192
 0
VERTEX
 8
MESH_252_F0
 10
-184.5
 20
0
 30
373.5
 70
192
 0
VERTEX
 8
MESH_252_F0
 10
-184.5
 20
0
 30
1986.5
 70
192
 0
VERTEX
 8
MESH_252_F0
 10
0
 20
0
 30
0
 70
128
 71
1
 72
3
 73
2
 74
2
 0
VERTEX
 8
MESH_252_F0
 10
0
 20
0
 30
0
 70
128
 71
6
 72
3
 73
1
 74
1
 0
VERTEX
 8
MESH_252_F0
 10
0
 20
0
 30
0
 70
128
 71
5
 72
3
 73
6
 74
6
 0
VERTEX
 8
MESH_252_F0
 10
0
 20
0
 30
0
 70
128
 71
4
 72
3
 73
5
 74
5
 0
SEQEND
 0
POLYLINE
 8
MESH_251_F0
 66
1
 10
0.0
 20
0.0
 30
0.0
 70
64
 71
4
 72
2
 0
VERTEX
 8
MESH_251_F0
 10
-202.5
 20
0
 30
355
 70
192
 0
VERTEX
 8
MESH_251_F0
 10
-184.5
 20
0
 30
355
 70
192
 0
VERTEX
 8
MESH_251_F0
 10
-184.5
 20
-323
 30
355
 70
192
 0
VERTEX
 8
MESH_251_F0
 10
-202.5
 20
-323
 30
355
 70
192
 0
VERTEX
 8
MESH_251_F0
 10
0
 20
0
 30
0
 70
128
 71
1
 72
3
 73
2
 74
2
 0
VERTEX
 8
MESH_251_F0
 10
0
 20
0
 30
0
 70
128
 71
4
 72
3
 73
1
 74
1
 0
SEQEND
 0
POLYLINE
 8
MESH_250_F0
 66
1
 10
0.0
 20
0.0
 30
0.0
 70
64
 71
4
 72
2
 0
VERTEX
 8
MESH_250_F0
 10
-202.5
 20
0
 30
355
 70
192
 0
VERTEX
 8
MESH_250_F0
 10
-202.5
 20
-323
 30
355
 70
192
 0
VERTEX
 8
MESH_250_F0
 10
-202.5
 20
-323
 30
2004.9999
 70
192
 0
VERTEX
 8
MESH_250_F0
 10
-202.5
 20
0
 30
2004.9999
 70
192
 0
VERTEX
 8
MESH_250_F0
 10
0
 20
0
 30
0
 70
128
 71
4
 72
2
 73
1
 74
1
 0
VERTEX
 8
MESH_250_F0
 10
0
 20
0
 30
0
 70
128
 71
3
 72
2
 73
4
 74
4
 0
SEQEND
 0
POLYLINE
 8
MESH_249_F0
 66
1
 10
0.0
 20
0.0
 30
0.0
 70
64
 71
4
 72
2
 0
VERTEX
 8
MESH_249_F0
 10
-184.5
 20
-320.0261
 30
2004.4999
 70
192
 0
VERTEX
 8
MESH_249_F0
 10
-184.5
 20
-320.0261
 30
2004.9999
 70
192
 0
VERTEX
 8
MESH_249_F0
 10
184.5
 20
-320.0261
 30
2004.9999
 70
192
 0
VERTEX
 8
MESH_249_F0
 10
184.5
 20
-320.0261
 30
2004.4999
 70
192
 0
VERTEX
 8
MESH_249_F0
 10
0
 20
0
 30
0
 70
128
 71
4
 72
2
 73
1
 74
1
 0
VERTEX
 8
MESH_249_F0
 10
0
 20
0
 30
0
 70
128
 71
3
 72
2
 73
4
 74
4
 0
SEQEND
 0
POLYLINE
 8
MESH_248_F0
 66
1
 10
0.0
 20
0.0
 30
0.0
 70
64
 71
4
 72
2
 0
VERTEX
 8
MESH_248_F0
 10
-184.5
 20
-320.0261
 30
2004.4999
 70
192
 0
VERTEX
 8
MESH_248_F0
 10
-184.5
 20
0
 30
2004.4999
 70
192
 0
VERTEX
 8
MESH_248_F0
 10
-184.5
 20
0
 30
2004.9999
 70
192
 0
VERTEX
 8
MESH_248_F0
 10
-184.5
 20
-320.0261
 30
2004.9999
 70
192
 0
VERTEX
 8
MESH_248_F0
 10
0
 20
0
 30
0
 70
128
 71
4
 72
2
 73
1
 74
1
 0
VERTEX
 8
MESH_248_F0
 10
0
 20
0
 30
0
 70
128
 71
3
 72
2
 73
4
 74
4
 0
SEQEND
 0
POLYLINE
 8
MESH_247_F0
 66
1
 10
0.0
 20
0.0
 30
0.0
 70
64
 71
4
 72
2
 0
VERTEX
 8
MESH_247_F0
 10
184.5
 20
-320.0261
 30
2004.4999
 70
192
 0
VERTEX
 8
MESH_247_F0
 10
184.5
 20
0
 30
2004.4999
 70
192
 0
VERTEX
 8
MESH_247_F0
 10
-184.5
 20
0
 30
2004.4999
 70
192
 0
VERTEX
 8
MESH_247_F0
 10
-184.5
 20
-320.0261
 30
2004.4999
 70
192
 0
VERTEX
 8
MESH_247_F0
 10
0
 20
0
 30
0
 70
128
 71
4
 72
2
 73
1
 74
1
 0
VERTEX
 8
MESH_247_F0
 10
0
 20
0
 30
0
 70
128
 71
3
 72
2
 73
4
 74
4
 0
SEQEND
 0
POLYLINE
 8
MESH_246_F0
 66
1
 10
0.0
 20
0.0
 30
0.0
 70
64
 71
4
 72
2
 0
VERTEX
 8
MESH_246_F0
 10
184.5
 20
-320.0261
 30
2004.9999
 70
192
 0
VERTEX
 8
MESH_246_F0
 10
184.5
 20
0
 30
2004.9999
 70
192
 0
VERTEX
 8
MESH_246_F0
 10
184.5
 20
0
 30
2004.4999
 70
192
 0
VERTEX
 8
MESH_246_F0
 10
184.5
 20
-320.0261
 30
2004.4999
 70
192
 0
VERTEX
 8
MESH_246_F0
 10
0
 20
0
 30
0
 70
128
 71
4
 72
2
 73
1
 74
1
 0
VERTEX
 8
MESH_246_F0
 10
0
 20
0
 30
0
 70
128
 71
3
 72
2
 73
4
 74
4
 0
SEQEND
 0
POLYLINE
 8
MESH_245_F0
 66
1
 10
0.0
 20
0.0
 30
0.0
 70
64
 71
30
 72
28
 0
VERTEX
 8
MESH_245_F0
 10
-200.9198
 20
-323
 30
830.9999
 70
192
 0
VERTEX
 8
MESH_245_F0
 10
-200.9821
 20
-325.9456
 30
830.9999
 70
192
 0
VERTEX
 8
MESH_245_F0
 10
-200.6975
 20
-328.8781
 30
830.9999
 70
192
 0
VERTEX
 8
MESH_245_F0
 10
-200.0699
 20
-331.7567
 30
830.9999
 70
192
 0
VERTEX
 8
MESH_245_F0
 10
-199.1079
 20
-334.5415
 30
830.9999
 70
192
 0
VERTEX
 8
MESH_245_F0
 10
-197.825
 20
-337.1938
 30
830.9999
 70
192
 0
VERTEX
 8
MESH_245_F0
 10
-196.239
 20
-339.6767
 30
830.9999
 70
192
 0
VERTEX
 8
MESH_245_F0
 10
-194.3718
 20
-341.9557
 30
830.9999
 70
192
 0
VERTEX
 8
MESH_245_F0
 10
-192.2495
 20
-343.9993
 30
830.9999
 70
192
 0
VERTEX
 8
MESH_245_F0
 10
-189.9015
 20
-345.779
 30
830.9999
 70
192
 0
VERTEX
 8
MESH_245_F0
 10
-187.3604
 20
-347.2701
 30
830.9999
 70
192
 0
VERTEX
 8
MESH_245_F0
 10
-184.6616
 20
-348.4519
 30
830.9999
 70
192
 0
VERTEX
 8
MESH_245_F0
 10
-181.8424
 20
-349.3079
 30
830.9999
 70
192
 0
VERTEX
 8
MESH_245_F0
 10
-178.9421
 20
-349.8264
 30
830.9999
 70
192
 0
VERTEX
 8
MESH_245_F0
 10
-176.001
 20
-350
 30
830.9999
 70
192
 0
VERTEX
 8
MESH_245_F0
 10
-176.001
 20
-350
 30
2004.9999
 70
192
 0
VERTEX
 8
MESH_245_F0
 10
-178.9421
 20
-349.8264
 30
2004.9999
 70
192
 0
VERTEX
 8
MESH_245_F0
 10
-181.8424
 20
-349.3079
 30
2004.9999
 70
192
 0
VERTEX
 8
MESH_245_F0
 10
-184.6616
 20
-348.4519
 30
2004.9999
 70
192
 0
VERTEX
 8
MESH_245_F0
 10
-187.3604
 20
-347.2701
 30
2004.9999
 70
192
 0
VERTEX
 8
MESH_245_F0
 10
-189.9015
 20
-345.779
 30
2004.9999
 70
192
 0
VERTEX
 8
MESH_245_F0
 10
-192.2495
 20
-343.9993
 30
2004.9999
 70
192
 0
VERTEX
 8
MESH_245_F0
 10
-194.3718
 20
-341.9557
 30
2004.9999
 70
192
 0
VERTEX
 8
MESH_245_F0
 10
-196.239
 20
-339.6767
 30
2004.9999
 70
192
 0
VERTEX
 8
MESH_245_F0
 10
-197.825
 20
-337.1938
 30
2004.9999
 70
192
 0
VERTEX
 8
MESH_245_F0
 10
-199.1079
 20
-334.5415
 30
2004.9999
 70
192
 0
VERTEX
 8
MESH_245_F0
 10
-200.0699
 20
-331.7567
 30
2004.9999
 70
192
 0
VERTEX
 8
MESH_245_F0
 10
-200.6975
 20
-328.8781
 30
2004.9999
 70
192
 0
VERTEX
 8
MESH_245_F0
 10
-200.9821
 20
-325.9456
 30
2004.9999
 70
192
 0
VERTEX
 8
MESH_245_F0
 10
-200.9198
 20
-323
 30
2004.9999
 70
192
 0
VERTEX
 8
MESH_245_F0
 10
0
 20
0
 30
0
 70
128
 71
29
 72
1
 73
30
 74
30
 0
VERTEX
 8
MESH_245_F0
 10
0
 20
0
 30
0
 70
128
 71
2
 72
1
 73
29
 74
29
 0
VERTEX
 8
MESH_245_F0
 10
0
 20
0
 30
0
 70
128
 71
3
 72
2
 73
28
 74
28
 0
VERTEX
 8
MESH_245_F0
 10
0
 20
0
 30
0
 70
128
 71
4
 72
3
 73
27
 74
27
 0
VERTEX
 8
MESH_245_F0
 10
0
 20
0
 30
0
 70
128
 71
5
 72
4
 73
26
 74
26
 0
VERTEX
 8
MESH_245_F0
 10
0
 20
0
 30
0
 70
128
 71
6
 72
5
 73
25
 74
25
 0
VERTEX
 8
MESH_245_F0
 10
0
 20
0
 30
0
 70
128
 71
7
 72
6
 73
24
 74
24
 0
VERTEX
 8
MESH_245_F0
 10
0
 20
0
 30
0
 70
128
 71
8
 72
7
 73
23
 74
23
 0
VERTEX
 8
MESH_245_F0
 10
0
 20
0
 30
0
 70
128
 71
9
 72
8
 73
22
 74
22
 0
VERTEX
 8
MESH_245_F0
 10
0
 20
0
 30
0
 70
128
 71
10
 72
9
 73
21
 74
21
 0
VERTEX
 8
MESH_245_F0
 10
0
 20
0
 30
0
 70
128
 71
11
 72
10
 73
20
 74
20
 0
VERTEX
 8
MESH_245_F0
 10
0
 20
0
 30
0
 70
128
 71
12
 72
11
 73
19
 74
19
 0
VERTEX
 8
MESH_245_F0
 10
0
 20
0
 30
0
 70
128
 71
13
 72
12
 73
18
 74
18
 0
VERTEX
 8
MESH_245_F0
 10
0
 20
0
 30
0
 70
128
 71
14
 72
13
 73
17
 74
17
 0
VERTEX
 8
MESH_245_F0
 10
0
 20
0
 30
0
 70
128
 71
15
 72
14
 73
16
 74
16
 0
VERTEX
 8
MESH_245_F0
 10
0
 20
0
 30
0
 70
128
 71
14
 72
17
 73
16
 74
16
 0
VERTEX
 8
MESH_245_F0
 10
0
 20
0
 30
0
 70
128
 71
13
 72
18
 73
17
 74
17
 0
VERTEX
 8
MESH_245_F0
 10
0
 20
0
 30
0
 70
128
 71
12
 72
19
 73
18
 74
18
 0
VERTEX
 8
MESH_245_F0
 10
0
 20
0
 30
0
 70
128
 71
11
 72
20
 73
19
 74
19
 0
VERTEX
 8
MESH_245_F0
 10
0
 20
0
 30
0
 70
128
 71
10
 72
21
 73
20
 74
20
 0
VERTEX
 8
MESH_245_F0
 10
0
 20
0
 30
0
 70
128
 71
9
 72
22
 73
21
 74
21
 0
VERTEX
 8
MESH_245_F0
 10
0
 20
0
 30
0
 70
128
 71
8
 72
23
 73
22
 74
22
 0
VERTEX
 8
MESH_245_F0
 10
0
 20
0
 30
0
 70
128
 71
7
 72
24
 73
23
 74
23
 0
VERTEX
 8
MESH_245_F0
 10
0
 20
0
 30
0
 70
128
 71
6
 72
25
 73
24
 74
24
 0
VERTEX
 8
MESH_245_F0
 10
0
 20
0
 30
0
 70
128
 71
5
 72
26
 73
25
 74
25
 0
VERTEX
 8
MESH_245_F0
 10
0
 20
0
 30
0
 70
128
 71
4
 72
27
 73
26
 74
26
 0
VERTEX
 8
MESH_245_F0
 10
0
 20
0
 30
0
 70
128
 71
3
 72
28
 73
27
 74
27
 0
VERTEX
 8
MESH_245_F0
 10
0
 20
0
 30
0
 70
128
 71
2
 72
29
 73
28
 74
28
 0
SEQEND
 0
POLYLINE
 8
MESH_244_F0
 66
1
 10
0.0
 20
0.0
 30
0.0
 70
64
 71
4
 72
2
 0
VERTEX
 8
MESH_244_F0
 10
-176.001
 20
-350
 30
2004.9999
 70
192
 0
VERTEX
 8
MESH_244_F0
 10
-176.001
 20
-350
 30
830.9999
 70
192
 0
VERTEX
 8
MESH_244_F0
 10
176.001
 20
-350
 30
830.9999
 70
192
 0
VERTEX
 8
MESH_244_F0
 10
176.001
 20
-350
 30
2004.9999
 70
192
 0
VERTEX
 8
MESH_244_F0
 10
0
 20
0
 30
0
 70
128
 71
1
 72
3
 73
2
 74
2
 0
VERTEX
 8
MESH_244_F0
 10
0
 20
0
 30
0
 70
128
 71
4
 72
3
 73
1
 74
1
 0
SEQEND
 0
POLYLINE
 8
MESH_243_F0
 66
1
 10
0.0
 20
0.0
 30
0.0
 70
64
 71
30
 72
28
 0
VERTEX
 8
MESH_243_F0
 10
200.9198
 20
-323
 30
2004.9999
 70
192
 0
VERTEX
 8
MESH_243_F0
 10
200.9821
 20
-325.9456
 30
2004.9999
 70
192
 0
VERTEX
 8
MESH_243_F0
 10
200.6975
 20
-328.8781
 30
2004.9999
 70
192
 0
VERTEX
 8
MESH_243_F0
 10
200.0699
 20
-331.7567
 30
2004.9999
 70
192
 0
VERTEX
 8
MESH_243_F0
 10
199.1079
 20
-334.5415
 30
2004.9999
 70
192
 0
VERTEX
 8
MESH_243_F0
 10
197.825
 20
-337.1938
 30
2004.9999
 70
192
 0
VERTEX
 8
MESH_243_F0
 10
196.239
 20
-339.6767
 30
2004.9999
 70
192
 0
VERTEX
 8
MESH_243_F0
 10
194.3718
 20
-341.9557
 30
2004.9999
 70
192
 0
VERTEX
 8
MESH_243_F0
 10
192.2495
 20
-343.9993
 30
2004.9999
 70
192
 0
VERTEX
 8
MESH_243_F0
 10
189.9015
 20
-345.779
 30
2004.9999
 70
192
 0
VERTEX
 8
MESH_243_F0
 10
187.3604
 20
-347.2701
 30
2004.9999
 70
192
 0
VERTEX
 8
MESH_243_F0
 10
184.6616
 20
-348.4519
 30
2004.9999
 70
192
 0
VERTEX
 8
MESH_243_F0
 10
181.8424
 20
-349.3079
 30
2004.9999
 70
192
 0
VERTEX
 8
MESH_243_F0
 10
178.9421
 20
-349.8264
 30
2004.9999
 70
192
 0
VERTEX
 8
MESH_243_F0
 10
176.001
 20
-350
 30
2004.9999
 70
192
 0
VERTEX
 8
MESH_243_F0
 10
176.001
 20
-350
 30
830.9999
 70
192
 0
VERTEX
 8
MESH_243_F0
 10
178.9421
 20
-349.8264
 30
830.9999
 70
192
 0
VERTEX
 8
MESH_243_F0
 10
181.8424
 20
-349.3079
 30
830.9999
 70
192
 0
VERTEX
 8
MESH_243_F0
 10
184.6616
 20
-348.4519
 30
830.9999
 70
192
 0
VERTEX
 8
MESH_243_F0
 10
187.3604
 20
-347.2701
 30
830.9999
 70
192
 0
VERTEX
 8
MESH_243_F0
 10
189.9015
 20
-345.779
 30
830.9999
 70
192
 0
VERTEX
 8
MESH_243_F0
 10
192.2495
 20
-343.9993
 30
830.9999
 70
192
 0
VERTEX
 8
MESH_243_F0
 10
194.3718
 20
-341.9557
 30
830.9999
 70
192
 0
VERTEX
 8
MESH_243_F0
 10
196.239
 20
-339.6767
 30
830.9999
 70
192
 0
VERTEX
 8
MESH_243_F0
 10
197.825
 20
-337.1938
 30
830.9999
 70
192
 0
VERTEX
 8
MESH_243_F0
 10
199.1079
 20
-334.5415
 30
830.9999
 70
192
 0
VERTEX
 8
MESH_243_F0
 10
200.0699
 20
-331.7567
 30
830.9999
 70
192
 0
VERTEX
 8
MESH_243_F0
 10
200.6975
 20
-328.8781
 30
830.9999
 70
192
 0
VERTEX
 8
MESH_243_F0
 10
200.9821
 20
-325.9456
 30
830.9999
 70
192
 0
VERTEX
 8
MESH_243_F0
 10
200.9198
 20
-323
 30
830.9999
 70
192
 0
VERTEX
 8
MESH_243_F0
 10
0
 20
0
 30
0
 70
128
 71
29
 72
1
 73
30
 74
30
 0
VERTEX
 8
MESH_243_F0
 10
0
 20
0
 30
0
 70
128
 71
2
 72
1
 73
29
 74
29
 0
VERTEX
 8
MESH_243_F0
 10
0
 20
0
 30
0
 70
128
 71
3
 72
2
 73
28
 74
28
 0
VERTEX
 8
MESH_243_F0
 10
0
 20
0
 30
0
 70
128
 71
4
 72
3
 73
27
 74
27
 0
VERTEX
 8
MESH_243_F0
 10
0
 20
0
 30
0
 70
128
 71
5
 72
4
 73
26
 74
26
 0
VERTEX
 8
MESH_243_F0
 10
0
 20
0
 30
0
 70
128
 71
6
 72
5
 73
25
 74
25
 0
VERTEX
 8
MESH_243_F0
 10
0
 20
0
 30
0
 70
128
 71
7
 72
6
 73
24
 74
24
 0
VERTEX
 8
MESH_243_F0
 10
0
 20
0
 30
0
 70
128
 71
8
 72
7
 73
23
 74
23
 0
VERTEX
 8
MESH_243_F0
 10
0
 20
0
 30
0
 70
128
 71
9
 72
8
 73
22
 74
22
 0
VERTEX
 8
MESH_243_F0
 10
0
 20
0
 30
0
 70
128
 71
10
 72
9
 73
21
 74
21
 0
VERTEX
 8
MESH_243_F0
 10
0
 20
0
 30
0
 70
128
 71
11
 72
10
 73
20
 74
20
 0
VERTEX
 8
MESH_243_F0
 10
0
 20
0
 30
0
 70
128
 71
12
 72
11
 73
19
 74
19
 0
VERTEX
 8
MESH_243_F0
 10
0
 20
0
 30
0
 70
128
 71
13
 72
12
 73
18
 74
18
 0
VERTEX
 8
MESH_243_F0
 10
0
 20
0
 30
0
 70
128
 71
14
 72
13
 73
17
 74
17
 0
VERTEX
 8
MESH_243_F0
 10
0
 20
0
 30
0
 70
128
 71
15
 72
14
 73
16
 74
16
 0
VERTEX
 8
MESH_243_F0
 10
0
 20
0
 30
0
 70
128
 71
14
 72
17
 73
16
 74
16
 0
VERTEX
 8
MESH_243_F0
 10
0
 20
0
 30
0
 70
128
 71
13
 72
18
 73
17
 74
17
 0
VERTEX
 8
MESH_243_F0
 10
0
 20
0
 30
0
 70
128
 71
12
 72
19
 73
18
 74
18
 0
VERTEX
 8
MESH_243_F0
 10
0
 20
0
 30
0
 70
128
 71
11
 72
20
 73
19
 74
19
 0
VERTEX
 8
MESH_243_F0
 10
0
 20
0
 30
0
 70
128
 71
10
 72
21
 73
20
 74
20
 0
VERTEX
 8
MESH_243_F0
 10
0
 20
0
 30
0
 70
128
 71
9
 72
22
 73
21
 74
21
 0
VERTEX
 8
MESH_243_F0
 10
0
 20
0
 30
0
 70
128
 71
8
 72
23
 73
22
 74
22
 0
VERTEX
 8
MESH_243_F0
 10
0
 20
0
 30
0
 70
128
 71
7
 72
24
 73
23
 74
23
 0
VERTEX
 8
MESH_243_F0
 10
0
 20
0
 30
0
 70
128
 71
6
 72
25
 73
24
 74
24
 0
VERTEX
 8
MESH_243_F0
 10
0
 20
0
 30
0
 70
128
 71
5
 72
26
 73
25
 74
25
 0
VERTEX
 8
MESH_243_F0
 10
0
 20
0
 30
0
 70
128
 71
4
 72
27
 73
26
 74
26
 0
VERTEX
 8
MESH_243_F0
 10
0
 20
0
 30
0
 70
128
 71
3
 72
28
 73
27
 74
27
 0
VERTEX
 8
MESH_243_F0
 10
0
 20
0
 30
0
 70
128
 71
2
 72
29
 73
28
 74
28
 0
SEQEND
 0
POLYLINE
 8
MESH_242_F0
 66
1
 10
0.0
 20
0.0
 30
0.0
 70
64
 71
34
 72
32
 0
VERTEX
 8
MESH_242_F0
 10
-201.5
 20
-325
 30
828
 70
192
 0
VERTEX
 8
MESH_242_F0
 10
-201.5
 20
-325
 30
824
 70
192
 0
VERTEX
 8
MESH_242_F0
 10
-201.3751
 20
-327.5143
 30
824
 70
192
 0
VERTEX
 8
MESH_242_F0
 10
-201.0082
 20
-329.9841
 30
824
 70
192
 0
VERTEX
 8
MESH_242_F0
 10
-200.3993
 20
-332.4092
 30
824
 70
192
 0
VERTEX
 8
MESH_242_F0
 10
-199.5548
 20
-334.7683
 30
824
 70
192
 0
VERTEX
 8
MESH_242_F0
 10
-198.4847
 20
-337.0289
 30
824
 70
192
 0
VERTEX
 8
MESH_242_F0
 10
-197.1988
 20
-339.1724
 30
824
 70
192
 0
VERTEX
 8
MESH_242_F0
 10
-195.7097
 20
-341.1792
 30
824
 70
192
 0
VERTEX
 8
MESH_242_F0
 10
-194.0313
 20
-343.031
 30
824
 70
192
 0
VERTEX
 8
MESH_242_F0
 10
-192.1795
 20
-344.7095
 30
824
 70
192
 0
VERTEX
 8
MESH_242_F0
 10
-190.1728
 20
-346.1986
 30
824
 70
192
 0
VERTEX
 8
MESH_242_F0
 10
-188.0292
 20
-347.4845
 30
824
 70
192
 0
VERTEX
 8
MESH_242_F0
 10
-185.7686
 20
-348.5547
 30
824
 70
192
 0
VERTEX
 8
MESH_242_F0
 10
-183.4094
 20
-349.3993
 30
824
 70
192
 0
VERTEX
 8
MESH_242_F0
 10
-180.9843
 20
-350.0081
 30
824
 70
192
 0
VERTEX
 8
MESH_242_F0
 10
-178.5144
 20
-350.3751
 30
824
 70
192
 0
VERTEX
 8
MESH_242_F0
 10
-176
 20
-350.5
 30
824
 70
192
 0
VERTEX
 8
MESH_242_F0
 10
-176
 20
-350.5
 30
828
 70
192
 0
VERTEX
 8
MESH_242_F0
 10
-178.5143
 20
-350.3752
 30
828
 70
192
 0
VERTEX
 8
MESH_242_F0
 10
-180.9841
 20
-350.0081
 30
828
 70
192
 0
VERTEX
 8
MESH_242_F0
 10
-183.4092
 20
-349.3993
 30
828
 70
192
 0
VERTEX
 8
MESH_242_F0
 10
-185.7683
 20
-348.5548
 30
828
 70
192
 0
VERTEX
 8
MESH_242_F0
 10
-188.0289
 20
-347.4847
 30
828
 70
192
 0
VERTEX
 8
MESH_242_F0
 10
-190.1725
 20
-346.1988
 30
828
 70
192
 0
VERTEX
 8
MESH_242_F0
 10
-192.1792
 20
-344.7097
 30
828
 70
192
 0
VERTEX
 8
MESH_242_F0
 10
-194.031
 20
-343.0313
 30
828
 70
192
 0
VERTEX
 8
MESH_242_F0
 10
-195.7095
 20
-341.1795
 30
828
 70
192
 0
VERTEX
 8
MESH_242_F0
 10
-197.1986
 20
-339.1728
 30
828
 70
192
 0
VERTEX
 8
MESH_242_F0
 10
-198.4845
 20
-337.0292
 30
828
 70
192
 0
VERTEX
 8
MESH_242_F0
 10
-199.5547
 20
-334.7686
 30
828
 70
192
 0
VERTEX
 8
MESH_242_F0
 10
-200.3993
 20
-332.4094
 30
828
 70
192
 0
VERTEX
 8
MESH_242_F0
 10
-201.0081
 20
-329.9843
 30
828
 70
192
 0
VERTEX
 8
MESH_242_F0
 10
-201.3751
 20
-327.5143
 30
828
 70
192
 0
VERTEX
 8
MESH_242_F0
 10
0
 20
0
 30
0
 70
128
 71
34
 72
2
 73
1
 74
1
 0
VERTEX
 8
MESH_242_F0
 10
0
 20
0
 30
0
 70
128
 71
3
 72
2
 73
34
 74
34
 0
VERTEX
 8
MESH_242_F0
 10
0
 20
0
 30
0
 70
128
 71
3
 72
34
 73
4
 74
4
 0
VERTEX
 8
MESH_242_F0
 10
0
 20
0
 30
0
 70
128
 71
34
 72
33
 73
4
 74
4
 0
VERTEX
 8
MESH_242_F0
 10
0
 20
0
 30
0
 70
128
 71
33
 72
5
 73
4
 74
4
 0
VERTEX
 8
MESH_242_F0
 10
0
 20
0
 30
0
 70
128
 71
32
 72
5
 73
33
 74
33
 0
VERTEX
 8
MESH_242_F0
 10
0
 20
0
 30
0
 70
128
 71
6
 72
5
 73
32
 74
32
 0
VERTEX
 8
MESH_242_F0
 10
0
 20
0
 30
0
 70
128
 71
7
 72
6
 73
31
 74
31
 0
VERTEX
 8
MESH_242_F0
 10
0
 20
0
 30
0
 70
128
 71
8
 72
7
 73
30
 74
30
 0
VERTEX
 8
MESH_242_F0
 10
0
 20
0
 30
0
 70
128
 71
9
 72
8
 73
29
 74
29
 0
VERTEX
 8
MESH_242_F0
 10
0
 20
0
 30
0
 70
128
 71
10
 72
9
 73
28
 74
28
 0
VERTEX
 8
MESH_242_F0
 10
0
 20
0
 30
0
 70
128
 71
11
 72
10
 73
27
 74
27
 0
VERTEX
 8
MESH_242_F0
 10
0
 20
0
 30
0
 70
128
 71
12
 72
11
 73
26
 74
26
 0
VERTEX
 8
MESH_242_F0
 10
0
 20
0
 30
0
 70
128
 71
13
 72
12
 73
25
 74
25
 0
VERTEX
 8
MESH_242_F0
 10
0
 20
0
 30
0
 70
128
 71
14
 72
13
 73
24
 74
24
 0
VERTEX
 8
MESH_242_F0
 10
0
 20
0
 30
0
 70
128
 71
15
 72
14
 73
23
 74
23
 0
VERTEX
 8
MESH_242_F0
 10
0
 20
0
 30
0
 70
128
 71
16
 72
15
 73
22
 74
22
 0
VERTEX
 8
MESH_242_F0
 10
0
 20
0
 30
0
 70
128
 71
17
 72
16
 73
21
 74
21
 0
VERTEX
 8
MESH_242_F0
 10
0
 20
0
 30
0
 70
128
 71
18
 72
17
 73
20
 74
20
 0
VERTEX
 8
MESH_242_F0
 10
0
 20
0
 30
0
 70
128
 71
18
 72
20
 73
19
 74
19
 0
VERTEX
 8
MESH_242_F0
 10
0
 20
0
 30
0
 70
128
 71
17
 72
21
 73
20
 74
20
 0
VERTEX
 8
MESH_242_F0
 10
0
 20
0
 30
0
 70
128
 71
16
 72
22
 73
21
 74
21
 0
VERTEX
 8
MESH_242_F0
 10
0
 20
0
 30
0
 70
128
 71
15
 72
23
 73
22
 74
22
 0
VERTEX
 8
MESH_242_F0
 10
0
 20
0
 30
0
 70
128
 71
14
 72
24
 73
23
 74
23
 0
VERTEX
 8
MESH_242_F0
 10
0
 20
0
 30
0
 70
128
 71
13
 72
25
 73
24
 74
24
 0
VERTEX
 8
MESH_242_F0
 10
0
 20
0
 30
0
 70
128
 71
12
 72
26
 73
25
 74
25
 0
VERTEX
 8
MESH_242_F0
 10
0
 20
0
 30
0
 70
128
 71
11
 72
27
 73
26
 74
26
 0
VERTEX
 8
MESH_242_F0
 10
0
 20
0
 30
0
 70
128
 71
10
 72
28
 73
27
 74
27
 0
VERTEX
 8
MESH_242_F0
 10
0
 20
0
 30
0
 70
128
 71
9
 72
29
 73
28
 74
28
 0
VERTEX
 8
MESH_242_F0
 10
0
 20
0
 30
0
 70
128
 71
8
 72
30
 73
29
 74
29
 0
VERTEX
 8
MESH_242_F0
 10
0
 20
0
 30
0
 70
128
 71
7
 72
31
 73
30
 74
30
 0
VERTEX
 8
MESH_242_F0
 10
0
 20
0
 30
0
 70
128
 71
6
 72
32
 73
31
 74
31
 0
SEQEND
 0
POLYLINE
 8
MESH_241_F0
 66
1
 10
0.0
 20
0.0
 30
0.0
 70
64
 71
4
 72
2
 0
VERTEX
 8
MESH_241_F0
 10
176
 20
-350.5
 30
824
 70
192
 0
VERTEX
 8
MESH_241_F0
 10
176
 20
-350.5
 30
828
 70
192
 0
VERTEX
 8
MESH_241_F0
 10
-176
 20
-350.5
 30
828
 70
192
 0
VERTEX
 8
MESH_241_F0
 10
-176
 20
-350.5
 30
824
 70
192
 0
VERTEX
 8
MESH_241_F0
 10
0
 20
0
 30
0
 70
128
 71
1
 72
3
 73
2
 74
2
 0
VERTEX
 8
MESH_241_F0
 10
0
 20
0
 30
0
 70
128
 71
4
 72
3
 73
1
 74
1
 0
SEQEND
 0
POLYLINE
 8
MESH_240_F0
 66
1
 10
0.0
 20
0.0
 30
0.0
 70
64
 71
34
 72
32
 0
VERTEX
 8
MESH_240_F0
 10
176
 20
-350.5
 30
828
 70
192
 0
VERTEX
 8
MESH_240_F0
 10
176
 20
-350.5
 30
824
 70
192
 0
VERTEX
 8
MESH_240_F0
 10
178.5143
 20
-350.3752
 30
824
 70
192
 0
VERTEX
 8
MESH_240_F0
 10
180.9841
 20
-350.0081
 30
824
 70
192
 0
VERTEX
 8
MESH_240_F0
 10
183.4092
 20
-349.3993
 30
824
 70
192
 0
VERTEX
 8
MESH_240_F0
 10
185.7683
 20
-348.5548
 30
824
 70
192
 0
VERTEX
 8
MESH_240_F0
 10
188.0289
 20
-347.4847
 30
824
 70
192
 0
VERTEX
 8
MESH_240_F0
 10
190.1725
 20
-346.1988
 30
824
 70
192
 0
VERTEX
 8
MESH_240_F0
 10
192.1792
 20
-344.7097
 30
824
 70
192
 0
VERTEX
 8
MESH_240_F0
 10
194.031
 20
-343.0313
 30
824
 70
192
 0
VERTEX
 8
MESH_240_F0
 10
195.7095
 20
-341.1795
 30
824
 70
192
 0
VERTEX
 8
MESH_240_F0
 10
197.1986
 20
-339.1728
 30
824
 70
192
 0
VERTEX
 8
MESH_240_F0
 10
198.4845
 20
-337.0292
 30
824
 70
192
 0
VERTEX
 8
MESH_240_F0
 10
199.5547
 20
-334.7686
 30
824
 70
192
 0
VERTEX
 8
MESH_240_F0
 10
200.3993
 20
-332.4094
 30
824
 70
192
 0
VERTEX
 8
MESH_240_F0
 10
201.0081
 20
-329.9843
 30
824
 70
192
 0
VERTEX
 8
MESH_240_F0
 10
201.3751
 20
-327.5143
 30
824
 70
192
 0
VERTEX
 8
MESH_240_F0
 10
201.5
 20
-325
 30
824
 70
192
 0
VERTEX
 8
MESH_240_F0
 10
201.5
 20
-325
 30
828
 70
192
 0
VERTEX
 8
MESH_240_F0
 10
201.3751
 20
-327.5143
 30
828
 70
192
 0
VERTEX
 8
MESH_240_F0
 10
201.0082
 20
-329.9841
 30
828
 70
192
 0
VERTEX
 8
MESH_240_F0
 10
200.3993
 20
-332.4092
 30
828
 70
192
 0
VERTEX
 8
MESH_240_F0
 10
199.5548
 20
-334.7683
 30
828
 70
192
 0
VERTEX
 8
MESH_240_F0
 10
198.4847
 20
-337.0289
 30
828
 70
192
 0
VERTEX
 8
MESH_240_F0
 10
197.1988
 20
-339.1724
 30
828
 70
192
 0
VERTEX
 8
MESH_240_F0
 10
195.7097
 20
-341.1792
 30
828
 70
192
 0
VERTEX
 8
MESH_240_F0
 10
194.0313
 20
-343.031
 30
828
 70
192
 0
VERTEX
 8
MESH_240_F0
 10
192.1795
 20
-344.7095
 30
828
 70
192
 0
VERTEX
 8
MESH_240_F0
 10
190.1728
 20
-346.1986
 30
828
 70
192
 0
VERTEX
 8
MESH_240_F0
 10
188.0292
 20
-347.4845
 30
828
 70
192
 0
VERTEX
 8
MESH_240_F0
 10
185.7686
 20
-348.5547
 30
828
 70
192
 0
VERTEX
 8
MESH_240_F0
 10
183.4094
 20
-349.3993
 30
828
 70
192
 0
VERTEX
 8
MESH_240_F0
 10
180.9843
 20
-350.0081
 30
828
 70
192
 0
VERTEX
 8
MESH_240_F0
 10
178.5144
 20
-350.3751
 30
828
 70
192
 0
VERTEX
 8
MESH_240_F0
 10
0
 20
0
 30
0
 70
128
 71
34
 72
2
 73
1
 74
1
 0
VERTEX
 8
MESH_240_F0
 10
0
 20
0
 30
0
 70
128
 71
3
 72
2
 73
34
 74
34
 0
VERTEX
 8
MESH_240_F0
 10
0
 20
0
 30
0
 70
128
 71
3
 72
34
 73
4
 74
4
 0
VERTEX
 8
MESH_240_F0
 10
0
 20
0
 30
0
 70
128
 71
34
 72
33
 73
4
 74
4
 0
VERTEX
 8
MESH_240_F0
 10
0
 20
0
 30
0
 70
128
 71
33
 72
5
 73
4
 74
4
 0
VERTEX
 8
MESH_240_F0
 10
0
 20
0
 30
0
 70
128
 71
32
 72
5
 73
33
 74
33
 0
VERTEX
 8
MESH_240_F0
 10
0
 20
0
 30
0
 70
128
 71
6
 72
5
 73
32
 74
32
 0
VERTEX
 8
MESH_240_F0
 10
0
 20
0
 30
0
 70
128
 71
7
 72
6
 73
31
 74
31
 0
VERTEX
 8
MESH_240_F0
 10
0
 20
0
 30
0
 70
128
 71
8
 72
7
 73
30
 74
30
 0
VERTEX
 8
MESH_240_F0
 10
0
 20
0
 30
0
 70
128
 71
9
 72
8
 73
29
 74
29
 0
VERTEX
 8
MESH_240_F0
 10
0
 20
0
 30
0
 70
128
 71
10
 72
9
 73
28
 74
28
 0
VERTEX
 8
MESH_240_F0
 10
0
 20
0
 30
0
 70
128
 71
11
 72
10
 73
27
 74
27
 0
VERTEX
 8
MESH_240_F0
 10
0
 20
0
 30
0
 70
128
 71
12
 72
11
 73
26
 74
26
 0
VERTEX
 8
MESH_240_F0
 10
0
 20
0
 30
0
 70
128
 71
13
 72
12
 73
25
 74
25
 0
VERTEX
 8
MESH_240_F0
 10
0
 20
0
 30
0
 70
128
 71
14
 72
13
 73
24
 74
24
 0
VERTEX
 8
MESH_240_F0
 10
0
 20
0
 30
0
 70
128
 71
15
 72
14
 73
23
 74
23
 0
VERTEX
 8
MESH_240_F0
 10
0
 20
0
 30
0
 70
128
 71
16
 72
15
 73
22
 74
22
 0
VERTEX
 8
MESH_240_F0
 10
0
 20
0
 30
0
 70
128
 71
17
 72
16
 73
21
 74
21
 0
VERTEX
 8
MESH_240_F0
 10
0
 20
0
 30
0
 70
128
 71
18
 72
17
 73
20
 74
20
 0
VERTEX
 8
MESH_240_F0
 10
0
 20
0
 30
0
 70
128
 71
18
 72
20
 73
19
 74
19
 0
VERTEX
 8
MESH_240_F0
 10
0
 20
0
 30
0
 70
128
 71
17
 72
21
 73
20
 74
20
 0
VERTEX
 8
MESH_240_F0
 10
0
 20
0
 30
0
 70
128
 71
16
 72
22
 73
21
 74
21
 0
VERTEX
 8
MESH_240_F0
 10
0
 20
0
 30
0
 70
128
 71
15
 72
23
 73
22
 74
22
 0
VERTEX
 8
MESH_240_F0
 10
0
 20
0
 30
0
 70
128
 71
14
 72
24
 73
23
 74
23
 0
VERTEX
 8
MESH_240_F0
 10
0
 20
0
 30
0
 70
128
 71
13
 72
25
 73
24
 74
24
 0
VERTEX
 8
MESH_240_F0
 10
0
 20
0
 30
0
 70
128
 71
12
 72
26
 73
25
 74
25
 0
VERTEX
 8
MESH_240_F0
 10
0
 20
0
 30
0
 70
128
 71
11
 72
27
 73
26
 74
26
 0
VERTEX
 8
MESH_240_F0
 10
0
 20
0
 30
0
 70
128
 71
10
 72
28
 73
27
 74
27
 0
VERTEX
 8
MESH_240_F0
 10
0
 20
0
 30
0
 70
128
 71
9
 72
29
 73
28
 74
28
 0
VERTEX
 8
MESH_240_F0
 10
0
 20
0
 30
0
 70
128
 71
8
 72
30
 73
29
 74
29
 0
VERTEX
 8
MESH_240_F0
 10
0
 20
0
 30
0
 70
128
 71
7
 72
31
 73
30
 74
30
 0
VERTEX
 8
MESH_240_F0
 10
0
 20
0
 30
0
 70
128
 71
6
 72
32
 73
31
 74
31
 0
SEQEND
 0
POLYLINE
 8
MESH_239_F0
 66
1
 10
0.0
 20
0.0
 30
0.0
 70
64
 71
4
 72
2
 0
VERTEX
 8
MESH_239_F0
 10
201.5
 20
-323
 30
828
 70
192
 0
VERTEX
 8
MESH_239_F0
 10
201.5
 20
-325
 30
828
 70
192
 0
VERTEX
 8
MESH_239_F0
 10
201.5
 20
-325
 30
824
 70
192
 0
VERTEX
 8
MESH_239_F0
 10
201.5
 20
-323
 30
824
 70
192
 0
VERTEX
 8
MESH_239_F0
 10
0
 20
0
 30
0
 70
128
 71
4
 72
2
 73
1
 74
1
 0
VERTEX
 8
MESH_239_F0
 10
0
 20
0
 30
0
 70
128
 71
3
 72
2
 73
4
 74
4
 0
SEQEND
 0
POLYLINE
 8
MESH_238_F0
 66
1
 10
0.0
 20
0.0
 30
0.0
 70
64
 71
4
 72
2
 0
VERTEX
 8
MESH_238_F0
 10
-176.001
 20
-350
 30
824
 70
192
 0
VERTEX
 8
MESH_238_F0
 10
-176.001
 20
-350
 30
356
 70
192
 0
VERTEX
 8
MESH_238_F0
 10
176.001
 20
-350
 30
356
 70
192
 0
VERTEX
 8
MESH_238_F0
 10
176.001
 20
-350
 30
824
 70
192
 0
VERTEX
 8
MESH_238_F0
 10
0
 20
0
 30
0
 70
128
 71
1
 72
3
 73
2
 74
2
 0
VERTEX
 8
MESH_238_F0
 10
0
 20
0
 30
0
 70
128
 71
4
 72
3
 73
1
 74
1
 0
SEQEND
 0
POLYLINE
 8
MESH_237_F0
 66
1
 10
0.0
 20
0.0
 30
0.0
 70
64
 71
30
 72
28
 0
VERTEX
 8
MESH_237_F0
 10
200.9198
 20
-323
 30
824
 70
192
 0
VERTEX
 8
MESH_237_F0
 10
200.9821
 20
-325.9456
 30
824
 70
192
 0
VERTEX
 8
MESH_237_F0
 10
200.6975
 20
-328.8781
 30
824
 70
192
 0
VERTEX
 8
MESH_237_F0
 10
200.0699
 20
-331.7567
 30
824
 70
192
 0
VERTEX
 8
MESH_237_F0
 10
199.1079
 20
-334.5415
 30
824
 70
192
 0
VERTEX
 8
MESH_237_F0
 10
197.825
 20
-337.1938
 30
824
 70
192
 0
VERTEX
 8
MESH_237_F0
 10
196.239
 20
-339.6767
 30
824
 70
192
 0
VERTEX
 8
MESH_237_F0
 10
194.3718
 20
-341.9557
 30
824
 70
192
 0
VERTEX
 8
MESH_237_F0
 10
192.2495
 20
-343.9993
 30
824
 70
192
 0
VERTEX
 8
MESH_237_F0
 10
189.9015
 20
-345.779
 30
824
 70
192
 0
VERTEX
 8
MESH_237_F0
 10
187.3604
 20
-347.2701
 30
824
 70
192
 0
VERTEX
 8
MESH_237_F0
 10
184.6616
 20
-348.4519
 30
824
 70
192
 0
VERTEX
 8
MESH_237_F0
 10
181.8424
 20
-349.3079
 30
824
 70
192
 0
VERTEX
 8
MESH_237_F0
 10
178.9421
 20
-349.8264
 30
824
 70
192
 0
VERTEX
 8
MESH_237_F0
 10
176.001
 20
-350
 30
824
 70
192
 0
VERTEX
 8
MESH_237_F0
 10
176.001
 20
-350
 30
356
 70
192
 0
VERTEX
 8
MESH_237_F0
 10
178.9421
 20
-349.8264
 30
356
 70
192
 0
VERTEX
 8
MESH_237_F0
 10
181.8424
 20
-349.3079
 30
356
 70
192
 0
VERTEX
 8
MESH_237_F0
 10
184.6616
 20
-348.4519
 30
356
 70
192
 0
VERTEX
 8
MESH_237_F0
 10
187.3604
 20
-347.2701
 30
356
 70
192
 0
VERTEX
 8
MESH_237_F0
 10
189.9015
 20
-345.779
 30
356
 70
192
 0
VERTEX
 8
MESH_237_F0
 10
192.2495
 20
-343.9993
 30
356
 70
192
 0
VERTEX
 8
MESH_237_F0
 10
194.3718
 20
-341.9557
 30
356
 70
192
 0
VERTEX
 8
MESH_237_F0
 10
196.239
 20
-339.6767
 30
356
 70
192
 0
VERTEX
 8
MESH_237_F0
 10
197.825
 20
-337.1938
 30
356
 70
192
 0
VERTEX
 8
MESH_237_F0
 10
199.1079
 20
-334.5415
 30
356
 70
192
 0
VERTEX
 8
MESH_237_F0
 10
200.0699
 20
-331.7567
 30
356
 70
192
 0
VERTEX
 8
MESH_237_F0
 10
200.6975
 20
-328.8781
 30
356
 70
192
 0
VERTEX
 8
MESH_237_F0
 10
200.9821
 20
-325.9456
 30
356
 70
192
 0
VERTEX
 8
MESH_237_F0
 10
200.9198
 20
-323
 30
356
 70
192
 0
VERTEX
 8
MESH_237_F0
 10
0
 20
0
 30
0
 70
128
 71
29
 72
1
 73
30
 74
30
 0
VERTEX
 8
MESH_237_F0
 10
0
 20
0
 30
0
 70
128
 71
2
 72
1
 73
29
 74
29
 0
VERTEX
 8
MESH_237_F0
 10
0
 20
0
 30
0
 70
128
 71
3
 72
2
 73
28
 74
28
 0
VERTEX
 8
MESH_237_F0
 10
0
 20
0
 30
0
 70
128
 71
4
 72
3
 73
27
 74
27
 0
VERTEX
 8
MESH_237_F0
 10
0
 20
0
 30
0
 70
128
 71
5
 72
4
 73
26
 74
26
 0
VERTEX
 8
MESH_237_F0
 10
0
 20
0
 30
0
 70
128
 71
6
 72
5
 73
25
 74
25
 0
VERTEX
 8
MESH_237_F0
 10
0
 20
0
 30
0
 70
128
 71
7
 72
6
 73
24
 74
24
 0
VERTEX
 8
MESH_237_F0
 10
0
 20
0
 30
0
 70
128
 71
8
 72
7
 73
23
 74
23
 0
VERTEX
 8
MESH_237_F0
 10
0
 20
0
 30
0
 70
128
 71
9
 72
8
 73
22
 74
22
 0
VERTEX
 8
MESH_237_F0
 10
0
 20
0
 30
0
 70
128
 71
10
 72
9
 73
21
 74
21
 0
VERTEX
 8
MESH_237_F0
 10
0
 20
0
 30
0
 70
128
 71
11
 72
10
 73
20
 74
20
 0
VERTEX
 8
MESH_237_F0
 10
0
 20
0
 30
0
 70
128
 71
12
 72
11
 73
19
 74
19
 0
VERTEX
 8
MESH_237_F0
 10
0
 20
0
 30
0
 70
128
 71
13
 72
12
 73
18
 74
18
 0
VERTEX
 8
MESH_237_F0
 10
0
 20
0
 30
0
 70
128
 71
14
 72
13
 73
17
 74
17
 0
VERTEX
 8
MESH_237_F0
 10
0
 20
0
 30
0
 70
128
 71
15
 72
14
 73
16
 74
16
 0
VERTEX
 8
MESH_237_F0
 10
0
 20
0
 30
0
 70
128
 71
14
 72
17
 73
16
 74
16
 0
VERTEX
 8
MESH_237_F0
 10
0
 20
0
 30
0
 70
128
 71
13
 72
18
 73
17
 74
17
 0
VERTEX
 8
MESH_237_F0
 10
0
 20
0
 30
0
 70
128
 71
12
 72
19
 73
18
 74
18
 0
VERTEX
 8
MESH_237_F0
 10
0
 20
0
 30
0
 70
128
 71
11
 72
20
 73
19
 74
19
 0
VERTEX
 8
MESH_237_F0
 10
0
 20
0
 30
0
 70
128
 71
10
 72
21
 73
20
 74
20
 0
VERTEX
 8
MESH_237_F0
 10
0
 20
0
 30
0
 70
128
 71
9
 72
22
 73
21
 74
21
 0
VERTEX
 8
MESH_237_F0
 10
0
 20
0
 30
0
 70
128
 71
8
 72
23
 73
22
 74
22
 0
VERTEX
 8
MESH_237_F0
 10
0
 20
0
 30
0
 70
128
 71
7
 72
24
 73
23
 74
23
 0
VERTEX
 8
MESH_237_F0
 10
0
 20
0
 30
0
 70
128
 71
6
 72
25
 73
24
 74
24
 0
VERTEX
 8
MESH_237_F0
 10
0
 20
0
 30
0
 70
128
 71
5
 72
26
 73
25
 74
25
 0
VERTEX
 8
MESH_237_F0
 10
0
 20
0
 30
0
 70
128
 71
4
 72
27
 73
26
 74
26
 0
VERTEX
 8
MESH_237_F0
 10
0
 20
0
 30
0
 70
128
 71
3
 72
28
 73
27
 74
27
 0
VERTEX
 8
MESH_237_F0
 10
0
 20
0
 30
0
 70
128
 71
2
 72
29
 73
28
 74
28
 0
SEQEND
 0
POLYLINE
 8
MESH_236_F0
 66
1
 10
0.0
 20
0.0
 30
0.0
 70
64
 71
4
 72
2
 0
VERTEX
 8
MESH_236_F0
 10
202.5
 20
0
 30
2004.9999
 70
192
 0
VERTEX
 8
MESH_236_F0
 10
202.5
 20
-323
 30
2004.9999
 70
192
 0
VERTEX
 8
MESH_236_F0
 10
202.5
 20
-323
 30
355
 70
192
 0
VERTEX
 8
MESH_236_F0
 10
202.5
 20
0
 30
355
 70
192
 0
VERTEX
 8
MESH_236_F0
 10
0
 20
0
 30
0
 70
128
 71
4
 72
2
 73
1
 74
1
 0
VERTEX
 8
MESH_236_F0
 10
0
 20
0
 30
0
 70
128
 71
3
 72
2
 73
4
 74
4
 0
SEQEND
 0
POLYLINE
 8
MESH_235_F0
 66
1
 10
0.0
 20
0.0
 30
0.0
 70
64
 71
4
 72
2
 0
VERTEX
 8
MESH_235_F0
 10
184.5
 20
0
 30
355
 70
192
 0
VERTEX
 8
MESH_235_F0
 10
202.5
 20
0
 30
355
 70
192
 0
VERTEX
 8
MESH_235_F0
 10
202.5
 20
-323
 30
355
 70
192
 0
VERTEX
 8
MESH_235_F0
 10
184.5
 20
-323
 30
355
 70
192
 0
VERTEX
 8
MESH_235_F0
 10
0
 20
0
 30
0
 70
128
 71
1
 72
3
 73
2
 74
2
 0
VERTEX
 8
MESH_235_F0
 10
0
 20
0
 30
0
 70
128
 71
4
 72
3
 73
1
 74
1
 0
SEQEND
 0
POLYLINE
 8
MESH_234_F0
 66
1
 10
0.0
 20
0.0
 30
0.0
 70
64
 71
4
 72
2
 0
VERTEX
 8
MESH_234_F0
 10
-184.5
 20
0
 30
355.5
 70
192
 0
VERTEX
 8
MESH_234_F0
 10
184.5
 20
0
 30
355.5
 70
192
 0
VERTEX
 8
MESH_234_F0
 10
184.5
 20
-322.5
 30
355.5
 70
192
 0
VERTEX
 8
MESH_234_F0
 10
-184.5
 20
-322.5
 30
355.5
 70
192
 0
VERTEX
 8
MESH_234_F0
 10
0
 20
0
 30
0
 70
128
 71
1
 72
3
 73
2
 74
2
 0
VERTEX
 8
MESH_234_F0
 10
0
 20
0
 30
0
 70
128
 71
4
 72
3
 73
1
 74
1
 0
SEQEND
 0
POLYLINE
 8
MESH_233_F0
 66
1
 10
0.0
 20
0.0
 30
0.0
 70
64
 71
4
 72
2
 0
VERTEX
 8
MESH_233_F0
 10
-184.5
 20
-322.5
 30
356
 70
192
 0
VERTEX
 8
MESH_233_F0
 10
-184.5
 20
-322.5
 30
355.5
 70
192
 0
VERTEX
 8
MESH_233_F0
 10
184.5
 20
-322.5
 30
355.5
 70
192
 0
VERTEX
 8
MESH_233_F0
 10
184.5
 20
-322.5
 30
356
 70
192
 0
VERTEX
 8
MESH_233_F0
 10
0
 20
0
 30
0
 70
128
 71
1
 72
3
 73
2
 74
2
 0
VERTEX
 8
MESH_233_F0
 10
0
 20
0
 30
0
 70
128
 71
4
 72
3
 73
1
 74
1
 0
SEQEND
 0
POLYLINE
 8
MESH_232_F0
 66
1
 10
0.0
 20
0.0
 30
0.0
 70
64
 71
6
 72
4
 0
VERTEX
 8
MESH_232_F0
 10
184.5
 20
-322.5
 30
356
 70
192
 0
VERTEX
 8
MESH_232_F0
 10
184.5
 20
-322.5
 30
355.5
 70
192
 0
VERTEX
 8
MESH_232_F0
 10
184.5
 20
0
 30
355.5
 70
192
 0
VERTEX
 8
MESH_232_F0
 10
184.5
 20
0
 30
355
 70
192
 0
VERTEX
 8
MESH_232_F0
 10
184.5
 20
-323
 30
355
 70
192
 0
VERTEX
 8
MESH_232_F0
 10
184.5
 20
-323
 30
356
 70
192
 0
VERTEX
 8
MESH_232_F0
 10
0
 20
0
 30
0
 70
128
 71
6
 72
2
 73
1
 74
1
 0
VERTEX
 8
MESH_232_F0
 10
0
 20
0
 30
0
 70
128
 71
5
 72
2
 73
6
 74
6
 0
VERTEX
 8
MESH_232_F0
 10
0
 20
0
 30
0
 70
128
 71
3
 72
2
 73
5
 74
5
 0
VERTEX
 8
MESH_232_F0
 10
0
 20
0
 30
0
 70
128
 71
3
 72
5
 73
4
 74
4
 0
SEQEND
 0
POLYLINE
 8
MESH_231_F0
 66
1
 10
0.0
 20
0.0
 30
0.0
 70
64
 71
34
 72
32
 0
VERTEX
 8
MESH_231_F0
 10
184.5
 20
-322.5
 30
356
 70
192
 0
VERTEX
 8
MESH_231_F0
 10
184.5
 20
-323
 30
356
 70
192
 0
VERTEX
 8
MESH_231_F0
 10
200.9198
 20
-323
 30
356
 70
192
 0
VERTEX
 8
MESH_231_F0
 10
200.9821
 20
-325.9456
 30
356
 70
192
 0
VERTEX
 8
MESH_231_F0
 10
200.6975
 20
-328.8781
 30
356
 70
192
 0
VERTEX
 8
MESH_231_F0
 10
200.0699
 20
-331.7567
 30
356
 70
192
 0
VERTEX
 8
MESH_231_F0
 10
199.1079
 20
-334.5415
 30
356
 70
192
 0
VERTEX
 8
MESH_231_F0
 10
197.825
 20
-337.1938
 30
356
 70
192
 0
VERTEX
 8
MESH_231_F0
 10
196.239
 20
-339.6767
 30
356
 70
192
 0
VERTEX
 8
MESH_231_F0
 10
194.3718
 20
-341.9557
 30
356
 70
192
 0
VERTEX
 8
MESH_231_F0
 10
192.2495
 20
-343.9993
 30
356
 70
192
 0
VERTEX
 8
MESH_231_F0
 10
189.9015
 20
-345.779
 30
356
 70
192
 0
VERTEX
 8
MESH_231_F0
 10
187.3604
 20
-347.2701
 30
356
 70
192
 0
VERTEX
 8
MESH_231_F0
 10
184.6616
 20
-348.4519
 30
356
 70
192
 0
VERTEX
 8
MESH_231_F0
 10
181.8424
 20
-349.3079
 30
356
 70
192
 0
VERTEX
 8
MESH_231_F0
 10
178.9421
 20
-349.8264
 30
356
 70
192
 0
VERTEX
 8
MESH_231_F0
 10
176.001
 20
-350
 30
356
 70
192
 0
VERTEX
 8
MESH_231_F0
 10
-176.001
 20
-350
 30
356
 70
192
 0
VERTEX
 8
MESH_231_F0
 10
-178.9421
 20
-349.8264
 30
356
 70
192
 0
VERTEX
 8
MESH_231_F0
 10
-181.8424
 20
-349.3079
 30
356
 70
192
 0
VERTEX
 8
MESH_231_F0
 10
-184.6616
 20
-348.4519
 30
356
 70
192
 0
VERTEX
 8
MESH_231_F0
 10
-187.3604
 20
-347.2701
 30
356
 70
192
 0
VERTEX
 8
MESH_231_F0
 10
-189.9015
 20
-345.779
 30
356
 70
192
 0
VERTEX
 8
MESH_231_F0
 10
-192.2495
 20
-343.9993
 30
356
 70
192
 0
VERTEX
 8
MESH_231_F0
 10
-194.3718
 20
-341.9557
 30
356
 70
192
 0
VERTEX
 8
MESH_231_F0
 10
-196.239
 20
-339.6767
 30
356
 70
192
 0
VERTEX
 8
MESH_231_F0
 10
-197.825
 20
-337.1938
 30
356
 70
192
 0
VERTEX
 8
MESH_231_F0
 10
-199.1079
 20
-334.5415
 30
356
 70
192
 0
VERTEX
 8
MESH_231_F0
 10
-200.0699
 20
-331.7567
 30
356
 70
192
 0
VERTEX
 8
MESH_231_F0
 10
-200.6975
 20
-328.8781
 30
356
 70
192
 0
VERTEX
 8
MESH_231_F0
 10
-200.9821
 20
-325.9456
 30
356
 70
192
 0
VERTEX
 8
MESH_231_F0
 10
-200.9198
 20
-323
 30
356
 70
192
 0
VERTEX
 8
MESH_231_F0
 10
-184.5
 20
-323
 30
356
 70
192
 0
VERTEX
 8
MESH_231_F0
 10
-184.5
 20
-322.5
 30
356
 70
192
 0
VERTEX
 8
MESH_231_F0
 10
0
 20
0
 30
0
 70
128
 71
34
 72
2
 73
1
 74
1
 0
VERTEX
 8
MESH_231_F0
 10
0
 20
0
 30
0
 70
128
 71
33
 72
2
 73
34
 74
34
 0
VERTEX
 8
MESH_231_F0
 10
0
 20
0
 30
0
 70
128
 71
30
 72
2
 73
33
 74
33
 0
VERTEX
 8
MESH_231_F0
 10
0
 20
0
 30
0
 70
128
 71
30
 72
33
 73
31
 74
31
 0
VERTEX
 8
MESH_231_F0
 10
0
 20
0
 30
0
 70
128
 71
33
 72
32
 73
31
 74
31
 0
VERTEX
 8
MESH_231_F0
 10
0
 20
0
 30
0
 70
128
 71
2
 72
4
 73
3
 74
3
 0
VERTEX
 8
MESH_231_F0
 10
0
 20
0
 30
0
 70
128
 71
5
 72
4
 73
2
 74
2
 0
VERTEX
 8
MESH_231_F0
 10
0
 20
0
 30
0
 70
128
 71
5
 72
2
 73
6
 74
6
 0
VERTEX
 8
MESH_231_F0
 10
0
 20
0
 30
0
 70
128
 71
2
 72
7
 73
6
 74
6
 0
VERTEX
 8
MESH_231_F0
 10
0
 20
0
 30
0
 70
128
 71
8
 72
7
 73
2
 74
2
 0
VERTEX
 8
MESH_231_F0
 10
0
 20
0
 30
0
 70
128
 71
8
 72
2
 73
9
 74
9
 0
VERTEX
 8
MESH_231_F0
 10
0
 20
0
 30
0
 70
128
 71
2
 72
28
 73
9
 74
9
 0
VERTEX
 8
MESH_231_F0
 10
0
 20
0
 30
0
 70
128
 71
28
 72
27
 73
9
 74
9
 0
VERTEX
 8
MESH_231_F0
 10
0
 20
0
 30
0
 70
128
 71
27
 72
10
 73
9
 74
9
 0
VERTEX
 8
MESH_231_F0
 10
0
 20
0
 30
0
 70
128
 71
11
 72
10
 73
27
 74
27
 0
VERTEX
 8
MESH_231_F0
 10
0
 20
0
 30
0
 70
128
 71
11
 72
27
 73
12
 74
12
 0
VERTEX
 8
MESH_231_F0
 10
0
 20
0
 30
0
 70
128
 71
27
 72
13
 73
12
 74
12
 0
VERTEX
 8
MESH_231_F0
 10
0
 20
0
 30
0
 70
128
 71
14
 72
13
 73
27
 74
27
 0
VERTEX
 8
MESH_231_F0
 10
0
 20
0
 30
0
 70
128
 71
14
 72
27
 73
15
 74
15
 0
VERTEX
 8
MESH_231_F0
 10
0
 20
0
 30
0
 70
128
 71
27
 72
26
 73
15
 74
15
 0
VERTEX
 8
MESH_231_F0
 10
0
 20
0
 30
0
 70
128
 71
26
 72
25
 73
15
 74
15
 0
VERTEX
 8
MESH_231_F0
 10
0
 20
0
 30
0
 70
128
 71
25
 72
24
 73
15
 74
15
 0
VERTEX
 8
MESH_231_F0
 10
0
 20
0
 30
0
 70
128
 71
24
 72
23
 73
15
 74
15
 0
VERTEX
 8
MESH_231_F0
 10
0
 20
0
 30
0
 70
128
 71
23
 72
22
 73
15
 74
15
 0
VERTEX
 8
MESH_231_F0
 10
0
 20
0
 30
0
 70
128
 71
22
 72
18
 73
15
 74
15
 0
VERTEX
 8
MESH_231_F0
 10
0
 20
0
 30
0
 70
128
 71
18
 72
17
 73
15
 74
15
 0
VERTEX
 8
MESH_231_F0
 10
0
 20
0
 30
0
 70
128
 71
17
 72
16
 73
15
 74
15
 0
VERTEX
 8
MESH_231_F0
 10
0
 20
0
 30
0
 70
128
 71
18
 72
20
 73
19
 74
19
 0
VERTEX
 8
MESH_231_F0
 10
0
 20
0
 30
0
 70
128
 71
21
 72
20
 73
18
 74
18
 0
VERTEX
 8
MESH_231_F0
 10
0
 20
0
 30
0
 70
128
 71
21
 72
18
 73
22
 74
22
 0
VERTEX
 8
MESH_231_F0
 10
0
 20
0
 30
0
 70
128
 71
2
 72
29
 73
28
 74
28
 0
VERTEX
 8
MESH_231_F0
 10
0
 20
0
 30
0
 70
128
 71
30
 72
29
 73
2
 74
2
 0
SEQEND
 0
POLYLINE
 8
MESH_230_F0
 66
1
 10
0.0
 20
0.0
 30
0.0
 70
64
 71
30
 72
28
 0
VERTEX
 8
MESH_230_F0
 10
-200.9198
 20
-323
 30
356
 70
192
 0
VERTEX
 8
MESH_230_F0
 10
-200.9821
 20
-325.9456
 30
356
 70
192
 0
VERTEX
 8
MESH_230_F0
 10
-200.6975
 20
-328.8781
 30
356
 70
192
 0
VERTEX
 8
MESH_230_F0
 10
-200.0699
 20
-331.7567
 30
356
 70
192
 0
VERTEX
 8
MESH_230_F0
 10
-199.1079
 20
-334.5415
 30
356
 70
192
 0
VERTEX
 8
MESH_230_F0
 10
-197.825
 20
-337.1938
 30
356
 70
192
 0
VERTEX
 8
MESH_230_F0
 10
-196.239
 20
-339.6767
 30
356
 70
192
 0
VERTEX
 8
MESH_230_F0
 10
-194.3718
 20
-341.9557
 30
356
 70
192
 0
VERTEX
 8
MESH_230_F0
 10
-192.2495
 20
-343.9993
 30
356
 70
192
 0
VERTEX
 8
MESH_230_F0
 10
-189.9015
 20
-345.779
 30
356
 70
192
 0
VERTEX
 8
MESH_230_F0
 10
-187.3604
 20
-347.2701
 30
356
 70
192
 0
VERTEX
 8
MESH_230_F0
 10
-184.6616
 20
-348.4519
 30
356
 70
192
 0
VERTEX
 8
MESH_230_F0
 10
-181.8424
 20
-349.3079
 30
356
 70
192
 0
VERTEX
 8
MESH_230_F0
 10
-178.9421
 20
-349.8264
 30
356
 70
192
 0
VERTEX
 8
MESH_230_F0
 10
-176.001
 20
-350
 30
356
 70
192
 0
VERTEX
 8
MESH_230_F0
 10
-176.001
 20
-350
 30
824
 70
192
 0
VERTEX
 8
MESH_230_F0
 10
-178.9421
 20
-349.8264
 30
824
 70
192
 0
VERTEX
 8
MESH_230_F0
 10
-181.8424
 20
-349.3079
 30
824
 70
192
 0
VERTEX
 8
MESH_230_F0
 10
-184.6616
 20
-348.4519
 30
824
 70
192
 0
VERTEX
 8
MESH_230_F0
 10
-187.3604
 20
-347.2701
 30
824
 70
192
 0
VERTEX
 8
MESH_230_F0
 10
-189.9015
 20
-345.779
 30
824
 70
192
 0
VERTEX
 8
MESH_230_F0
 10
-192.2495
 20
-343.9993
 30
824
 70
192
 0
VERTEX
 8
MESH_230_F0
 10
-194.3718
 20
-341.9557
 30
824
 70
192
 0
VERTEX
 8
MESH_230_F0
 10
-196.239
 20
-339.6767
 30
824
 70
192
 0
VERTEX
 8
MESH_230_F0
 10
-197.825
 20
-337.1938
 30
824
 70
192
 0
VERTEX
 8
MESH_230_F0
 10
-199.1079
 20
-334.5415
 30
824
 70
192
 0
VERTEX
 8
MESH_230_F0
 10
-200.0699
 20
-331.7567
 30
824
 70
192
 0
VERTEX
 8
MESH_230_F0
 10
-200.6975
 20
-328.8781
 30
824
 70
192
 0
VERTEX
 8
MESH_230_F0
 10
-200.9821
 20
-325.9456
 30
824
 70
192
 0
VERTEX
 8
MESH_230_F0
 10
-200.9198
 20
-323
 30
824
 70
192
 0
VERTEX
 8
MESH_230_F0
 10
0
 20
0
 30
0
 70
128
 71
29
 72
1
 73
30
 74
30
 0
VERTEX
 8
MESH_230_F0
 10
0
 20
0
 30
0
 70
128
 71
2
 72
1
 73
29
 74
29
 0
VERTEX
 8
MESH_230_F0
 10
0
 20
0
 30
0
 70
128
 71
3
 72
2
 73
28
 74
28
 0
VERTEX
 8
MESH_230_F0
 10
0
 20
0
 30
0
 70
128
 71
4
 72
3
 73
27
 74
27
 0
VERTEX
 8
MESH_230_F0
 10
0
 20
0
 30
0
 70
128
 71
5
 72
4
 73
26
 74
26
 0
VERTEX
 8
MESH_230_F0
 10
0
 20
0
 30
0
 70
128
 71
6
 72
5
 73
25
 74
25
 0
VERTEX
 8
MESH_230_F0
 10
0
 20
0
 30
0
 70
128
 71
7
 72
6
 73
24
 74
24
 0
VERTEX
 8
MESH_230_F0
 10
0
 20
0
 30
0
 70
128
 71
8
 72
7
 73
23
 74
23
 0
VERTEX
 8
MESH_230_F0
 10
0
 20
0
 30
0
 70
128
 71
9
 72
8
 73
22
 74
22
 0
VERTEX
 8
MESH_230_F0
 10
0
 20
0
 30
0
 70
128
 71
10
 72
9
 73
21
 74
21
 0
VERTEX
 8
MESH_230_F0
 10
0
 20
0
 30
0
 70
128
 71
11
 72
10
 73
20
 74
20
 0
VERTEX
 8
MESH_230_F0
 10
0
 20
0
 30
0
 70
128
 71
12
 72
11
 73
19
 74
19
 0
VERTEX
 8
MESH_230_F0
 10
0
 20
0
 30
0
 70
128
 71
13
 72
12
 73
18
 74
18
 0
VERTEX
 8
MESH_230_F0
 10
0
 20
0
 30
0
 70
128
 71
14
 72
13
 73
17
 74
17
 0
VERTEX
 8
MESH_230_F0
 10
0
 20
0
 30
0
 70
128
 71
15
 72
14
 73
16
 74
16
 0
VERTEX
 8
MESH_230_F0
 10
0
 20
0
 30
0
 70
128
 71
14
 72
17
 73
16
 74
16
 0
VERTEX
 8
MESH_230_F0
 10
0
 20
0
 30
0
 70
128
 71
13
 72
18
 73
17
 74
17
 0
VERTEX
 8
MESH_230_F0
 10
0
 20
0
 30
0
 70
128
 71
12
 72
19
 73
18
 74
18
 0
VERTEX
 8
MESH_230_F0
 10
0
 20
0
 30
0
 70
128
 71
11
 72
20
 73
19
 74
19
 0
VERTEX
 8
MESH_230_F0
 10
0
 20
0
 30
0
 70
128
 71
10
 72
21
 73
20
 74
20
 0
VERTEX
 8
MESH_230_F0
 10
0
 20
0
 30
0
 70
128
 71
9
 72
22
 73
21
 74
21
 0
VERTEX
 8
MESH_230_F0
 10
0
 20
0
 30
0
 70
128
 71
8
 72
23
 73
22
 74
22
 0
VERTEX
 8
MESH_230_F0
 10
0
 20
0
 30
0
 70
128
 71
7
 72
24
 73
23
 74
23
 0
VERTEX
 8
MESH_230_F0
 10
0
 20
0
 30
0
 70
128
 71
6
 72
25
 73
24
 74
24
 0
VERTEX
 8
MESH_230_F0
 10
0
 20
0
 30
0
 70
128
 71
5
 72
26
 73
25
 74
25
 0
VERTEX
 8
MESH_230_F0
 10
0
 20
0
 30
0
 70
128
 71
4
 72
27
 73
26
 74
26
 0
VERTEX
 8
MESH_230_F0
 10
0
 20
0
 30
0
 70
128
 71
3
 72
28
 73
27
 74
27
 0
VERTEX
 8
MESH_230_F0
 10
0
 20
0
 30
0
 70
128
 71
2
 72
29
 73
28
 74
28
 0
SEQEND
 0
POLYLINE
 8
MESH_229_F0
 66
1
 10
0.0
 20
0.0
 30
0.0
 70
64
 71
66
 72
64
 0
VERTEX
 8
MESH_229_F0
 10
-200.9198
 20
-323
 30
824
 70
192
 0
VERTEX
 8
MESH_229_F0
 10
-200.9821
 20
-325.9456
 30
824
 70
192
 0
VERTEX
 8
MESH_229_F0
 10
-200.6975
 20
-328.8781
 30
824
 70
192
 0
VERTEX
 8
MESH_229_F0
 10
-200.0699
 20
-331.7567
 30
824
 70
192
 0
VERTEX
 8
MESH_229_F0
 10
-199.1079
 20
-334.5415
 30
824
 70
192
 0
VERTEX
 8
MESH_229_F0
 10
-197.825
 20
-337.1938
 30
824
 70
192
 0
VERTEX
 8
MESH_229_F0
 10
-196.239
 20
-339.6767
 30
824
 70
192
 0
VERTEX
 8
MESH_229_F0
 10
-194.3718
 20
-341.9557
 30
824
 70
192
 0
VERTEX
 8
MESH_229_F0
 10
-192.2495
 20
-343.9993
 30
824
 70
192
 0
VERTEX
 8
MESH_229_F0
 10
-189.9015
 20
-345.779
 30
824
 70
192
 0
VERTEX
 8
MESH_229_F0
 10
-187.3604
 20
-347.2701
 30
824
 70
192
 0
VERTEX
 8
MESH_229_F0
 10
-184.6616
 20
-348.4519
 30
824
 70
192
 0
VERTEX
 8
MESH_229_F0
 10
-181.8424
 20
-349.3079
 30
824
 70
192
 0
VERTEX
 8
MESH_229_F0
 10
-178.9421
 20
-349.8264
 30
824
 70
192
 0
VERTEX
 8
MESH_229_F0
 10
-176.001
 20
-350
 30
824
 70
192
 0
VERTEX
 8
MESH_229_F0
 10
176.001
 20
-350
 30
824
 70
192
 0
VERTEX
 8
MESH_229_F0
 10
178.9421
 20
-349.8264
 30
824
 70
192
 0
VERTEX
 8
MESH_229_F0
 10
181.8424
 20
-349.3079
 30
824
 70
192
 0
VERTEX
 8
MESH_229_F0
 10
184.6616
 20
-348.4519
 30
824
 70
192
 0
VERTEX
 8
MESH_229_F0
 10
187.3604
 20
-347.2701
 30
824
 70
192
 0
VERTEX
 8
MESH_229_F0
 10
189.9015
 20
-345.779
 30
824
 70
192
 0
VERTEX
 8
MESH_229_F0
 10
192.2495
 20
-343.9993
 30
824
 70
192
 0
VERTEX
 8
MESH_229_F0
 10
194.3718
 20
-341.9557
 30
824
 70
192
 0
VERTEX
 8
MESH_229_F0
 10
196.239
 20
-339.6767
 30
824
 70
192
 0
VERTEX
 8
MESH_229_F0
 10
197.825
 20
-337.1938
 30
824
 70
192
 0
VERTEX
 8
MESH_229_F0
 10
199.1079
 20
-334.5415
 30
824
 70
192
 0
VERTEX
 8
MESH_229_F0
 10
200.0699
 20
-331.7567
 30
824
 70
192
 0
VERTEX
 8
MESH_229_F0
 10
200.6975
 20
-328.8781
 30
824
 70
192
 0
VERTEX
 8
MESH_229_F0
 10
200.9821
 20
-325.9456
 30
824
 70
192
 0
VERTEX
 8
MESH_229_F0
 10
200.9198
 20
-323
 30
824
 70
192
 0
VERTEX
 8
MESH_229_F0
 10
201.5
 20
-323
 30
824
 70
192
 0
VERTEX
 8
MESH_229_F0
 10
201.5
 20
-325
 30
824
 70
192
 0
VERTEX
 8
MESH_229_F0
 10
201.3751
 20
-327.5143
 30
824
 70
192
 0
VERTEX
 8
MESH_229_F0
 10
201.0081
 20
-329.9843
 30
824
 70
192
 0
VERTEX
 8
MESH_229_F0
 10
200.3993
 20
-332.4094
 30
824
 70
192
 0
VERTEX
 8
MESH_229_F0
 10
199.5547
 20
-334.7686
 30
824
 70
192
 0
VERTEX
 8
MESH_229_F0
 10
198.4845
 20
-337.0292
 30
824
 70
192
 0
VERTEX
 8
MESH_229_F0
 10
197.1986
 20
-339.1728
 30
824
 70
192
 0
VERTEX
 8
MESH_229_F0
 10
195.7095
 20
-341.1795
 30
824
 70
192
 0
VERTEX
 8
MESH_229_F0
 10
194.031
 20
-343.0313
 30
824
 70
192
 0
VERTEX
 8
MESH_229_F0
 10
192.1792
 20
-344.7097
 30
824
 70
192
 0
VERTEX
 8
MESH_229_F0
 10
190.1725
 20
-346.1988
 30
824
 70
192
 0
VERTEX
 8
MESH_229_F0
 10
188.0289
 20
-347.4847
 30
824
 70
192
 0
VERTEX
 8
MESH_229_F0
 10
185.7683
 20
-348.5548
 30
824
 70
192
 0
VERTEX
 8
MESH_229_F0
 10
183.4092
 20
-349.3993
 30
824
 70
192
 0
VERTEX
 8
MESH_229_F0
 10
180.9841
 20
-350.0081
 30
824
 70
192
 0
VERTEX
 8
MESH_229_F0
 10
178.5143
 20
-350.3752
 30
824
 70
192
 0
VERTEX
 8
MESH_229_F0
 10
176
 20
-350.5
 30
824
 70
192
 0
VERTEX
 8
MESH_229_F0
 10
-176
 20
-350.5
 30
824
 70
192
 0
VERTEX
 8
MESH_229_F0
 10
-178.5144
 20
-350.3751
 30
824
 70
192
 0
VERTEX
 8
MESH_229_F0
 10
-180.9843
 20
-350.0081
 30
824
 70
192
 0
VERTEX
 8
MESH_229_F0
 10
-183.4094
 20
-349.3993
 30
824
 70
192
 0
VERTEX
 8
MESH_229_F0
 10
-185.7686
 20
-348.5547
 30
824
 70
192
 0
VERTEX
 8
MESH_229_F0
 10
-188.0292
 20
-347.4845
 30
824
 70
192
 0
VERTEX
 8
MESH_229_F0
 10
-190.1728
 20
-346.1986
 30
824
 70
192
 0
VERTEX
 8
MESH_229_F0
 10
-192.1795
 20
-344.7095
 30
824
 70
192
 0
VERTEX
 8
MESH_229_F0
 10
-194.0313
 20
-343.031
 30
824
 70
192
 0
VERTEX
 8
MESH_229_F0
 10
-195.7097
 20
-341.1792
 30
824
 70
192
 0
VERTEX
 8
MESH_229_F0
 10
-197.1988
 20
-339.1724
 30
824
 70
192
 0
VERTEX
 8
MESH_229_F0
 10
-198.4847
 20
-337.0289
 30
824
 70
192
 0
VERTEX
 8
MESH_229_F0
 10
-199.5548
 20
-334.7683
 30
824
 70
192
 0
VERTEX
 8
MESH_229_F0
 10
-200.3993
 20
-332.4092
 30
824
 70
192
 0
VERTEX
 8
MESH_229_F0
 10
-201.0082
 20
-329.9841
 30
824
 70
192
 0
VERTEX
 8
MESH_229_F0
 10
-201.3751
 20
-327.5143
 30
824
 70
192
 0
VERTEX
 8
MESH_229_F0
 10
-201.5
 20
-325
 30
824
 70
192
 0
VERTEX
 8
MESH_229_F0
 10
-201.5
 20
-323
 30
824
 70
192
 0
VERTEX
 8
MESH_229_F0
 10
0
 20
0
 30
0
 70
128
 71
65
 72
1
 73
66
 74
66
 0
VERTEX
 8
MESH_229_F0
 10
0
 20
0
 30
0
 70
128
 71
2
 72
1
 73
65
 74
65
 0
VERTEX
 8
MESH_229_F0
 10
0
 20
0
 30
0
 70
128
 71
3
 72
2
 73
64
 74
64
 0
VERTEX
 8
MESH_229_F0
 10
0
 20
0
 30
0
 70
128
 71
4
 72
3
 73
63
 74
63
 0
VERTEX
 8
MESH_229_F0
 10
0
 20
0
 30
0
 70
128
 71
5
 72
4
 73
62
 74
62
 0
VERTEX
 8
MESH_229_F0
 10
0
 20
0
 30
0
 70
128
 71
60
 72
5
 73
61
 74
61
 0
VERTEX
 8
MESH_229_F0
 10
0
 20
0
 30
0
 70
128
 71
5
 72
62
 73
61
 74
61
 0
VERTEX
 8
MESH_229_F0
 10
0
 20
0
 30
0
 70
128
 71
60
 72
6
 73
5
 74
5
 0
VERTEX
 8
MESH_229_F0
 10
0
 20
0
 30
0
 70
128
 71
59
 72
6
 73
60
 74
60
 0
VERTEX
 8
MESH_229_F0
 10
0
 20
0
 30
0
 70
128
 71
7
 72
6
 73
59
 74
59
 0
VERTEX
 8
MESH_229_F0
 10
0
 20
0
 30
0
 70
128
 71
8
 72
7
 73
58
 74
58
 0
VERTEX
 8
MESH_229_F0
 10
0
 20
0
 30
0
 70
128
 71
9
 72
8
 73
57
 74
57
 0
VERTEX
 8
MESH_229_F0
 10
0
 20
0
 30
0
 70
128
 71
10
 72
9
 73
56
 74
56
 0
VERTEX
 8
MESH_229_F0
 10
0
 20
0
 30
0
 70
128
 71
11
 72
10
 73
55
 74
55
 0
VERTEX
 8
MESH_229_F0
 10
0
 20
0
 30
0
 70
128
 71
12
 72
11
 73
54
 74
54
 0
VERTEX
 8
MESH_229_F0
 10
0
 20
0
 30
0
 70
128
 71
13
 72
12
 73
53
 74
53
 0
VERTEX
 8
MESH_229_F0
 10
0
 20
0
 30
0
 70
128
 71
14
 72
13
 73
52
 74
52
 0
VERTEX
 8
MESH_229_F0
 10
0
 20
0
 30
0
 70
128
 71
15
 72
14
 73
51
 74
51
 0
VERTEX
 8
MESH_229_F0
 10
0
 20
0
 30
0
 70
128
 71
49
 72
15
 73
50
 74
50
 0
VERTEX
 8
MESH_229_F0
 10
0
 20
0
 30
0
 70
128
 71
15
 72
51
 73
50
 74
50
 0
VERTEX
 8
MESH_229_F0
 10
0
 20
0
 30
0
 70
128
 71
48
 72
15
 73
49
 74
49
 0
VERTEX
 8
MESH_229_F0
 10
0
 20
0
 30
0
 70
128
 71
16
 72
15
 73
48
 74
48
 0
VERTEX
 8
MESH_229_F0
 10
0
 20
0
 30
0
 70
128
 71
46
 72
16
 73
47
 74
47
 0
VERTEX
 8
MESH_229_F0
 10
0
 20
0
 30
0
 70
128
 71
16
 72
48
 73
47
 74
47
 0
VERTEX
 8
MESH_229_F0
 10
0
 20
0
 30
0
 70
128
 71
46
 72
17
 73
16
 74
16
 0
VERTEX
 8
MESH_229_F0
 10
0
 20
0
 30
0
 70
128
 71
45
 72
17
 73
46
 74
46
 0
VERTEX
 8
MESH_229_F0
 10
0
 20
0
 30
0
 70
128
 71
18
 72
17
 73
45
 74
45
 0
VERTEX
 8
MESH_229_F0
 10
0
 20
0
 30
0
 70
128
 71
19
 72
18
 73
44
 74
44
 0
VERTEX
 8
MESH_229_F0
 10
0
 20
0
 30
0
 70
128
 71
20
 72
19
 73
43
 74
43
 0
VERTEX
 8
MESH_229_F0
 10
0
 20
0
 30
0
 70
128
 71
21
 72
20
 73
42
 74
42
 0
VERTEX
 8
MESH_229_F0
 10
0
 20
0
 30
0
 70
128
 71
22
 72
21
 73
41
 74
41
 0
VERTEX
 8
MESH_229_F0
 10
0
 20
0
 30
0
 70
128
 71
23
 72
22
 73
40
 74
40
 0
VERTEX
 8
MESH_229_F0
 10
0
 20
0
 30
0
 70
128
 71
24
 72
23
 73
39
 74
39
 0
VERTEX
 8
MESH_229_F0
 10
0
 20
0
 30
0
 70
128
 71
25
 72
24
 73
38
 74
38
 0
VERTEX
 8
MESH_229_F0
 10
0
 20
0
 30
0
 70
128
 71
26
 72
25
 73
37
 74
37
 0
VERTEX
 8
MESH_229_F0
 10
0
 20
0
 30
0
 70
128
 71
35
 72
26
 73
36
 74
36
 0
VERTEX
 8
MESH_229_F0
 10
0
 20
0
 30
0
 70
128
 71
26
 72
37
 73
36
 74
36
 0
VERTEX
 8
MESH_229_F0
 10
0
 20
0
 30
0
 70
128
 71
35
 72
27
 73
26
 74
26
 0
VERTEX
 8
MESH_229_F0
 10
0
 20
0
 30
0
 70
128
 71
34
 72
27
 73
35
 74
35
 0
VERTEX
 8
MESH_229_F0
 10
0
 20
0
 30
0
 70
128
 71
28
 72
27
 73
34
 74
34
 0
VERTEX
 8
MESH_229_F0
 10
0
 20
0
 30
0
 70
128
 71
29
 72
28
 73
33
 74
33
 0
VERTEX
 8
MESH_229_F0
 10
0
 20
0
 30
0
 70
128
 71
30
 72
29
 73
32
 74
32
 0
VERTEX
 8
MESH_229_F0
 10
0
 20
0
 30
0
 70
128
 71
30
 72
32
 73
31
 74
31
 0
VERTEX
 8
MESH_229_F0
 10
0
 20
0
 30
0
 70
128
 71
29
 72
33
 73
32
 74
32
 0
VERTEX
 8
MESH_229_F0
 10
0
 20
0
 30
0
 70
128
 71
28
 72
34
 73
33
 74
33
 0
VERTEX
 8
MESH_229_F0
 10
0
 20
0
 30
0
 70
128
 71
25
 72
38
 73
37
 74
37
 0
VERTEX
 8
MESH_229_F0
 10
0
 20
0
 30
0
 70
128
 71
24
 72
39
 73
38
 74
38
 0
VERTEX
 8
MESH_229_F0
 10
0
 20
0
 30
0
 70
128
 71
23
 72
40
 73
39
 74
39
 0
VERTEX
 8
MESH_229_F0
 10
0
 20
0
 30
0
 70
128
 71
22
 72
41
 73
40
 74
40
 0
VERTEX
 8
MESH_229_F0
 10
0
 20
0
 30
0
 70
128
 71
21
 72
42
 73
41
 74
41
 0
VERTEX
 8
MESH_229_F0
 10
0
 20
0
 30
0
 70
128
 71
20
 72
43
 73
42
 74
42
 0
VERTEX
 8
MESH_229_F0
 10
0
 20
0
 30
0
 70
128
 71
19
 72
44
 73
43
 74
43
 0
VERTEX
 8
MESH_229_F0
 10
0
 20
0
 30
0
 70
128
 71
18
 72
45
 73
44
 74
44
 0
VERTEX
 8
MESH_229_F0
 10
0
 20
0
 30
0
 70
128
 71
14
 72
52
 73
51
 74
51
 0
VERTEX
 8
MESH_229_F0
 10
0
 20
0
 30
0
 70
128
 71
13
 72
53
 73
52
 74
52
 0
VERTEX
 8
MESH_229_F0
 10
0
 20
0
 30
0
 70
128
 71
12
 72
54
 73
53
 74
53
 0
VERTEX
 8
MESH_229_F0
 10
0
 20
0
 30
0
 70
128
 71
11
 72
55
 73
54
 74
54
 0
VERTEX
 8
MESH_229_F0
 10
0
 20
0
 30
0
 70
128
 71
10
 72
56
 73
55
 74
55
 0
VERTEX
 8
MESH_229_F0
 10
0
 20
0
 30
0
 70
128
 71
9
 72
57
 73
56
 74
56
 0
VERTEX
 8
MESH_229_F0
 10
0
 20
0
 30
0
 70
128
 71
8
 72
58
 73
57
 74
57
 0
VERTEX
 8
MESH_229_F0
 10
0
 20
0
 30
0
 70
128
 71
7
 72
59
 73
58
 74
58
 0
VERTEX
 8
MESH_229_F0
 10
0
 20
0
 30
0
 70
128
 71
4
 72
63
 73
62
 74
62
 0
VERTEX
 8
MESH_229_F0
 10
0
 20
0
 30
0
 70
128
 71
3
 72
64
 73
63
 74
63
 0
VERTEX
 8
MESH_229_F0
 10
0
 20
0
 30
0
 70
128
 71
2
 72
65
 73
64
 74
64
 0
SEQEND
 0
POLYLINE
 8
MESH_228_F0
 66
1
 10
0.0
 20
0.0
 30
0.0
 70
64
 71
4
 72
2
 0
VERTEX
 8
MESH_228_F0
 10
-201.5
 20
-323
 30
824
 70
192
 0
VERTEX
 8
MESH_228_F0
 10
-201.5
 20
-325
 30
824
 70
192
 0
VERTEX
 8
MESH_228_F0
 10
-201.5
 20
-325
 30
828
 70
192
 0
VERTEX
 8
MESH_228_F0
 10
-201.5
 20
-323
 30
828
 70
192
 0
VERTEX
 8
MESH_228_F0
 10
0
 20
0
 30
0
 70
128
 71
4
 72
2
 73
1
 74
1
 0
VERTEX
 8
MESH_228_F0
 10
0
 20
0
 30
0
 70
128
 71
3
 72
2
 73
4
 74
4
 0
SEQEND
 0
POLYLINE
 8
MESH_227_F0
 66
1
 10
0.0
 20
0.0
 30
0.0
 70
64
 71
40
 72
38
 0
VERTEX
 8
MESH_227_F0
 10
-184.5
 20
-322.5
 30
828
 70
192
 0
VERTEX
 8
MESH_227_F0
 10
-184.5
 20
-323
 30
828
 70
192
 0
VERTEX
 8
MESH_227_F0
 10
-201.5
 20
-323
 30
828
 70
192
 0
VERTEX
 8
MESH_227_F0
 10
-201.5
 20
-325
 30
828
 70
192
 0
VERTEX
 8
MESH_227_F0
 10
-201.3751
 20
-327.5143
 30
828
 70
192
 0
VERTEX
 8
MESH_227_F0
 10
-201.0081
 20
-329.9843
 30
828
 70
192
 0
VERTEX
 8
MESH_227_F0
 10
-200.3993
 20
-332.4094
 30
828
 70
192
 0
VERTEX
 8
MESH_227_F0
 10
-199.5547
 20
-334.7686
 30
828
 70
192
 0
VERTEX
 8
MESH_227_F0
 10
-198.4845
 20
-337.0292
 30
828
 70
192
 0
VERTEX
 8
MESH_227_F0
 10
-197.1986
 20
-339.1728
 30
828
 70
192
 0
VERTEX
 8
MESH_227_F0
 10
-195.7095
 20
-341.1795
 30
828
 70
192
 0
VERTEX
 8
MESH_227_F0
 10
-194.031
 20
-343.0313
 30
828
 70
192
 0
VERTEX
 8
MESH_227_F0
 10
-192.1792
 20
-344.7097
 30
828
 70
192
 0
VERTEX
 8
MESH_227_F0
 10
-190.1725
 20
-346.1988
 30
828
 70
192
 0
VERTEX
 8
MESH_227_F0
 10
-188.0289
 20
-347.4847
 30
828
 70
192
 0
VERTEX
 8
MESH_227_F0
 10
-185.7683
 20
-348.5548
 30
828
 70
192
 0
VERTEX
 8
MESH_227_F0
 10
-183.4092
 20
-349.3993
 30
828
 70
192
 0
VERTEX
 8
MESH_227_F0
 10
-180.9841
 20
-350.0081
 30
828
 70
192
 0
VERTEX
 8
MESH_227_F0
 10
-178.5143
 20
-350.3752
 30
828
 70
192
 0
VERTEX
 8
MESH_227_F0
 10
-176
 20
-350.5
 30
828
 70
192
 0
VERTEX
 8
MESH_227_F0
 10
176
 20
-350.5
 30
828
 70
192
 0
VERTEX
 8
MESH_227_F0
 10
178.5144
 20
-350.3751
 30
828
 70
192
 0
VERTEX
 8
MESH_227_F0
 10
180.9843
 20
-350.0081
 30
828
 70
192
 0
VERTEX
 8
MESH_227_F0
 10
183.4094
 20
-349.3993
 30
828
 70
192
 0
VERTEX
 8
MESH_227_F0
 10
185.7686
 20
-348.5547
 30
828
 70
192
 0
VERTEX
 8
MESH_227_F0
 10
188.0292
 20
-347.4845
 30
828
 70
192
 0
VERTEX
 8
MESH_227_F0
 10
190.1728
 20
-346.1986
 30
828
 70
192
 0
VERTEX
 8
MESH_227_F0
 10
192.1795
 20
-344.7095
 30
828
 70
192
 0
VERTEX
 8
MESH_227_F0
 10
194.0313
 20
-343.031
 30
828
 70
192
 0
VERTEX
 8
MESH_227_F0
 10
195.7097
 20
-341.1792
 30
828
 70
192
 0
VERTEX
 8
MESH_227_F0
 10
197.1988
 20
-339.1724
 30
828
 70
192
 0
VERTEX
 8
MESH_227_F0
 10
198.4847
 20
-337.0289
 30
828
 70
192
 0
VERTEX
 8
MESH_227_F0
 10
199.5548
 20
-334.7683
 30
828
 70
192
 0
VERTEX
 8
MESH_227_F0
 10
200.3993
 20
-332.4092
 30
828
 70
192
 0
VERTEX
 8
MESH_227_F0
 10
201.0082
 20
-329.9841
 30
828
 70
192
 0
VERTEX
 8
MESH_227_F0
 10
201.3751
 20
-327.5143
 30
828
 70
192
 0
VERTEX
 8
MESH_227_F0
 10
201.5
 20
-325
 30
828
 70
192
 0
VERTEX
 8
MESH_227_F0
 10
201.5
 20
-323
 30
828
 70
192
 0
VERTEX
 8
MESH_227_F0
 10
184.5
 20
-323
 30
828
 70
192
 0
VERTEX
 8
MESH_227_F0
 10
184.5
 20
-322.5
 30
828
 70
192
 0
VERTEX
 8
MESH_227_F0
 10
0
 20
0
 30
0
 70
128
 71
2
 72
34
 73
33
 74
33
 0
VERTEX
 8
MESH_227_F0
 10
0
 20
0
 30
0
 70
128
 71
11
 72
2
 73
32
 74
32
 0
VERTEX
 8
MESH_227_F0
 10
0
 20
0
 30
0
 70
128
 71
11
 72
32
 73
12
 74
12
 0
VERTEX
 8
MESH_227_F0
 10
0
 20
0
 30
0
 70
128
 71
32
 72
17
 73
12
 74
12
 0
VERTEX
 8
MESH_227_F0
 10
0
 20
0
 30
0
 70
128
 71
17
 72
13
 73
12
 74
12
 0
VERTEX
 8
MESH_227_F0
 10
0
 20
0
 30
0
 70
128
 71
14
 72
13
 73
17
 74
17
 0
VERTEX
 8
MESH_227_F0
 10
0
 20
0
 30
0
 70
128
 71
14
 72
17
 73
15
 74
15
 0
VERTEX
 8
MESH_227_F0
 10
0
 20
0
 30
0
 70
128
 71
17
 72
16
 73
15
 74
15
 0
VERTEX
 8
MESH_227_F0
 10
0
 20
0
 30
0
 70
128
 71
2
 72
4
 73
3
 74
3
 0
VERTEX
 8
MESH_227_F0
 10
0
 20
0
 30
0
 70
128
 71
5
 72
4
 73
2
 74
2
 0
VERTEX
 8
MESH_227_F0
 10
0
 20
0
 30
0
 70
128
 71
5
 72
2
 73
6
 74
6
 0
VERTEX
 8
MESH_227_F0
 10
0
 20
0
 30
0
 70
128
 71
2
 72
7
 73
6
 74
6
 0
VERTEX
 8
MESH_227_F0
 10
0
 20
0
 30
0
 70
128
 71
8
 72
7
 73
2
 74
2
 0
VERTEX
 8
MESH_227_F0
 10
0
 20
0
 30
0
 70
128
 71
8
 72
2
 73
9
 74
9
 0
VERTEX
 8
MESH_227_F0
 10
0
 20
0
 30
0
 70
128
 71
2
 72
10
 73
9
 74
9
 0
VERTEX
 8
MESH_227_F0
 10
0
 20
0
 30
0
 70
128
 71
11
 72
10
 73
2
 74
2
 0
VERTEX
 8
MESH_227_F0
 10
0
 20
0
 30
0
 70
128
 71
20
 72
17
 73
32
 74
32
 0
VERTEX
 8
MESH_227_F0
 10
0
 20
0
 30
0
 70
128
 71
30
 72
20
 73
31
 74
31
 0
VERTEX
 8
MESH_227_F0
 10
0
 20
0
 30
0
 70
128
 71
20
 72
32
 73
31
 74
31
 0
VERTEX
 8
MESH_227_F0
 10
0
 20
0
 30
0
 70
128
 71
18
 72
20
 73
19
 74
19
 0
VERTEX
 8
MESH_227_F0
 10
0
 20
0
 30
0
 70
128
 71
17
 72
20
 73
18
 74
18
 0
VERTEX
 8
MESH_227_F0
 10
0
 20
0
 30
0
 70
128
 71
21
 72
25
 73
24
 74
24
 0
VERTEX
 8
MESH_227_F0
 10
0
 20
0
 30
0
 70
128
 71
22
 72
21
 73
23
 74
23
 0
VERTEX
 8
MESH_227_F0
 10
0
 20
0
 30
0
 70
128
 71
21
 72
24
 73
23
 74
23
 0
VERTEX
 8
MESH_227_F0
 10
0
 20
0
 30
0
 70
128
 71
21
 72
26
 73
25
 74
25
 0
VERTEX
 8
MESH_227_F0
 10
0
 20
0
 30
0
 70
128
 71
20
 72
26
 73
21
 74
21
 0
VERTEX
 8
MESH_227_F0
 10
0
 20
0
 30
0
 70
128
 71
27
 72
26
 73
20
 74
20
 0
VERTEX
 8
MESH_227_F0
 10
0
 20
0
 30
0
 70
128
 71
27
 72
20
 73
28
 74
28
 0
VERTEX
 8
MESH_227_F0
 10
0
 20
0
 30
0
 70
128
 71
20
 72
29
 73
28
 74
28
 0
VERTEX
 8
MESH_227_F0
 10
0
 20
0
 30
0
 70
128
 71
30
 72
29
 73
20
 74
20
 0
VERTEX
 8
MESH_227_F0
 10
0
 20
0
 30
0
 70
128
 71
2
 72
33
 73
32
 74
32
 0
VERTEX
 8
MESH_227_F0
 10
0
 20
0
 30
0
 70
128
 71
2
 72
35
 73
34
 74
34
 0
VERTEX
 8
MESH_227_F0
 10
0
 20
0
 30
0
 70
128
 71
1
 72
35
 73
2
 74
2
 0
VERTEX
 8
MESH_227_F0
 10
0
 20
0
 30
0
 70
128
 71
36
 72
35
 73
1
 74
1
 0
VERTEX
 8
MESH_227_F0
 10
0
 20
0
 30
0
 70
128
 71
37
 72
36
 73
39
 74
39
 0
VERTEX
 8
MESH_227_F0
 10
0
 20
0
 30
0
 70
128
 71
37
 72
39
 73
38
 74
38
 0
VERTEX
 8
MESH_227_F0
 10
0
 20
0
 30
0
 70
128
 71
39
 72
1
 73
40
 74
40
 0
VERTEX
 8
MESH_227_F0
 10
0
 20
0
 30
0
 70
128
 71
36
 72
1
 73
39
 74
39
 0
SEQEND
 0
POLYLINE
 8
MESH_226_F0
 66
1
 10
0.0
 20
0.0
 30
0.0
 70
64
 71
4
 72
2
 0
VERTEX
 8
MESH_226_F0
 10
-184.5
 20
-323
 30
830.9999
 70
192
 0
VERTEX
 8
MESH_226_F0
 10
-184.5
 20
-323
 30
828
 70
192
 0
VERTEX
 8
MESH_226_F0
 10
-184.5
 20
-322.5
 30
828
 70
192
 0
VERTEX
 8
MESH_226_F0
 10
-184.5
 20
-322.5
 30
830.9999
 70
192
 0
VERTEX
 8
MESH_226_F0
 10
0
 20
0
 30
0
 70
128
 71
1
 72
3
 73
2
 74
2
 0
VERTEX
 8
MESH_226_F0
 10
0
 20
0
 30
0
 70
128
 71
4
 72
3
 73
1
 74
1
 0
SEQEND
 0
POLYLINE
 8
MESH_225_F0
 66
1
 10
0.0
 20
0.0
 30
0.0
 70
64
 71
4
 72
2
 0
VERTEX
 8
MESH_225_F0
 10
-184.5
 20
-322.5
 30
830.9999
 70
192
 0
VERTEX
 8
MESH_225_F0
 10
-184.5
 20
-322.5
 30
828
 70
192
 0
VERTEX
 8
MESH_225_F0
 10
184.5
 20
-322.5
 30
828
 70
192
 0
VERTEX
 8
MESH_225_F0
 10
184.5
 20
-322.5
 30
830.9999
 70
192
 0
VERTEX
 8
MESH_225_F0
 10
0
 20
0
 30
0
 70
128
 71
1
 72
3
 73
2
 74
2
 0
VERTEX
 8
MESH_225_F0
 10
0
 20
0
 30
0
 70
128
 71
4
 72
3
 73
1
 74
1
 0
SEQEND
 0
POLYLINE
 8
MESH_224_F0
 66
1
 10
0.0
 20
0.0
 30
0.0
 70
64
 71
4
 72
2
 0
VERTEX
 8
MESH_224_F0
 10
184.5
 20
-322.5
 30
830.9999
 70
192
 0
VERTEX
 8
MESH_224_F0
 10
184.5
 20
-322.5
 30
828
 70
192
 0
VERTEX
 8
MESH_224_F0
 10
184.5
 20
-323
 30
828
 70
192
 0
VERTEX
 8
MESH_224_F0
 10
184.5
 20
-323
 30
830.9999
 70
192
 0
VERTEX
 8
MESH_224_F0
 10
0
 20
0
 30
0
 70
128
 71
1
 72
3
 73
2
 74
2
 0
VERTEX
 8
MESH_224_F0
 10
0
 20
0
 30
0
 70
128
 71
4
 72
3
 73
1
 74
1
 0
SEQEND
 0
POLYLINE
 8
MESH_223_F0
 66
1
 10
0.0
 20
0.0
 30
0.0
 70
64
 71
34
 72
32
 0
VERTEX
 8
MESH_223_F0
 10
184.5
 20
-322.5
 30
830.9999
 70
192
 0
VERTEX
 8
MESH_223_F0
 10
184.5
 20
-323
 30
830.9999
 70
192
 0
VERTEX
 8
MESH_223_F0
 10
200.9198
 20
-323
 30
830.9999
 70
192
 0
VERTEX
 8
MESH_223_F0
 10
200.9821
 20
-325.9456
 30
830.9999
 70
192
 0
VERTEX
 8
MESH_223_F0
 10
200.6975
 20
-328.8781
 30
830.9999
 70
192
 0
VERTEX
 8
MESH_223_F0
 10
200.0699
 20
-331.7567
 30
830.9999
 70
192
 0
VERTEX
 8
MESH_223_F0
 10
199.1079
 20
-334.5415
 30
830.9999
 70
192
 0
VERTEX
 8
MESH_223_F0
 10
197.825
 20
-337.1938
 30
830.9999
 70
192
 0
VERTEX
 8
MESH_223_F0
 10
196.239
 20
-339.6767
 30
830.9999
 70
192
 0
VERTEX
 8
MESH_223_F0
 10
194.3718
 20
-341.9557
 30
830.9999
 70
192
 0
VERTEX
 8
MESH_223_F0
 10
192.2495
 20
-343.9993
 30
830.9999
 70
192
 0
VERTEX
 8
MESH_223_F0
 10
189.9015
 20
-345.779
 30
830.9999
 70
192
 0
VERTEX
 8
MESH_223_F0
 10
187.3604
 20
-347.2701
 30
830.9999
 70
192
 0
VERTEX
 8
MESH_223_F0
 10
184.6616
 20
-348.4519
 30
830.9999
 70
192
 0
VERTEX
 8
MESH_223_F0
 10
181.8424
 20
-349.3079
 30
830.9999
 70
192
 0
VERTEX
 8
MESH_223_F0
 10
178.9421
 20
-349.8264
 30
830.9999
 70
192
 0
VERTEX
 8
MESH_223_F0
 10
176.001
 20
-350
 30
830.9999
 70
192
 0
VERTEX
 8
MESH_223_F0
 10
-176.001
 20
-350
 30
830.9999
 70
192
 0
VERTEX
 8
MESH_223_F0
 10
-178.9421
 20
-349.8264
 30
830.9999
 70
192
 0
VERTEX
 8
MESH_223_F0
 10
-181.8424
 20
-349.3079
 30
830.9999
 70
192
 0
VERTEX
 8
MESH_223_F0
 10
-184.6616
 20
-348.4519
 30
830.9999
 70
192
 0
VERTEX
 8
MESH_223_F0
 10
-187.3604
 20
-347.2701
 30
830.9999
 70
192
 0
VERTEX
 8
MESH_223_F0
 10
-189.9015
 20
-345.779
 30
830.9999
 70
192
 0
VERTEX
 8
MESH_223_F0
 10
-192.2495
 20
-343.9993
 30
830.9999
 70
192
 0
VERTEX
 8
MESH_223_F0
 10
-194.3718
 20
-341.9557
 30
830.9999
 70
192
 0
VERTEX
 8
MESH_223_F0
 10
-196.239
 20
-339.6767
 30
830.9999
 70
192
 0
VERTEX
 8
MESH_223_F0
 10
-197.825
 20
-337.1938
 30
830.9999
 70
192
 0
VERTEX
 8
MESH_223_F0
 10
-199.1079
 20
-334.5415
 30
830.9999
 70
192
 0
VERTEX
 8
MESH_223_F0
 10
-200.0699
 20
-331.7567
 30
830.9999
 70
192
 0
VERTEX
 8
MESH_223_F0
 10
-200.6975
 20
-328.8781
 30
830.9999
 70
192
 0
VERTEX
 8
MESH_223_F0
 10
-200.9821
 20
-325.9456
 30
830.9999
 70
192
 0
VERTEX
 8
MESH_223_F0
 10
-200.9198
 20
-323
 30
830.9999
 70
192
 0
VERTEX
 8
MESH_223_F0
 10
-184.5
 20
-323
 30
830.9999
 70
192
 0
VERTEX
 8
MESH_223_F0
 10
-184.5
 20
-322.5
 30
830.9999
 70
192
 0
VERTEX
 8
MESH_223_F0
 10
0
 20
0
 30
0
 70
128
 71
34
 72
2
 73
1
 74
1
 0
VERTEX
 8
MESH_223_F0
 10
0
 20
0
 30
0
 70
128
 71
33
 72
2
 73
34
 74
34
 0
VERTEX
 8
MESH_223_F0
 10
0
 20
0
 30
0
 70
128
 71
30
 72
2
 73
33
 74
33
 0
VERTEX
 8
MESH_223_F0
 10
0
 20
0
 30
0
 70
128
 71
30
 72
33
 73
31
 74
31
 0
VERTEX
 8
MESH_223_F0
 10
0
 20
0
 30
0
 70
128
 71
33
 72
32
 73
31
 74
31
 0
VERTEX
 8
MESH_223_F0
 10
0
 20
0
 30
0
 70
128
 71
2
 72
4
 73
3
 74
3
 0
VERTEX
 8
MESH_223_F0
 10
0
 20
0
 30
0
 70
128
 71
5
 72
4
 73
2
 74
2
 0
VERTEX
 8
MESH_223_F0
 10
0
 20
0
 30
0
 70
128
 71
5
 72
2
 73
6
 74
6
 0
VERTEX
 8
MESH_223_F0
 10
0
 20
0
 30
0
 70
128
 71
2
 72
7
 73
6
 74
6
 0
VERTEX
 8
MESH_223_F0
 10
0
 20
0
 30
0
 70
128
 71
8
 72
7
 73
2
 74
2
 0
VERTEX
 8
MESH_223_F0
 10
0
 20
0
 30
0
 70
128
 71
8
 72
2
 73
9
 74
9
 0
VERTEX
 8
MESH_223_F0
 10
0
 20
0
 30
0
 70
128
 71
2
 72
28
 73
9
 74
9
 0
VERTEX
 8
MESH_223_F0
 10
0
 20
0
 30
0
 70
128
 71
28
 72
27
 73
9
 74
9
 0
VERTEX
 8
MESH_223_F0
 10
0
 20
0
 30
0
 70
128
 71
27
 72
10
 73
9
 74
9
 0
VERTEX
 8
MESH_223_F0
 10
0
 20
0
 30
0
 70
128
 71
11
 72
10
 73
27
 74
27
 0
VERTEX
 8
MESH_223_F0
 10
0
 20
0
 30
0
 70
128
 71
11
 72
27
 73
12
 74
12
 0
VERTEX
 8
MESH_223_F0
 10
0
 20
0
 30
0
 70
128
 71
27
 72
13
 73
12
 74
12
 0
VERTEX
 8
MESH_223_F0
 10
0
 20
0
 30
0
 70
128
 71
14
 72
13
 73
27
 74
27
 0
VERTEX
 8
MESH_223_F0
 10
0
 20
0
 30
0
 70
128
 71
14
 72
27
 73
15
 74
15
 0
VERTEX
 8
MESH_223_F0
 10
0
 20
0
 30
0
 70
128
 71
27
 72
26
 73
15
 74
15
 0
VERTEX
 8
MESH_223_F0
 10
0
 20
0
 30
0
 70
128
 71
26
 72
25
 73
15
 74
15
 0
VERTEX
 8
MESH_223_F0
 10
0
 20
0
 30
0
 70
128
 71
25
 72
24
 73
15
 74
15
 0
VERTEX
 8
MESH_223_F0
 10
0
 20
0
 30
0
 70
128
 71
24
 72
23
 73
15
 74
15
 0
VERTEX
 8
MESH_223_F0
 10
0
 20
0
 30
0
 70
128
 71
23
 72
22
 73
15
 74
15
 0
VERTEX
 8
MESH_223_F0
 10
0
 20
0
 30
0
 70
128
 71
22
 72
18
 73
15
 74
15
 0
VERTEX
 8
MESH_223_F0
 10
0
 20
0
 30
0
 70
128
 71
18
 72
17
 73
15
 74
15
 0
VERTEX
 8
MESH_223_F0
 10
0
 20
0
 30
0
 70
128
 71
17
 72
16
 73
15
 74
15
 0
VERTEX
 8
MESH_223_F0
 10
0
 20
0
 30
0
 70
128
 71
18
 72
20
 73
19
 74
19
 0
VERTEX
 8
MESH_223_F0
 10
0
 20
0
 30
0
 70
128
 71
21
 72
20
 73
18
 74
18
 0
VERTEX
 8
MESH_223_F0
 10
0
 20
0
 30
0
 70
128
 71
21
 72
18
 73
22
 74
22
 0
VERTEX
 8
MESH_223_F0
 10
0
 20
0
 30
0
 70
128
 71
2
 72
29
 73
28
 74
28
 0
VERTEX
 8
MESH_223_F0
 10
0
 20
0
 30
0
 70
128
 71
30
 72
29
 73
2
 74
2
 0
SEQEND
 0
POLYLINE
 8
MESH_222_F0
 66
1
 10
0.0
 20
0.0
 30
0.0
 70
64
 71
12
 72
10
 0
VERTEX
 8
MESH_222_F0
 10
200.9198
 20
-323
 30
830.9999
 70
192
 0
VERTEX
 8
MESH_222_F0
 10
184.5
 20
-323
 30
830.9999
 70
192
 0
VERTEX
 8
MESH_222_F0
 10
184.5
 20
-323
 30
828
 70
192
 0
VERTEX
 8
MESH_222_F0
 10
201.5
 20
-323
 30
828
 70
192
 0
VERTEX
 8
MESH_222_F0
 10
201.5
 20
-323
 30
824
 70
192
 0
VERTEX
 8
MESH_222_F0
 10
200.9198
 20
-323
 30
824
 70
192
 0
VERTEX
 8
MESH_222_F0
 10
200.9198
 20
-323
 30
356
 70
192
 0
VERTEX
 8
MESH_222_F0
 10
184.5
 20
-323
 30
356
 70
192
 0
VERTEX
 8
MESH_222_F0
 10
184.5
 20
-323
 30
355
 70
192
 0
VERTEX
 8
MESH_222_F0
 10
202.5
 20
-323
 30
355
 70
192
 0
VERTEX
 8
MESH_222_F0
 10
202.5
 20
-323
 30
2004.9999
 70
192
 0
VERTEX
 8
MESH_222_F0
 10
200.9198
 20
-323
 30
2004.9999
 70
192
 0
VERTEX
 8
MESH_222_F0
 10
0
 20
0
 30
0
 70
128
 71
4
 72
1
 73
12
 74
12
 0
VERTEX
 8
MESH_222_F0
 10
0
 20
0
 30
0
 70
128
 71
10
 72
4
 73
11
 74
11
 0
VERTEX
 8
MESH_222_F0
 10
0
 20
0
 30
0
 70
128
 71
4
 72
12
 73
11
 74
11
 0
VERTEX
 8
MESH_222_F0
 10
0
 20
0
 30
0
 70
128
 71
2
 72
4
 73
3
 74
3
 0
VERTEX
 8
MESH_222_F0
 10
0
 20
0
 30
0
 70
128
 71
1
 72
4
 73
2
 74
2
 0
VERTEX
 8
MESH_222_F0
 10
0
 20
0
 30
0
 70
128
 71
10
 72
5
 73
4
 74
4
 0
VERTEX
 8
MESH_222_F0
 10
0
 20
0
 30
0
 70
128
 71
7
 72
5
 73
10
 74
10
 0
VERTEX
 8
MESH_222_F0
 10
0
 20
0
 30
0
 70
128
 71
8
 72
7
 73
9
 74
9
 0
VERTEX
 8
MESH_222_F0
 10
0
 20
0
 30
0
 70
128
 71
7
 72
10
 73
9
 74
9
 0
VERTEX
 8
MESH_222_F0
 10
0
 20
0
 30
0
 70
128
 71
7
 72
6
 73
5
 74
5
 0
SEQEND
 0
POLYLINE
 8
MESH_221_F0
 66
1
 10
0.0
 20
0.0
 30
0.0
 70
64
 71
38
 72
36
 0
VERTEX
 8
MESH_221_F0
 10
200.9198
 20
-323
 30
2004.9999
 70
192
 0
VERTEX
 8
MESH_221_F0
 10
202.5
 20
-323
 30
2004.9999
 70
192
 0
VERTEX
 8
MESH_221_F0
 10
202.5
 20
0
 30
2004.9999
 70
192
 0
VERTEX
 8
MESH_221_F0
 10
184.5
 20
0
 30
2004.9999
 70
192
 0
VERTEX
 8
MESH_221_F0
 10
184.5
 20
-320.0261
 30
2004.9999
 70
192
 0
VERTEX
 8
MESH_221_F0
 10
-184.5
 20
-320.0261
 30
2004.9999
 70
192
 0
VERTEX
 8
MESH_221_F0
 10
-184.5
 20
0
 30
2004.9999
 70
192
 0
VERTEX
 8
MESH_221_F0
 10
-202.5
 20
0
 30
2004.9999
 70
192
 0
VERTEX
 8
MESH_221_F0
 10
-202.5
 20
-323
 30
2004.9999
 70
192
 0
VERTEX
 8
MESH_221_F0
 10
-200.9198
 20
-323
 30
2004.9999
 70
192
 0
VERTEX
 8
MESH_221_F0
 10
-200.9821
 20
-325.9456
 30
2004.9999
 70
192
 0
VERTEX
 8
MESH_221_F0
 10
-200.6975
 20
-328.8781
 30
2004.9999
 70
192
 0
VERTEX
 8
MESH_221_F0
 10
-200.0699
 20
-331.7567
 30
2004.9999
 70
192
 0
VERTEX
 8
MESH_221_F0
 10
-199.1079
 20
-334.5415
 30
2004.9999
 70
192
 0
VERTEX
 8
MESH_221_F0
 10
-197.825
 20
-337.1938
 30
2004.9999
 70
192
 0
VERTEX
 8
MESH_221_F0
 10
-196.239
 20
-339.6767
 30
2004.9999
 70
192
 0
VERTEX
 8
MESH_221_F0
 10
-194.3718
 20
-341.9557
 30
2004.9999
 70
192
 0
VERTEX
 8
MESH_221_F0
 10
-192.2495
 20
-343.9993
 30
2004.9999
 70
192
 0
VERTEX
 8
MESH_221_F0
 10
-189.9015
 20
-345.779
 30
2004.9999
 70
192
 0
VERTEX
 8
MESH_221_F0
 10
-187.3604
 20
-347.2701
 30
2004.9999
 70
192
 0
VERTEX
 8
MESH_221_F0
 10
-184.6616
 20
-348.4519
 30
2004.9999
 70
192
 0
VERTEX
 8
MESH_221_F0
 10
-181.8424
 20
-349.3079
 30
2004.9999
 70
192
 0
VERTEX
 8
MESH_221_F0
 10
-178.9421
 20
-349.8264
 30
2004.9999
 70
192
 0
VERTEX
 8
MESH_221_F0
 10
-176.001
 20
-350
 30
2004.9999
 70
192
 0
VERTEX
 8
MESH_221_F0
 10
176.001
 20
-350
 30
2004.9999
 70
192
 0
VERTEX
 8
MESH_221_F0
 10
178.9421
 20
-349.8264
 30
2004.9999
 70
192
 0
VERTEX
 8
MESH_221_F0
 10
181.8424
 20
-349.3079
 30
2004.9999
 70
192
 0
VERTEX
 8
MESH_221_F0
 10
184.6616
 20
-348.4519
 30
2004.9999
 70
192
 0
VERTEX
 8
MESH_221_F0
 10
187.3604
 20
-347.2701
 30
2004.9999
 70
192
 0
VERTEX
 8
MESH_221_F0
 10
189.9015
 20
-345.779
 30
2004.9999
 70
192
 0
VERTEX
 8
MESH_221_F0
 10
192.2495
 20
-343.9993
 30
2004.9999
 70
192
 0
VERTEX
 8
MESH_221_F0
 10
194.3718
 20
-341.9557
 30
2004.9999
 70
192
 0
VERTEX
 8
MESH_221_F0
 10
196.239
 20
-339.6767
 30
2004.9999
 70
192
 0
VERTEX
 8
MESH_221_F0
 10
197.825
 20
-337.1938
 30
2004.9999
 70
192
 0
VERTEX
 8
MESH_221_F0
 10
199.1079
 20
-334.5415
 30
2004.9999
 70
192
 0
VERTEX
 8
MESH_221_F0
 10
200.0699
 20
-331.7567
 30
2004.9999
 70
192
 0
VERTEX
 8
MESH_221_F0
 10
200.6975
 20
-328.8781
 30
2004.9999
 70
192
 0
VERTEX
 8
MESH_221_F0
 10
200.9821
 20
-325.9456
 30
2004.9999
 70
192
 0
VERTEX
 8
MESH_221_F0
 10
0
 20
0
 30
0
 70
128
 71
1
 72
3
 73
2
 74
2
 0
VERTEX
 8
MESH_221_F0
 10
0
 20
0
 30
0
 70
128
 71
4
 72
3
 73
1
 74
1
 0
VERTEX
 8
MESH_221_F0
 10
0
 20
0
 30
0
 70
128
 71
4
 72
1
 73
5
 74
5
 0
VERTEX
 8
MESH_221_F0
 10
0
 20
0
 30
0
 70
128
 71
1
 72
38
 73
5
 74
5
 0
VERTEX
 8
MESH_221_F0
 10
0
 20
0
 30
0
 70
128
 71
38
 72
37
 73
5
 74
5
 0
VERTEX
 8
MESH_221_F0
 10
0
 20
0
 30
0
 70
128
 71
37
 72
36
 73
5
 74
5
 0
VERTEX
 8
MESH_221_F0
 10
0
 20
0
 30
0
 70
128
 71
36
 72
35
 73
5
 74
5
 0
VERTEX
 8
MESH_221_F0
 10
0
 20
0
 30
0
 70
128
 71
35
 72
34
 73
5
 74
5
 0
VERTEX
 8
MESH_221_F0
 10
0
 20
0
 30
0
 70
128
 71
34
 72
33
 73
5
 74
5
 0
VERTEX
 8
MESH_221_F0
 10
0
 20
0
 30
0
 70
128
 71
33
 72
32
 73
5
 74
5
 0
VERTEX
 8
MESH_221_F0
 10
0
 20
0
 30
0
 70
128
 71
32
 72
31
 73
5
 74
5
 0
VERTEX
 8
MESH_221_F0
 10
0
 20
0
 30
0
 70
128
 71
31
 72
30
 73
5
 74
5
 0
VERTEX
 8
MESH_221_F0
 10
0
 20
0
 30
0
 70
128
 71
30
 72
29
 73
5
 74
5
 0
VERTEX
 8
MESH_221_F0
 10
0
 20
0
 30
0
 70
128
 71
29
 72
28
 73
5
 74
5
 0
VERTEX
 8
MESH_221_F0
 10
0
 20
0
 30
0
 70
128
 71
28
 72
27
 73
5
 74
5
 0
VERTEX
 8
MESH_221_F0
 10
0
 20
0
 30
0
 70
128
 71
27
 72
26
 73
5
 74
5
 0
VERTEX
 8
MESH_221_F0
 10
0
 20
0
 30
0
 70
128
 71
26
 72
25
 73
5
 74
5
 0
VERTEX
 8
MESH_221_F0
 10
0
 20
0
 30
0
 70
128
 71
25
 72
6
 73
5
 74
5
 0
VERTEX
 8
MESH_221_F0
 10
0
 20
0
 30
0
 70
128
 71
24
 72
6
 73
25
 74
25
 0
VERTEX
 8
MESH_221_F0
 10
0
 20
0
 30
0
 70
128
 71
23
 72
6
 73
24
 74
24
 0
VERTEX
 8
MESH_221_F0
 10
0
 20
0
 30
0
 70
128
 71
22
 72
6
 73
23
 74
23
 0
VERTEX
 8
MESH_221_F0
 10
0
 20
0
 30
0
 70
128
 71
21
 72
6
 73
22
 74
22
 0
VERTEX
 8
MESH_221_F0
 10
0
 20
0
 30
0
 70
128
 71
20
 72
6
 73
21
 74
21
 0
VERTEX
 8
MESH_221_F0
 10
0
 20
0
 30
0
 70
128
 71
19
 72
6
 73
20
 74
20
 0
VERTEX
 8
MESH_221_F0
 10
0
 20
0
 30
0
 70
128
 71
18
 72
6
 73
19
 74
19
 0
VERTEX
 8
MESH_221_F0
 10
0
 20
0
 30
0
 70
128
 71
17
 72
6
 73
18
 74
18
 0
VERTEX
 8
MESH_221_F0
 10
0
 20
0
 30
0
 70
128
 71
16
 72
6
 73
17
 74
17
 0
VERTEX
 8
MESH_221_F0
 10
0
 20
0
 30
0
 70
128
 71
15
 72
6
 73
16
 74
16
 0
VERTEX
 8
MESH_221_F0
 10
0
 20
0
 30
0
 70
128
 71
14
 72
6
 73
15
 74
15
 0
VERTEX
 8
MESH_221_F0
 10
0
 20
0
 30
0
 70
128
 71
13
 72
6
 73
14
 74
14
 0
VERTEX
 8
MESH_221_F0
 10
0
 20
0
 30
0
 70
128
 71
12
 72
6
 73
13
 74
13
 0
VERTEX
 8
MESH_221_F0
 10
0
 20
0
 30
0
 70
128
 71
11
 72
6
 73
12
 74
12
 0
VERTEX
 8
MESH_221_F0
 10
0
 20
0
 30
0
 70
128
 71
10
 72
6
 73
11
 74
11
 0
VERTEX
 8
MESH_221_F0
 10
0
 20
0
 30
0
 70
128
 71
9
 72
6
 73
10
 74
10
 0
VERTEX
 8
MESH_221_F0
 10
0
 20
0
 30
0
 70
128
 71
8
 72
6
 73
9
 74
9
 0
VERTEX
 8
MESH_221_F0
 10
0
 20
0
 30
0
 70
128
 71
7
 72
6
 73
8
 74
8
 0
SEQEND
 0
POLYLINE
 8
MESH_220_F0
 66
1
 10
0.0
 20
0.0
 30
0.0
 70
64
 71
12
 72
10
 0
VERTEX
 8
MESH_220_F0
 10
-200.9198
 20
-323
 30
2004.9999
 70
192
 0
VERTEX
 8
MESH_220_F0
 10
-202.5
 20
-323
 30
2004.9999
 70
192
 0
VERTEX
 8
MESH_220_F0
 10
-202.5
 20
-323
 30
355
 70
192
 0
VERTEX
 8
MESH_220_F0
 10
-184.5
 20
-323
 30
355
 70
192
 0
VERTEX
 8
MESH_220_F0
 10
-184.5
 20
-323
 30
356
 70
192
 0
VERTEX
 8
MESH_220_F0
 10
-200.9198
 20
-323
 30
356
 70
192
 0
VERTEX
 8
MESH_220_F0
 10
-200.9198
 20
-323
 30
824
 70
192
 0
VERTEX
 8
MESH_220_F0
 10
-201.5
 20
-323
 30
824
 70
192
 0
VERTEX
 8
MESH_220_F0
 10
-201.5
 20
-323
 30
828
 70
192
 0
VERTEX
 8
MESH_220_F0
 10
-184.5
 20
-323
 30
828
 70
192
 0
VERTEX
 8
MESH_220_F0
 10
-184.5
 20
-323
 30
830.9999
 70
192
 0
VERTEX
 8
MESH_220_F0
 10
-200.9198
 20
-323
 30
830.9999
 70
192
 0
VERTEX
 8
MESH_220_F0
 10
0
 20
0
 30
0
 70
128
 71
12
 72
2
 73
1
 74
1
 0
VERTEX
 8
MESH_220_F0
 10
0
 20
0
 30
0
 70
128
 71
9
 72
2
 73
12
 74
12
 0
VERTEX
 8
MESH_220_F0
 10
0
 20
0
 30
0
 70
128
 71
9
 72
12
 73
10
 74
10
 0
VERTEX
 8
MESH_220_F0
 10
0
 20
0
 30
0
 70
128
 71
12
 72
11
 73
10
 74
10
 0
VERTEX
 8
MESH_220_F0
 10
0
 20
0
 30
0
 70
128
 71
9
 72
3
 73
2
 74
2
 0
VERTEX
 8
MESH_220_F0
 10
0
 20
0
 30
0
 70
128
 71
8
 72
3
 73
9
 74
9
 0
VERTEX
 8
MESH_220_F0
 10
0
 20
0
 30
0
 70
128
 71
6
 72
3
 73
8
 74
8
 0
VERTEX
 8
MESH_220_F0
 10
0
 20
0
 30
0
 70
128
 71
6
 72
8
 73
7
 74
7
 0
VERTEX
 8
MESH_220_F0
 10
0
 20
0
 30
0
 70
128
 71
6
 72
4
 73
3
 74
3
 0
VERTEX
 8
MESH_220_F0
 10
0
 20
0
 30
0
 70
128
 71
5
 72
4
 73
6
 74
6
 0
SEQEND
 0
POLYLINE
 8
MESH_219_F0
 66
1
 10
0.0
 20
0.0
 30
0.0
 70
64
 71
6
 72
4
 0
VERTEX
 8
MESH_219_F0
 10
-184.5
 20
-323
 30
356
 70
192
 0
VERTEX
 8
MESH_219_F0
 10
-184.5
 20
-323
 30
355
 70
192
 0
VERTEX
 8
MESH_219_F0
 10
-184.5
 20
0
 30
355
 70
192
 0
VERTEX
 8
MESH_219_F0
 10
-184.5
 20
0
 30
355.5
 70
192
 0
VERTEX
 8
MESH_219_F0
 10
-184.5
 20
-322.5
 30
355.5
 70
192
 0
VERTEX
 8
MESH_219_F0
 10
-184.5
 20
-322.5
 30
356
 70
192
 0
VERTEX
 8
MESH_219_F0
 10
0
 20
0
 30
0
 70
128
 71
5
 72
1
 73
6
 74
6
 0
VERTEX
 8
MESH_219_F0
 10
0
 20
0
 30
0
 70
128
 71
2
 72
1
 73
5
 74
5
 0
VERTEX
 8
MESH_219_F0
 10
0
 20
0
 30
0
 70
128
 71
2
 72
5
 73
3
 74
3
 0
VERTEX
 8
MESH_219_F0
 10
0
 20
0
 30
0
 70
128
 71
5
 72
4
 73
3
 74
3
 0
SEQEND
 0
POLYLINE
 8
MESH_218_F0
 66
1
 10
0.0
 20
0.0
 30
0.0
 70
64
 71
16
 72
16
 0
VERTEX
 8
MESH_218_F0
 10
-184.5
 20
0
 30
355.5
 70
192
 0
VERTEX
 8
MESH_218_F0
 10
-184.5
 20
0
 30
355
 70
192
 0
VERTEX
 8
MESH_218_F0
 10
-202.5
 20
0
 30
355
 70
192
 0
VERTEX
 8
MESH_218_F0
 10
-202.5
 20
0
 30
2004.9999
 70
192
 0
VERTEX
 8
MESH_218_F0
 10
-184.5
 20
0
 30
2004.9999
 70
192
 0
VERTEX
 8
MESH_218_F0
 10
-184.5
 20
0
 30
2004.4999
 70
192
 0
VERTEX
 8
MESH_218_F0
 10
184.5
 20
0
 30
2004.4999
 70
192
 0
VERTEX
 8
MESH_218_F0
 10
184.5
 20
0
 30
2004.9999
 70
192
 0
VERTEX
 8
MESH_218_F0
 10
202.5
 20
0
 30
2004.9999
 70
192
 0
VERTEX
 8
MESH_218_F0
 10
202.5
 20
0
 30
355
 70
192
 0
VERTEX
 8
MESH_218_F0
 10
184.5
 20
0
 30
355
 70
192
 0
VERTEX
 8
MESH_218_F0
 10
184.5
 20
0
 30
355.5
 70
192
 0
VERTEX
 8
MESH_218_F0
 10
-184.5
 20
0
 30
1986.5
 70
192
 0
VERTEX
 8
MESH_218_F0
 10
-184.5
 20
0
 30
373.5
 70
192
 0
VERTEX
 8
MESH_218_F0
 10
184.5
 20
0
 30
373.5
 70
192
 0
VERTEX
 8
MESH_218_F0
 10
184.5
 20
0
 30
1986.5
 70
192
 0
VERTEX
 8
MESH_218_F0
 10
0
 20
0
 30
0
 70
128
 71
1
 72
3
 73
2
 74
2
 0
VERTEX
 8
MESH_218_F0
 10
0
 20
0
 30
0
 70
128
 71
14
 72
3
 73
1
 74
1
 0
VERTEX
 8
MESH_218_F0
 10
0
 20
0
 30
0
 70
128
 71
14
 72
1
 73
15
 74
15
 0
VERTEX
 8
MESH_218_F0
 10
0
 20
0
 30
0
 70
128
 71
1
 72
12
 73
15
 74
15
 0
VERTEX
 8
MESH_218_F0
 10
0
 20
0
 30
0
 70
128
 71
12
 72
10
 73
15
 74
15
 0
VERTEX
 8
MESH_218_F0
 10
0
 20
0
 30
0
 70
128
 71
10
 72
9
 73
15
 74
15
 0
VERTEX
 8
MESH_218_F0
 10
0
 20
0
 30
0
 70
128
 71
9
 72
16
 73
15
 74
15
 0
VERTEX
 8
MESH_218_F0
 10
0
 20
0
 30
0
 70
128
 71
7
 72
16
 73
9
 74
9
 0
VERTEX
 8
MESH_218_F0
 10
0
 20
0
 30
0
 70
128
 71
7
 72
9
 73
8
 74
8
 0
VERTEX
 8
MESH_218_F0
 10
0
 20
0
 30
0
 70
128
 71
14
 72
4
 73
3
 74
3
 0
VERTEX
 8
MESH_218_F0
 10
0
 20
0
 30
0
 70
128
 71
13
 72
4
 73
14
 74
14
 0
VERTEX
 8
MESH_218_F0
 10
0
 20
0
 30
0
 70
128
 71
6
 72
4
 73
13
 74
13
 0
VERTEX
 8
MESH_218_F0
 10
0
 20
0
 30
0
 70
128
 71
6
 72
13
 73
7
 74
7
 0
VERTEX
 8
MESH_218_F0
 10
0
 20
0
 30
0
 70
128
 71
13
 72
16
 73
7
 74
7
 0
VERTEX
 8
MESH_218_F0
 10
0
 20
0
 30
0
 70
128
 71
6
 72
5
 73
4
 74
4
 0
VERTEX
 8
MESH_218_F0
 10
0
 20
0
 30
0
 70
128
 71
12
 72
11
 73
10
 74
10
 0
SEQEND
 0
POLYLINE
 8
MESH_217_F0
 66
1
 10
0.0
 20
0.0
 30
0.0
 70
64
 71
8
 72
6
 0
VERTEX
 8
MESH_217_F0
 10
-184.5
 20
0
 30
1986.5
 70
192
 0
VERTEX
 8
MESH_217_F0
 10
184.5
 20
0
 30
1986.5
 70
192
 0
VERTEX
 8
MESH_217_F0
 10
184.5
 20
-21
 30
1986.5
 70
192
 0
VERTEX
 8
MESH_217_F0
 10
170.5
 20
-21
 30
1986.5
 70
192
 0
VERTEX
 8
MESH_217_F0
 10
170.5
 20
-17.8
 30
1986.5
 70
192
 0
VERTEX
 8
MESH_217_F0
 10
-170.5
 20
-17.8
 30
1986.5
 70
192
 0
VERTEX
 8
MESH_217_F0
 10
-170.5
 20
-21
 30
1986.5
 70
192
 0
VERTEX
 8
MESH_217_F0
 10
-184.5
 20
-21
 30
1986.5
 70
192
 0
VERTEX
 8
MESH_217_F0
 10
0
 20
0
 30
0
 70
128
 71
6
 72
1
 73
8
 74
8
 0
VERTEX
 8
MESH_217_F0
 10
0
 20
0
 30
0
 70
128
 71
6
 72
8
 73
7
 74
7
 0
VERTEX
 8
MESH_217_F0
 10
0
 20
0
 30
0
 70
128
 71
2
 72
5
 73
3
 74
3
 0
VERTEX
 8
MESH_217_F0
 10
0
 20
0
 30
0
 70
128
 71
5
 72
4
 73
3
 74
3
 0
VERTEX
 8
MESH_217_F0
 10
0
 20
0
 30
0
 70
128
 71
2
 72
6
 73
5
 74
5
 0
VERTEX
 8
MESH_217_F0
 10
0
 20
0
 30
0
 70
128
 71
1
 72
6
 73
2
 74
2
 0
SEQEND
 0
POLYLINE
 8
MESH_216_F0
 66
1
 10
0.0
 20
0.0
 30
0.0
 70
64
 71
4
 72
2
 0
VERTEX
 8
MESH_216_F0
 10
-170.5
 20
-17.8
 30
1986.5
 70
192
 0
VERTEX
 8
MESH_216_F0
 10
-170.5
 20
-17.8
 30
1946.9999
 70
192
 0
VERTEX
 8
MESH_216_F0
 10
-170.5
 20
-21
 30
1946.9999
 70
192
 0
VERTEX
 8
MESH_216_F0
 10
-170.5
 20
-21
 30
1986.5
 70
192
 0
VERTEX
 8
MESH_216_F0
 10
0
 20
0
 30
0
 70
128
 71
1
 72
3
 73
2
 74
2
 0
VERTEX
 8
MESH_216_F0
 10
0
 20
0
 30
0
 70
128
 71
4
 72
3
 73
1
 74
1
 0
SEQEND
 0
POLYLINE
 8
MESH_215_F0
 66
1
 10
0.0
 20
0.0
 30
0.0
 70
64
 71
4
 72
2
 0
VERTEX
 8
MESH_215_F0
 10
-170.5
 20
-21
 30
1986.5
 70
192
 0
VERTEX
 8
MESH_215_F0
 10
-170.5
 20
-21
 30
1946.9999
 70
192
 0
VERTEX
 8
MESH_215_F0
 10
-184.5
 20
-21
 30
1946.9999
 70
192
 0
VERTEX
 8
MESH_215_F0
 10
-184.5
 20
-21
 30
1986.5
 70
192
 0
VERTEX
 8
MESH_215_F0
 10
0
 20
0
 30
0
 70
128
 71
4
 72
2
 73
1
 74
1
 0
VERTEX
 8
MESH_215_F0
 10
0
 20
0
 30
0
 70
128
 71
3
 72
2
 73
4
 74
4
 0
SEQEND
 0
POLYLINE
 8
MESH_214_F0
 66
1
 10
0.0
 20
0.0
 30
0.0
 70
64
 71
4
 72
2
 0
VERTEX
 8
MESH_214_F0
 10
-184.5
 20
-21
 30
1946.9999
 70
192
 0
VERTEX
 8
MESH_214_F0
 10
-170.5
 20
-21
 30
1946.9999
 70
192
 0
VERTEX
 8
MESH_214_F0
 10
-170.5
 20
-17.8
 30
1946.9999
 70
192
 0
VERTEX
 8
MESH_214_F0
 10
-184.5
 20
-17.8
 30
1946.9999
 70
192
 0
VERTEX
 8
MESH_214_F0
 10
0
 20
0
 30
0
 70
128
 71
1
 72
3
 73
2
 74
2
 0
VERTEX
 8
MESH_214_F0
 10
0
 20
0
 30
0
 70
128
 71
4
 72
3
 73
1
 74
1
 0
SEQEND
 0
POLYLINE
 8
MESH_213_F0
 66
1
 10
0.0
 20
0.0
 30
0.0
 70
64
 71
8
 72
6
 0
VERTEX
 8
MESH_213_F0
 10
-184.5
 20
-17.8
 30
1946.9999
 70
192
 0
VERTEX
 8
MESH_213_F0
 10
-170.5
 20
-17.8
 30
1946.9999
 70
192
 0
VERTEX
 8
MESH_213_F0
 10
-170.5
 20
-17.8
 30
1986.5
 70
192
 0
VERTEX
 8
MESH_213_F0
 10
170.5
 20
-17.8
 30
1986.5
 70
192
 0
VERTEX
 8
MESH_213_F0
 10
170.5
 20
-17.8
 30
1946.9999
 70
192
 0
VERTEX
 8
MESH_213_F0
 10
184.5
 20
-17.8
 30
1946.9999
 70
192
 0
VERTEX
 8
MESH_213_F0
 10
184.5
 20
-17.8
 30
373.5
 70
192
 0
VERTEX
 8
MESH_213_F0
 10
-184.5
 20
-17.8
 30
373.5
 70
192
 0
VERTEX
 8
MESH_213_F0
 10
0
 20
0
 30
0
 70
128
 71
8
 72
2
 73
1
 74
1
 0
VERTEX
 8
MESH_213_F0
 10
0
 20
0
 30
0
 70
128
 71
5
 72
2
 73
8
 74
8
 0
VERTEX
 8
MESH_213_F0
 10
0
 20
0
 30
0
 70
128
 71
6
 72
5
 73
7
 74
7
 0
VERTEX
 8
MESH_213_F0
 10
0
 20
0
 30
0
 70
128
 71
5
 72
8
 73
7
 74
7
 0
VERTEX
 8
MESH_213_F0
 10
0
 20
0
 30
0
 70
128
 71
2
 72
4
 73
3
 74
3
 0
VERTEX
 8
MESH_213_F0
 10
0
 20
0
 30
0
 70
128
 71
5
 72
4
 73
2
 74
2
 0
SEQEND
 0
ENDSEC
 0
EOF
