 0
SECTION
 2
HEADER
 9
$ACADVER
 1
AC1009
 0
ENDSEC
 0
SECTION
 2
TABLES
 0
TABLE
 2
LTYPE
 70
1
 0
LTYPE
 2
CONTINUOUS
 70
64
 3
solid line
 72
65
 73
0
 40
0.0
 0
ENDTAB
 0
TABLE
 2
LAYER
 70
6
 0
LAYER
 2
0
 70
0
 62
7
 6
CONTINUOUS
 0
LAYER
 2
MESH_321_F0
 70
64
 62
7
 6
CONTINUOUS
 0
LAYER
 2
MESH_320_F0
 70
64
 62
7
 6
CONTINUOUS
 0
LAYER
 2
MESH_319_F0
 70
64
 62
7
 6
CONTINUOUS
 0
LAYER
 2
MESH_318_F0
 70
64
 62
7
 6
CONTINUOUS
 0
LAYER
 2
MESH_317_F0
 70
64
 62
7
 6
CONTINUOUS
 0
LAYER
 2
MESH_316_F0
 70
64
 62
7
 6
CONTINUOUS
 0
LAYER
 2
MESH_315_F0
 70
64
 62
7
 6
CONTINUOUS
 0
LAYER
 2
MESH_314_F0
 70
64
 62
7
 6
CONTINUOUS
 0
LAYER
 2
MESH_313_F0
 70
64
 62
7
 6
CONTINUOUS
 0
LAYER
 2
MESH_312_F0
 70
64
 62
7
 6
CONTINUOUS
 0
LAYER
 2
MESH_311_F0
 70
64
 62
7
 6
CONTINUOUS
 0
LAYER
 2
MESH_310_F0
 70
64
 62
7
 6
CONTINUOUS
 0
LAYER
 2
MESH_309_F0
 70
64
 62
7
 6
CONTINUOUS
 0
LAYER
 2
MESH_308_F0
 70
64
 62
7
 6
CONTINUOUS
 0
LAYER
 2
MESH_307_F0
 70
64
 62
7
 6
CONTINUOUS
 0
LAYER
 2
MESH_306_F0
 70
64
 62
7
 6
CONTINUOUS
 0
LAYER
 2
MESH_305_F0
 70
64
 62
7
 6
CONTINUOUS
 0
LAYER
 2
MESH_304_F0
 70
64
 62
7
 6
CONTINUOUS
 0
LAYER
 2
MESH_303_F0
 70
64
 62
7
 6
CONTINUOUS
 0
LAYER
 2
MESH_302_F0
 70
64
 62
7
 6
CONTINUOUS
 0
LAYER
 2
MESH_301_F0
 70
64
 62
7
 6
CONTINUOUS
 0
LAYER
 2
MESH_300_F0
 70
64
 62
7
 6
CONTINUOUS
 0
LAYER
 2
MESH_299_F0
 70
64
 62
7
 6
CONTINUOUS
 0
LAYER
 2
MESH_298_F0
 70
64
 62
7
 6
CONTINUOUS
 0
LAYER
 2
MESH_297_F0
 70
64
 62
7
 6
CONTINUOUS
 0
LAYER
 2
MESH_296_F0
 70
64
 62
7
 6
CONTINUOUS
 0
LAYER
 2
MESH_295_F0
 70
64
 62
7
 6
CONTINUOUS
 0
LAYER
 2
MESH_294_F0
 70
64
 62
7
 6
CONTINUOUS
 0
LAYER
 2
MESH_293_F0
 70
64
 62
7
 6
CONTINUOUS
 0
LAYER
 2
MESH_292_F0
 70
64
 62
7
 6
CONTINUOUS
 0
LAYER
 2
MESH_291_F0
 70
64
 62
7
 6
CONTINUOUS
 0
LAYER
 2
MESH_290_F0
 70
64
 62
7
 6
CONTINUOUS
 0
LAYER
 2
MESH_289_F0
 70
64
 62
7
 6
CONTINUOUS
 0
LAYER
 2
MESH_288_F0
 70
64
 62
7
 6
CONTINUOUS
 0
LAYER
 2
MESH_287_F0
 70
64
 62
7
 6
CONTINUOUS
 0
LAYER
 2
MESH_286_F0
 70
64
 62
7
 6
CONTINUOUS
 0
LAYER
 2
MESH_285_F0
 70
64
 62
7
 6
CONTINUOUS
 0
LAYER
 2
MESH_284_F0
 70
64
 62
7
 6
CONTINUOUS
 0
LAYER
 2
MESH_283_F0
 70
64
 62
7
 6
CONTINUOUS
 0
LAYER
 2
MESH_282_F0
 70
64
 62
7
 6
CONTINUOUS
 0
LAYER
 2
MESH_281_F0
 70
64
 62
7
 6
CONTINUOUS
 0
LAYER
 2
MESH_280_F0
 70
64
 62
7
 6
CONTINUOUS
 0
LAYER
 2
MESH_279_F0
 70
64
 62
7
 6
CONTINUOUS
 0
LAYER
 2
MESH_278_F0
 70
64
 62
7
 6
CONTINUOUS
 0
LAYER
 2
MESH_277_F0
 70
64
 62
7
 6
CONTINUOUS
 0
LAYER
 2
MESH_276_F0
 70
64
 62
7
 6
CONTINUOUS
 0
LAYER
 2
MESH_275_F0
 70
64
 62
7
 6
CONTINUOUS
 0
LAYER
 2
MESH_274_F0
 70
64
 62
7
 6
CONTINUOUS
 0
LAYER
 2
MESH_273_F0
 70
64
 62
7
 6
CONTINUOUS
 0
LAYER
 2
MESH_272_F0
 70
64
 62
7
 6
CONTINUOUS
 0
LAYER
 2
MESH_271_F0
 70
64
 62
7
 6
CONTINUOUS
 0
LAYER
 2
MESH_270_F0
 70
64
 62
7
 6
CONTINUOUS
 0
LAYER
 2
MESH_269_F0
 70
64
 62
7
 6
CONTINUOUS
 0
LAYER
 2
MESH_268_F0
 70
64
 62
7
 6
CONTINUOUS
 0
LAYER
 2
MESH_267_F0
 70
64
 62
7
 6
CONTINUOUS
 0
LAYER
 2
MESH_266_F0
 70
64
 62
7
 6
CONTINUOUS
 0
LAYER
 2
MESH_265_F0
 70
64
 62
7
 6
CONTINUOUS
 0
LAYER
 2
MESH_264_F0
 70
64
 62
7
 6
CONTINUOUS
 0
LAYER
 2
MESH_263_F0
 70
64
 62
7
 6
CONTINUOUS
 0
LAYER
 2
MESH_262_F0
 70
64
 62
7
 6
CONTINUOUS
 0
LAYER
 2
MESH_261_F0
 70
64
 62
7
 6
CONTINUOUS
 0
LAYER
 2
MESH_260_F0
 70
64
 62
7
 6
CONTINUOUS
 0
LAYER
 2
MESH_259_F0
 70
64
 62
7
 6
CONTINUOUS
 0
LAYER
 2
MESH_258_F0
 70
64
 62
7
 6
CONTINUOUS
 0
LAYER
 2
MESH_257_F0
 70
64
 62
7
 6
CONTINUOUS
 0
LAYER
 2
MESH_256_F0
 70
64
 62
7
 6
CONTINUOUS
 0
LAYER
 2
MESH_255_F0
 70
64
 62
7
 6
CONTINUOUS
 0
LAYER
 2
MESH_254_F0
 70
64
 62
7
 6
CONTINUOUS
 0
LAYER
 2
MESH_253_F0
 70
64
 62
7
 6
CONTINUOUS
 0
ENDTAB
 0
ENDSEC
 0
SECTION
 2
BLOCKS
 0
ENDSEC
 0
SECTION
 2
ENTITIES
 0
POLYLINE
 8
MESH_321_F0
 66
1
 10
0.0
 20
0.0
 30
0.0
 70
64
 71
30
 72
28
 0
VERTEX
 8
MESH_321_F0
 10
-298.5
 20
-322.5
 30
650
 70
192
 0
VERTEX
 8
MESH_321_F0
 10
-298.5
 20
-322.5
 30
654
 70
192
 0
VERTEX
 8
MESH_321_F0
 10
-301.3842
 20
-322.3353
 30
654
 70
192
 0
VERTEX
 8
MESH_321_F0
 10
-304.2017
 20
-321.8544
 30
654
 70
192
 0
VERTEX
 8
MESH_321_F0
 10
-306.9446
 20
-321.0602
 30
654
 70
192
 0
VERTEX
 8
MESH_321_F0
 10
-309.5894
 20
-319.9624
 30
654
 70
192
 0
VERTEX
 8
MESH_321_F0
 10
-312.0845
 20
-318.5807
 30
654
 70
192
 0
VERTEX
 8
MESH_321_F0
 10
-314.4077
 20
-316.9296
 30
654
 70
192
 0
VERTEX
 8
MESH_321_F0
 10
-316.5308
 20
-315.0308
 30
654
 70
192
 0
VERTEX
 8
MESH_321_F0
 10
-318.4296
 20
-312.9078
 30
654
 70
192
 0
VERTEX
 8
MESH_321_F0
 10
-320.0807
 20
-310.5844
 30
654
 70
192
 0
VERTEX
 8
MESH_321_F0
 10
-321.4624
 20
-308.0894
 30
654
 70
192
 0
VERTEX
 8
MESH_321_F0
 10
-322.5602
 20
-305.4446
 30
654
 70
192
 0
VERTEX
 8
MESH_321_F0
 10
-323.3544
 20
-302.7017
 30
654
 70
192
 0
VERTEX
 8
MESH_321_F0
 10
-323.8353
 20
-299.8842
 30
654
 70
192
 0
VERTEX
 8
MESH_321_F0
 10
-324
 20
-297
 30
654
 70
192
 0
VERTEX
 8
MESH_321_F0
 10
-324
 20
-297
 30
650
 70
192
 0
VERTEX
 8
MESH_321_F0
 10
-323.8353
 20
-299.8842
 30
650
 70
192
 0
VERTEX
 8
MESH_321_F0
 10
-323.3544
 20
-302.7017
 30
650
 70
192
 0
VERTEX
 8
MESH_321_F0
 10
-322.5602
 20
-305.4446
 30
650
 70
192
 0
VERTEX
 8
MESH_321_F0
 10
-321.4624
 20
-308.0894
 30
650
 70
192
 0
VERTEX
 8
MESH_321_F0
 10
-320.0807
 20
-310.5844
 30
650
 70
192
 0
VERTEX
 8
MESH_321_F0
 10
-318.4296
 20
-312.9078
 30
650
 70
192
 0
VERTEX
 8
MESH_321_F0
 10
-316.5308
 20
-315.0308
 30
650
 70
192
 0
VERTEX
 8
MESH_321_F0
 10
-314.4077
 20
-316.9296
 30
650
 70
192
 0
VERTEX
 8
MESH_321_F0
 10
-312.0845
 20
-318.5807
 30
650
 70
192
 0
VERTEX
 8
MESH_321_F0
 10
-309.5894
 20
-319.9624
 30
650
 70
192
 0
VERTEX
 8
MESH_321_F0
 10
-306.9446
 20
-321.0602
 30
650
 70
192
 0
VERTEX
 8
MESH_321_F0
 10
-304.2017
 20
-321.8544
 30
650
 70
192
 0
VERTEX
 8
MESH_321_F0
 10
-301.3842
 20
-322.3353
 30
650
 70
192
 0
VERTEX
 8
MESH_321_F0
 10
0
 20
0
 30
0
 70
128
 71
30
 72
2
 73
1
 74
1
 0
VERTEX
 8
MESH_321_F0
 10
0
 20
0
 30
0
 70
128
 71
3
 72
2
 73
30
 74
30
 0
VERTEX
 8
MESH_321_F0
 10
0
 20
0
 30
0
 70
128
 71
3
 72
30
 73
4
 74
4
 0
VERTEX
 8
MESH_321_F0
 10
0
 20
0
 30
0
 70
128
 71
30
 72
29
 73
4
 74
4
 0
VERTEX
 8
MESH_321_F0
 10
0
 20
0
 30
0
 70
128
 71
29
 72
5
 73
4
 74
4
 0
VERTEX
 8
MESH_321_F0
 10
0
 20
0
 30
0
 70
128
 71
28
 72
5
 73
29
 74
29
 0
VERTEX
 8
MESH_321_F0
 10
0
 20
0
 30
0
 70
128
 71
6
 72
5
 73
28
 74
28
 0
VERTEX
 8
MESH_321_F0
 10
0
 20
0
 30
0
 70
128
 71
7
 72
6
 73
27
 74
27
 0
VERTEX
 8
MESH_321_F0
 10
0
 20
0
 30
0
 70
128
 71
8
 72
7
 73
26
 74
26
 0
VERTEX
 8
MESH_321_F0
 10
0
 20
0
 30
0
 70
128
 71
9
 72
8
 73
25
 74
25
 0
VERTEX
 8
MESH_321_F0
 10
0
 20
0
 30
0
 70
128
 71
10
 72
9
 73
24
 74
24
 0
VERTEX
 8
MESH_321_F0
 10
0
 20
0
 30
0
 70
128
 71
11
 72
10
 73
23
 74
23
 0
VERTEX
 8
MESH_321_F0
 10
0
 20
0
 30
0
 70
128
 71
12
 72
11
 73
22
 74
22
 0
VERTEX
 8
MESH_321_F0
 10
0
 20
0
 30
0
 70
128
 71
13
 72
12
 73
21
 74
21
 0
VERTEX
 8
MESH_321_F0
 10
0
 20
0
 30
0
 70
128
 71
14
 72
13
 73
20
 74
20
 0
VERTEX
 8
MESH_321_F0
 10
0
 20
0
 30
0
 70
128
 71
15
 72
14
 73
19
 74
19
 0
VERTEX
 8
MESH_321_F0
 10
0
 20
0
 30
0
 70
128
 71
17
 72
15
 73
18
 74
18
 0
VERTEX
 8
MESH_321_F0
 10
0
 20
0
 30
0
 70
128
 71
15
 72
19
 73
18
 74
18
 0
VERTEX
 8
MESH_321_F0
 10
0
 20
0
 30
0
 70
128
 71
17
 72
16
 73
15
 74
15
 0
VERTEX
 8
MESH_321_F0
 10
0
 20
0
 30
0
 70
128
 71
14
 72
20
 73
19
 74
19
 0
VERTEX
 8
MESH_321_F0
 10
0
 20
0
 30
0
 70
128
 71
13
 72
21
 73
20
 74
20
 0
VERTEX
 8
MESH_321_F0
 10
0
 20
0
 30
0
 70
128
 71
12
 72
22
 73
21
 74
21
 0
VERTEX
 8
MESH_321_F0
 10
0
 20
0
 30
0
 70
128
 71
11
 72
23
 73
22
 74
22
 0
VERTEX
 8
MESH_321_F0
 10
0
 20
0
 30
0
 70
128
 71
10
 72
24
 73
23
 74
23
 0
VERTEX
 8
MESH_321_F0
 10
0
 20
0
 30
0
 70
128
 71
9
 72
25
 73
24
 74
24
 0
VERTEX
 8
MESH_321_F0
 10
0
 20
0
 30
0
 70
128
 71
8
 72
26
 73
25
 74
25
 0
VERTEX
 8
MESH_321_F0
 10
0
 20
0
 30
0
 70
128
 71
7
 72
27
 73
26
 74
26
 0
VERTEX
 8
MESH_321_F0
 10
0
 20
0
 30
0
 70
128
 71
6
 72
28
 73
27
 74
27
 0
SEQEND
 0
POLYLINE
 8
MESH_320_F0
 66
1
 10
0.0
 20
0.0
 30
0.0
 70
64
 71
4
 72
2
 0
VERTEX
 8
MESH_320_F0
 10
-298.5
 20
-322.5
 30
654
 70
192
 0
VERTEX
 8
MESH_320_F0
 10
-298.5
 20
-322.5
 30
650
 70
192
 0
VERTEX
 8
MESH_320_F0
 10
298.5
 20
-322.5
 30
650
 70
192
 0
VERTEX
 8
MESH_320_F0
 10
298.5
 20
-322.5
 30
654
 70
192
 0
VERTEX
 8
MESH_320_F0
 10
0
 20
0
 30
0
 70
128
 71
1
 72
3
 73
2
 74
2
 0
VERTEX
 8
MESH_320_F0
 10
0
 20
0
 30
0
 70
128
 71
4
 72
3
 73
1
 74
1
 0
SEQEND
 0
POLYLINE
 8
MESH_319_F0
 66
1
 10
0.0
 20
0.0
 30
0.0
 70
64
 71
30
 72
28
 0
VERTEX
 8
MESH_319_F0
 10
324
 20
-297
 30
650
 70
192
 0
VERTEX
 8
MESH_319_F0
 10
324
 20
-297
 30
654
 70
192
 0
VERTEX
 8
MESH_319_F0
 10
323.8353
 20
-299.8842
 30
654
 70
192
 0
VERTEX
 8
MESH_319_F0
 10
323.3544
 20
-302.7017
 30
654
 70
192
 0
VERTEX
 8
MESH_319_F0
 10
322.5602
 20
-305.4446
 30
654
 70
192
 0
VERTEX
 8
MESH_319_F0
 10
321.4624
 20
-308.0894
 30
654
 70
192
 0
VERTEX
 8
MESH_319_F0
 10
320.0807
 20
-310.5844
 30
654
 70
192
 0
VERTEX
 8
MESH_319_F0
 10
318.4296
 20
-312.9078
 30
654
 70
192
 0
VERTEX
 8
MESH_319_F0
 10
316.5308
 20
-315.0308
 30
654
 70
192
 0
VERTEX
 8
MESH_319_F0
 10
314.4077
 20
-316.9296
 30
654
 70
192
 0
VERTEX
 8
MESH_319_F0
 10
312.0845
 20
-318.5807
 30
654
 70
192
 0
VERTEX
 8
MESH_319_F0
 10
309.5894
 20
-319.9624
 30
654
 70
192
 0
VERTEX
 8
MESH_319_F0
 10
306.9446
 20
-321.0602
 30
654
 70
192
 0
VERTEX
 8
MESH_319_F0
 10
304.2017
 20
-321.8544
 30
654
 70
192
 0
VERTEX
 8
MESH_319_F0
 10
301.3842
 20
-322.3353
 30
654
 70
192
 0
VERTEX
 8
MESH_319_F0
 10
298.5
 20
-322.5
 30
654
 70
192
 0
VERTEX
 8
MESH_319_F0
 10
298.5
 20
-322.5
 30
650
 70
192
 0
VERTEX
 8
MESH_319_F0
 10
301.3842
 20
-322.3353
 30
650
 70
192
 0
VERTEX
 8
MESH_319_F0
 10
304.2017
 20
-321.8544
 30
650
 70
192
 0
VERTEX
 8
MESH_319_F0
 10
306.9446
 20
-321.0602
 30
650
 70
192
 0
VERTEX
 8
MESH_319_F0
 10
309.5894
 20
-319.9624
 30
650
 70
192
 0
VERTEX
 8
MESH_319_F0
 10
312.0845
 20
-318.5807
 30
650
 70
192
 0
VERTEX
 8
MESH_319_F0
 10
314.4077
 20
-316.9296
 30
650
 70
192
 0
VERTEX
 8
MESH_319_F0
 10
316.5308
 20
-315.0308
 30
650
 70
192
 0
VERTEX
 8
MESH_319_F0
 10
318.4296
 20
-312.9078
 30
650
 70
192
 0
VERTEX
 8
MESH_319_F0
 10
320.0807
 20
-310.5844
 30
650
 70
192
 0
VERTEX
 8
MESH_319_F0
 10
321.4624
 20
-308.0894
 30
650
 70
192
 0
VERTEX
 8
MESH_319_F0
 10
322.5602
 20
-305.4446
 30
650
 70
192
 0
VERTEX
 8
MESH_319_F0
 10
323.3544
 20
-302.7017
 30
650
 70
192
 0
VERTEX
 8
MESH_319_F0
 10
323.8353
 20
-299.8842
 30
650
 70
192
 0
VERTEX
 8
MESH_319_F0
 10
0
 20
0
 30
0
 70
128
 71
30
 72
2
 73
1
 74
1
 0
VERTEX
 8
MESH_319_F0
 10
0
 20
0
 30
0
 70
128
 71
3
 72
2
 73
30
 74
30
 0
VERTEX
 8
MESH_319_F0
 10
0
 20
0
 30
0
 70
128
 71
3
 72
30
 73
4
 74
4
 0
VERTEX
 8
MESH_319_F0
 10
0
 20
0
 30
0
 70
128
 71
30
 72
29
 73
4
 74
4
 0
VERTEX
 8
MESH_319_F0
 10
0
 20
0
 30
0
 70
128
 71
29
 72
5
 73
4
 74
4
 0
VERTEX
 8
MESH_319_F0
 10
0
 20
0
 30
0
 70
128
 71
28
 72
5
 73
29
 74
29
 0
VERTEX
 8
MESH_319_F0
 10
0
 20
0
 30
0
 70
128
 71
6
 72
5
 73
28
 74
28
 0
VERTEX
 8
MESH_319_F0
 10
0
 20
0
 30
0
 70
128
 71
7
 72
6
 73
27
 74
27
 0
VERTEX
 8
MESH_319_F0
 10
0
 20
0
 30
0
 70
128
 71
8
 72
7
 73
26
 74
26
 0
VERTEX
 8
MESH_319_F0
 10
0
 20
0
 30
0
 70
128
 71
9
 72
8
 73
25
 74
25
 0
VERTEX
 8
MESH_319_F0
 10
0
 20
0
 30
0
 70
128
 71
10
 72
9
 73
24
 74
24
 0
VERTEX
 8
MESH_319_F0
 10
0
 20
0
 30
0
 70
128
 71
11
 72
10
 73
23
 74
23
 0
VERTEX
 8
MESH_319_F0
 10
0
 20
0
 30
0
 70
128
 71
12
 72
11
 73
22
 74
22
 0
VERTEX
 8
MESH_319_F0
 10
0
 20
0
 30
0
 70
128
 71
13
 72
12
 73
21
 74
21
 0
VERTEX
 8
MESH_319_F0
 10
0
 20
0
 30
0
 70
128
 71
14
 72
13
 73
20
 74
20
 0
VERTEX
 8
MESH_319_F0
 10
0
 20
0
 30
0
 70
128
 71
15
 72
14
 73
19
 74
19
 0
VERTEX
 8
MESH_319_F0
 10
0
 20
0
 30
0
 70
128
 71
17
 72
15
 73
18
 74
18
 0
VERTEX
 8
MESH_319_F0
 10
0
 20
0
 30
0
 70
128
 71
15
 72
19
 73
18
 74
18
 0
VERTEX
 8
MESH_319_F0
 10
0
 20
0
 30
0
 70
128
 71
17
 72
16
 73
15
 74
15
 0
VERTEX
 8
MESH_319_F0
 10
0
 20
0
 30
0
 70
128
 71
14
 72
20
 73
19
 74
19
 0
VERTEX
 8
MESH_319_F0
 10
0
 20
0
 30
0
 70
128
 71
13
 72
21
 73
20
 74
20
 0
VERTEX
 8
MESH_319_F0
 10
0
 20
0
 30
0
 70
128
 71
12
 72
22
 73
21
 74
21
 0
VERTEX
 8
MESH_319_F0
 10
0
 20
0
 30
0
 70
128
 71
11
 72
23
 73
22
 74
22
 0
VERTEX
 8
MESH_319_F0
 10
0
 20
0
 30
0
 70
128
 71
10
 72
24
 73
23
 74
23
 0
VERTEX
 8
MESH_319_F0
 10
0
 20
0
 30
0
 70
128
 71
9
 72
25
 73
24
 74
24
 0
VERTEX
 8
MESH_319_F0
 10
0
 20
0
 30
0
 70
128
 71
8
 72
26
 73
25
 74
25
 0
VERTEX
 8
MESH_319_F0
 10
0
 20
0
 30
0
 70
128
 71
7
 72
27
 73
26
 74
26
 0
VERTEX
 8
MESH_319_F0
 10
0
 20
0
 30
0
 70
128
 71
6
 72
28
 73
27
 74
27
 0
SEQEND
 0
POLYLINE
 8
MESH_318_F0
 66
1
 10
0.0
 20
0.0
 30
0.0
 70
64
 71
4
 72
2
 0
VERTEX
 8
MESH_318_F0
 10
324
 20
-295
 30
654
 70
192
 0
VERTEX
 8
MESH_318_F0
 10
324
 20
-297
 30
654
 70
192
 0
VERTEX
 8
MESH_318_F0
 10
324
 20
-297
 30
650
 70
192
 0
VERTEX
 8
MESH_318_F0
 10
324
 20
-295
 30
650
 70
192
 0
VERTEX
 8
MESH_318_F0
 10
0
 20
0
 30
0
 70
128
 71
4
 72
2
 73
1
 74
1
 0
VERTEX
 8
MESH_318_F0
 10
0
 20
0
 30
0
 70
128
 71
3
 72
2
 73
4
 74
4
 0
SEQEND
 0
POLYLINE
 8
MESH_317_F0
 66
1
 10
0.0
 20
0.0
 30
0.0
 70
64
 71
32
 72
30
 0
VERTEX
 8
MESH_317_F0
 10
324
 20
-295
 30
650
 70
192
 0
VERTEX
 8
MESH_317_F0
 10
324
 20
-297
 30
650
 70
192
 0
VERTEX
 8
MESH_317_F0
 10
323.8353
 20
-299.8842
 30
650
 70
192
 0
VERTEX
 8
MESH_317_F0
 10
323.3544
 20
-302.7017
 30
650
 70
192
 0
VERTEX
 8
MESH_317_F0
 10
322.5602
 20
-305.4446
 30
650
 70
192
 0
VERTEX
 8
MESH_317_F0
 10
321.4624
 20
-308.0894
 30
650
 70
192
 0
VERTEX
 8
MESH_317_F0
 10
320.0807
 20
-310.5844
 30
650
 70
192
 0
VERTEX
 8
MESH_317_F0
 10
318.4296
 20
-312.9078
 30
650
 70
192
 0
VERTEX
 8
MESH_317_F0
 10
316.5308
 20
-315.0308
 30
650
 70
192
 0
VERTEX
 8
MESH_317_F0
 10
314.4077
 20
-316.9296
 30
650
 70
192
 0
VERTEX
 8
MESH_317_F0
 10
312.0845
 20
-318.5807
 30
650
 70
192
 0
VERTEX
 8
MESH_317_F0
 10
309.5894
 20
-319.9624
 30
650
 70
192
 0
VERTEX
 8
MESH_317_F0
 10
306.9446
 20
-321.0602
 30
650
 70
192
 0
VERTEX
 8
MESH_317_F0
 10
304.2017
 20
-321.8544
 30
650
 70
192
 0
VERTEX
 8
MESH_317_F0
 10
301.3842
 20
-322.3353
 30
650
 70
192
 0
VERTEX
 8
MESH_317_F0
 10
298.5
 20
-322.5
 30
650
 70
192
 0
VERTEX
 8
MESH_317_F0
 10
-298.5
 20
-322.5
 30
650
 70
192
 0
VERTEX
 8
MESH_317_F0
 10
-301.3842
 20
-322.3353
 30
650
 70
192
 0
VERTEX
 8
MESH_317_F0
 10
-304.2017
 20
-321.8544
 30
650
 70
192
 0
VERTEX
 8
MESH_317_F0
 10
-306.9446
 20
-321.0602
 30
650
 70
192
 0
VERTEX
 8
MESH_317_F0
 10
-309.5894
 20
-319.9624
 30
650
 70
192
 0
VERTEX
 8
MESH_317_F0
 10
-312.0845
 20
-318.5807
 30
650
 70
192
 0
VERTEX
 8
MESH_317_F0
 10
-314.4077
 20
-316.9296
 30
650
 70
192
 0
VERTEX
 8
MESH_317_F0
 10
-316.5308
 20
-315.0308
 30
650
 70
192
 0
VERTEX
 8
MESH_317_F0
 10
-318.4296
 20
-312.9078
 30
650
 70
192
 0
VERTEX
 8
MESH_317_F0
 10
-320.0807
 20
-310.5844
 30
650
 70
192
 0
VERTEX
 8
MESH_317_F0
 10
-321.4624
 20
-308.0894
 30
650
 70
192
 0
VERTEX
 8
MESH_317_F0
 10
-322.5602
 20
-305.4446
 30
650
 70
192
 0
VERTEX
 8
MESH_317_F0
 10
-323.3544
 20
-302.7017
 30
650
 70
192
 0
VERTEX
 8
MESH_317_F0
 10
-323.8353
 20
-299.8842
 30
650
 70
192
 0
VERTEX
 8
MESH_317_F0
 10
-324
 20
-297
 30
650
 70
192
 0
VERTEX
 8
MESH_317_F0
 10
-324
 20
-295
 30
650
 70
192
 0
VERTEX
 8
MESH_317_F0
 10
0
 20
0
 30
0
 70
128
 71
1
 72
29
 73
2
 74
2
 0
VERTEX
 8
MESH_317_F0
 10
0
 20
0
 30
0
 70
128
 71
29
 72
3
 73
2
 74
2
 0
VERTEX
 8
MESH_317_F0
 10
0
 20
0
 30
0
 70
128
 71
4
 72
3
 73
29
 74
29
 0
VERTEX
 8
MESH_317_F0
 10
0
 20
0
 30
0
 70
128
 71
4
 72
29
 73
5
 74
5
 0
VERTEX
 8
MESH_317_F0
 10
0
 20
0
 30
0
 70
128
 71
29
 72
6
 73
5
 74
5
 0
VERTEX
 8
MESH_317_F0
 10
0
 20
0
 30
0
 70
128
 71
28
 72
6
 73
29
 74
29
 0
VERTEX
 8
MESH_317_F0
 10
0
 20
0
 30
0
 70
128
 71
7
 72
6
 73
28
 74
28
 0
VERTEX
 8
MESH_317_F0
 10
0
 20
0
 30
0
 70
128
 71
7
 72
28
 73
8
 74
8
 0
VERTEX
 8
MESH_317_F0
 10
0
 20
0
 30
0
 70
128
 71
28
 72
9
 73
8
 74
8
 0
VERTEX
 8
MESH_317_F0
 10
0
 20
0
 30
0
 70
128
 71
27
 72
9
 73
28
 74
28
 0
VERTEX
 8
MESH_317_F0
 10
0
 20
0
 30
0
 70
128
 71
10
 72
9
 73
27
 74
27
 0
VERTEX
 8
MESH_317_F0
 10
0
 20
0
 30
0
 70
128
 71
11
 72
10
 73
26
 74
26
 0
VERTEX
 8
MESH_317_F0
 10
0
 20
0
 30
0
 70
128
 71
11
 72
26
 73
12
 74
12
 0
VERTEX
 8
MESH_317_F0
 10
0
 20
0
 30
0
 70
128
 71
26
 72
25
 73
12
 74
12
 0
VERTEX
 8
MESH_317_F0
 10
0
 20
0
 30
0
 70
128
 71
25
 72
16
 73
12
 74
12
 0
VERTEX
 8
MESH_317_F0
 10
0
 20
0
 30
0
 70
128
 71
16
 72
13
 73
12
 74
12
 0
VERTEX
 8
MESH_317_F0
 10
0
 20
0
 30
0
 70
128
 71
14
 72
13
 73
16
 74
16
 0
VERTEX
 8
MESH_317_F0
 10
0
 20
0
 30
0
 70
128
 71
14
 72
16
 73
15
 74
15
 0
VERTEX
 8
MESH_317_F0
 10
0
 20
0
 30
0
 70
128
 71
17
 72
20
 73
19
 74
19
 0
VERTEX
 8
MESH_317_F0
 10
0
 20
0
 30
0
 70
128
 71
17
 72
19
 73
18
 74
18
 0
VERTEX
 8
MESH_317_F0
 10
0
 20
0
 30
0
 70
128
 71
17
 72
21
 73
20
 74
20
 0
VERTEX
 8
MESH_317_F0
 10
0
 20
0
 30
0
 70
128
 71
16
 72
21
 73
17
 74
17
 0
VERTEX
 8
MESH_317_F0
 10
0
 20
0
 30
0
 70
128
 71
22
 72
21
 73
16
 74
16
 0
VERTEX
 8
MESH_317_F0
 10
0
 20
0
 30
0
 70
128
 71
22
 72
16
 73
23
 74
23
 0
VERTEX
 8
MESH_317_F0
 10
0
 20
0
 30
0
 70
128
 71
16
 72
24
 73
23
 74
23
 0
VERTEX
 8
MESH_317_F0
 10
0
 20
0
 30
0
 70
128
 71
25
 72
24
 73
16
 74
16
 0
VERTEX
 8
MESH_317_F0
 10
0
 20
0
 30
0
 70
128
 71
10
 72
27
 73
26
 74
26
 0
VERTEX
 8
MESH_317_F0
 10
0
 20
0
 30
0
 70
128
 71
1
 72
30
 73
29
 74
29
 0
VERTEX
 8
MESH_317_F0
 10
0
 20
0
 30
0
 70
128
 71
31
 72
30
 73
1
 74
1
 0
VERTEX
 8
MESH_317_F0
 10
0
 20
0
 30
0
 70
128
 71
31
 72
1
 73
32
 74
32
 0
SEQEND
 0
POLYLINE
 8
MESH_316_F0
 66
1
 10
0.0
 20
0.0
 30
0.0
 70
64
 71
4
 72
2
 0
VERTEX
 8
MESH_316_F0
 10
-324
 20
-295
 30
650
 70
192
 0
VERTEX
 8
MESH_316_F0
 10
-324
 20
-297
 30
650
 70
192
 0
VERTEX
 8
MESH_316_F0
 10
-324
 20
-297
 30
654
 70
192
 0
VERTEX
 8
MESH_316_F0
 10
-324
 20
-295
 30
654
 70
192
 0
VERTEX
 8
MESH_316_F0
 10
0
 20
0
 30
0
 70
128
 71
4
 72
2
 73
1
 74
1
 0
VERTEX
 8
MESH_316_F0
 10
0
 20
0
 30
0
 70
128
 71
3
 72
2
 73
4
 74
4
 0
SEQEND
 0
POLYLINE
 8
MESH_315_F0
 66
1
 10
0.0
 20
0.0
 30
0.0
 70
64
 71
4
 72
2
 0
VERTEX
 8
MESH_315_F0
 10
298.501
 20
-322
 30
654
 70
192
 0
VERTEX
 8
MESH_315_F0
 10
298.501
 20
-322
 30
819
 70
192
 0
VERTEX
 8
MESH_315_F0
 10
-298.501
 20
-322
 30
819
 70
192
 0
VERTEX
 8
MESH_315_F0
 10
-298.501
 20
-322
 30
654
 70
192
 0
VERTEX
 8
MESH_315_F0
 10
0
 20
0
 30
0
 70
128
 71
1
 72
3
 73
2
 74
2
 0
VERTEX
 8
MESH_315_F0
 10
0
 20
0
 30
0
 70
128
 71
4
 72
3
 73
1
 74
1
 0
SEQEND
 0
POLYLINE
 8
MESH_314_F0
 66
1
 10
0.0
 20
0.0
 30
0.0
 70
64
 71
30
 72
28
 0
VERTEX
 8
MESH_314_F0
 10
323.4198
 20
-295
 30
819
 70
192
 0
VERTEX
 8
MESH_314_F0
 10
323.4821
 20
-297.9456
 30
819
 70
192
 0
VERTEX
 8
MESH_314_F0
 10
323.1975
 20
-300.8781
 30
819
 70
192
 0
VERTEX
 8
MESH_314_F0
 10
322.5699
 20
-303.7567
 30
819
 70
192
 0
VERTEX
 8
MESH_314_F0
 10
321.6079
 20
-306.5415
 30
819
 70
192
 0
VERTEX
 8
MESH_314_F0
 10
320.325
 20
-309.1938
 30
819
 70
192
 0
VERTEX
 8
MESH_314_F0
 10
318.739
 20
-311.6767
 30
819
 70
192
 0
VERTEX
 8
MESH_314_F0
 10
316.8718
 20
-313.9557
 30
819
 70
192
 0
VERTEX
 8
MESH_314_F0
 10
314.7495
 20
-315.9993
 30
819
 70
192
 0
VERTEX
 8
MESH_314_F0
 10
312.4015
 20
-317.779
 30
819
 70
192
 0
VERTEX
 8
MESH_314_F0
 10
309.8604
 20
-319.2701
 30
819
 70
192
 0
VERTEX
 8
MESH_314_F0
 10
307.1616
 20
-320.4519
 30
819
 70
192
 0
VERTEX
 8
MESH_314_F0
 10
304.3424
 20
-321.308
 30
819
 70
192
 0
VERTEX
 8
MESH_314_F0
 10
301.4421
 20
-321.8264
 30
819
 70
192
 0
VERTEX
 8
MESH_314_F0
 10
298.501
 20
-322
 30
819
 70
192
 0
VERTEX
 8
MESH_314_F0
 10
298.501
 20
-322
 30
654
 70
192
 0
VERTEX
 8
MESH_314_F0
 10
301.4421
 20
-321.8264
 30
654
 70
192
 0
VERTEX
 8
MESH_314_F0
 10
304.3424
 20
-321.308
 30
654
 70
192
 0
VERTEX
 8
MESH_314_F0
 10
307.1616
 20
-320.4519
 30
654
 70
192
 0
VERTEX
 8
MESH_314_F0
 10
309.8604
 20
-319.2701
 30
654
 70
192
 0
VERTEX
 8
MESH_314_F0
 10
312.4015
 20
-317.779
 30
654
 70
192
 0
VERTEX
 8
MESH_314_F0
 10
314.7495
 20
-315.9993
 30
654
 70
192
 0
VERTEX
 8
MESH_314_F0
 10
316.8718
 20
-313.9557
 30
654
 70
192
 0
VERTEX
 8
MESH_314_F0
 10
318.739
 20
-311.6767
 30
654
 70
192
 0
VERTEX
 8
MESH_314_F0
 10
320.325
 20
-309.1938
 30
654
 70
192
 0
VERTEX
 8
MESH_314_F0
 10
321.6079
 20
-306.5415
 30
654
 70
192
 0
VERTEX
 8
MESH_314_F0
 10
322.5699
 20
-303.7567
 30
654
 70
192
 0
VERTEX
 8
MESH_314_F0
 10
323.1975
 20
-300.8781
 30
654
 70
192
 0
VERTEX
 8
MESH_314_F0
 10
323.4821
 20
-297.9456
 30
654
 70
192
 0
VERTEX
 8
MESH_314_F0
 10
323.4198
 20
-295
 30
654
 70
192
 0
VERTEX
 8
MESH_314_F0
 10
0
 20
0
 30
0
 70
128
 71
29
 72
1
 73
30
 74
30
 0
VERTEX
 8
MESH_314_F0
 10
0
 20
0
 30
0
 70
128
 71
2
 72
1
 73
29
 74
29
 0
VERTEX
 8
MESH_314_F0
 10
0
 20
0
 30
0
 70
128
 71
3
 72
2
 73
28
 74
28
 0
VERTEX
 8
MESH_314_F0
 10
0
 20
0
 30
0
 70
128
 71
4
 72
3
 73
27
 74
27
 0
VERTEX
 8
MESH_314_F0
 10
0
 20
0
 30
0
 70
128
 71
5
 72
4
 73
26
 74
26
 0
VERTEX
 8
MESH_314_F0
 10
0
 20
0
 30
0
 70
128
 71
6
 72
5
 73
25
 74
25
 0
VERTEX
 8
MESH_314_F0
 10
0
 20
0
 30
0
 70
128
 71
7
 72
6
 73
24
 74
24
 0
VERTEX
 8
MESH_314_F0
 10
0
 20
0
 30
0
 70
128
 71
8
 72
7
 73
23
 74
23
 0
VERTEX
 8
MESH_314_F0
 10
0
 20
0
 30
0
 70
128
 71
9
 72
8
 73
22
 74
22
 0
VERTEX
 8
MESH_314_F0
 10
0
 20
0
 30
0
 70
128
 71
10
 72
9
 73
21
 74
21
 0
VERTEX
 8
MESH_314_F0
 10
0
 20
0
 30
0
 70
128
 71
11
 72
10
 73
20
 74
20
 0
VERTEX
 8
MESH_314_F0
 10
0
 20
0
 30
0
 70
128
 71
12
 72
11
 73
19
 74
19
 0
VERTEX
 8
MESH_314_F0
 10
0
 20
0
 30
0
 70
128
 71
13
 72
12
 73
18
 74
18
 0
VERTEX
 8
MESH_314_F0
 10
0
 20
0
 30
0
 70
128
 71
14
 72
13
 73
17
 74
17
 0
VERTEX
 8
MESH_314_F0
 10
0
 20
0
 30
0
 70
128
 71
15
 72
14
 73
16
 74
16
 0
VERTEX
 8
MESH_314_F0
 10
0
 20
0
 30
0
 70
128
 71
14
 72
17
 73
16
 74
16
 0
VERTEX
 8
MESH_314_F0
 10
0
 20
0
 30
0
 70
128
 71
13
 72
18
 73
17
 74
17
 0
VERTEX
 8
MESH_314_F0
 10
0
 20
0
 30
0
 70
128
 71
12
 72
19
 73
18
 74
18
 0
VERTEX
 8
MESH_314_F0
 10
0
 20
0
 30
0
 70
128
 71
11
 72
20
 73
19
 74
19
 0
VERTEX
 8
MESH_314_F0
 10
0
 20
0
 30
0
 70
128
 71
10
 72
21
 73
20
 74
20
 0
VERTEX
 8
MESH_314_F0
 10
0
 20
0
 30
0
 70
128
 71
9
 72
22
 73
21
 74
21
 0
VERTEX
 8
MESH_314_F0
 10
0
 20
0
 30
0
 70
128
 71
8
 72
23
 73
22
 74
22
 0
VERTEX
 8
MESH_314_F0
 10
0
 20
0
 30
0
 70
128
 71
7
 72
24
 73
23
 74
23
 0
VERTEX
 8
MESH_314_F0
 10
0
 20
0
 30
0
 70
128
 71
6
 72
25
 73
24
 74
24
 0
VERTEX
 8
MESH_314_F0
 10
0
 20
0
 30
0
 70
128
 71
5
 72
26
 73
25
 74
25
 0
VERTEX
 8
MESH_314_F0
 10
0
 20
0
 30
0
 70
128
 71
4
 72
27
 73
26
 74
26
 0
VERTEX
 8
MESH_314_F0
 10
0
 20
0
 30
0
 70
128
 71
3
 72
28
 73
27
 74
27
 0
VERTEX
 8
MESH_314_F0
 10
0
 20
0
 30
0
 70
128
 71
2
 72
29
 73
28
 74
28
 0
SEQEND
 0
POLYLINE
 8
MESH_313_F0
 66
1
 10
0.0
 20
0.0
 30
0.0
 70
64
 71
62
 72
60
 0
VERTEX
 8
MESH_313_F0
 10
323.4198
 20
-295
 30
654
 70
192
 0
VERTEX
 8
MESH_313_F0
 10
323.4821
 20
-297.9456
 30
654
 70
192
 0
VERTEX
 8
MESH_313_F0
 10
323.1975
 20
-300.8781
 30
654
 70
192
 0
VERTEX
 8
MESH_313_F0
 10
322.5699
 20
-303.7567
 30
654
 70
192
 0
VERTEX
 8
MESH_313_F0
 10
321.6079
 20
-306.5415
 30
654
 70
192
 0
VERTEX
 8
MESH_313_F0
 10
320.325
 20
-309.1938
 30
654
 70
192
 0
VERTEX
 8
MESH_313_F0
 10
318.739
 20
-311.6767
 30
654
 70
192
 0
VERTEX
 8
MESH_313_F0
 10
316.8718
 20
-313.9557
 30
654
 70
192
 0
VERTEX
 8
MESH_313_F0
 10
314.7495
 20
-315.9993
 30
654
 70
192
 0
VERTEX
 8
MESH_313_F0
 10
312.4015
 20
-317.779
 30
654
 70
192
 0
VERTEX
 8
MESH_313_F0
 10
309.8604
 20
-319.2701
 30
654
 70
192
 0
VERTEX
 8
MESH_313_F0
 10
307.1616
 20
-320.4519
 30
654
 70
192
 0
VERTEX
 8
MESH_313_F0
 10
304.3424
 20
-321.308
 30
654
 70
192
 0
VERTEX
 8
MESH_313_F0
 10
301.4421
 20
-321.8264
 30
654
 70
192
 0
VERTEX
 8
MESH_313_F0
 10
298.501
 20
-322
 30
654
 70
192
 0
VERTEX
 8
MESH_313_F0
 10
-298.501
 20
-322
 30
654
 70
192
 0
VERTEX
 8
MESH_313_F0
 10
-301.4421
 20
-321.8264
 30
654
 70
192
 0
VERTEX
 8
MESH_313_F0
 10
-304.3424
 20
-321.308
 30
654
 70
192
 0
VERTEX
 8
MESH_313_F0
 10
-307.1616
 20
-320.4519
 30
654
 70
192
 0
VERTEX
 8
MESH_313_F0
 10
-309.8604
 20
-319.2701
 30
654
 70
192
 0
VERTEX
 8
MESH_313_F0
 10
-312.4015
 20
-317.779
 30
654
 70
192
 0
VERTEX
 8
MESH_313_F0
 10
-314.7495
 20
-315.9993
 30
654
 70
192
 0
VERTEX
 8
MESH_313_F0
 10
-316.8718
 20
-313.9557
 30
654
 70
192
 0
VERTEX
 8
MESH_313_F0
 10
-318.739
 20
-311.6767
 30
654
 70
192
 0
VERTEX
 8
MESH_313_F0
 10
-320.325
 20
-309.1938
 30
654
 70
192
 0
VERTEX
 8
MESH_313_F0
 10
-321.6079
 20
-306.5415
 30
654
 70
192
 0
VERTEX
 8
MESH_313_F0
 10
-322.5699
 20
-303.7567
 30
654
 70
192
 0
VERTEX
 8
MESH_313_F0
 10
-323.1975
 20
-300.8781
 30
654
 70
192
 0
VERTEX
 8
MESH_313_F0
 10
-323.4821
 20
-297.9456
 30
654
 70
192
 0
VERTEX
 8
MESH_313_F0
 10
-323.4198
 20
-295
 30
654
 70
192
 0
VERTEX
 8
MESH_313_F0
 10
-324
 20
-295
 30
654
 70
192
 0
VERTEX
 8
MESH_313_F0
 10
-324
 20
-297
 30
654
 70
192
 0
VERTEX
 8
MESH_313_F0
 10
-323.8353
 20
-299.8842
 30
654
 70
192
 0
VERTEX
 8
MESH_313_F0
 10
-323.3544
 20
-302.7017
 30
654
 70
192
 0
VERTEX
 8
MESH_313_F0
 10
-322.5602
 20
-305.4446
 30
654
 70
192
 0
VERTEX
 8
MESH_313_F0
 10
-321.4624
 20
-308.0894
 30
654
 70
192
 0
VERTEX
 8
MESH_313_F0
 10
-320.0807
 20
-310.5844
 30
654
 70
192
 0
VERTEX
 8
MESH_313_F0
 10
-318.4296
 20
-312.9078
 30
654
 70
192
 0
VERTEX
 8
MESH_313_F0
 10
-316.5308
 20
-315.0308
 30
654
 70
192
 0
VERTEX
 8
MESH_313_F0
 10
-314.4077
 20
-316.9296
 30
654
 70
192
 0
VERTEX
 8
MESH_313_F0
 10
-312.0845
 20
-318.5807
 30
654
 70
192
 0
VERTEX
 8
MESH_313_F0
 10
-309.5894
 20
-319.9624
 30
654
 70
192
 0
VERTEX
 8
MESH_313_F0
 10
-306.9446
 20
-321.0602
 30
654
 70
192
 0
VERTEX
 8
MESH_313_F0
 10
-304.2017
 20
-321.8544
 30
654
 70
192
 0
VERTEX
 8
MESH_313_F0
 10
-301.3842
 20
-322.3353
 30
654
 70
192
 0
VERTEX
 8
MESH_313_F0
 10
-298.5
 20
-322.5
 30
654
 70
192
 0
VERTEX
 8
MESH_313_F0
 10
298.5
 20
-322.5
 30
654
 70
192
 0
VERTEX
 8
MESH_313_F0
 10
301.3842
 20
-322.3353
 30
654
 70
192
 0
VERTEX
 8
MESH_313_F0
 10
304.2017
 20
-321.8544
 30
654
 70
192
 0
VERTEX
 8
MESH_313_F0
 10
306.9446
 20
-321.0602
 30
654
 70
192
 0
VERTEX
 8
MESH_313_F0
 10
309.5894
 20
-319.9624
 30
654
 70
192
 0
VERTEX
 8
MESH_313_F0
 10
312.0845
 20
-318.5807
 30
654
 70
192
 0
VERTEX
 8
MESH_313_F0
 10
314.4077
 20
-316.9296
 30
654
 70
192
 0
VERTEX
 8
MESH_313_F0
 10
316.5308
 20
-315.0308
 30
654
 70
192
 0
VERTEX
 8
MESH_313_F0
 10
318.4296
 20
-312.9078
 30
654
 70
192
 0
VERTEX
 8
MESH_313_F0
 10
320.0807
 20
-310.5844
 30
654
 70
192
 0
VERTEX
 8
MESH_313_F0
 10
321.4624
 20
-308.0894
 30
654
 70
192
 0
VERTEX
 8
MESH_313_F0
 10
322.5602
 20
-305.4446
 30
654
 70
192
 0
VERTEX
 8
MESH_313_F0
 10
323.3544
 20
-302.7017
 30
654
 70
192
 0
VERTEX
 8
MESH_313_F0
 10
323.8353
 20
-299.8842
 30
654
 70
192
 0
VERTEX
 8
MESH_313_F0
 10
324
 20
-297
 30
654
 70
192
 0
VERTEX
 8
MESH_313_F0
 10
324
 20
-295
 30
654
 70
192
 0
VERTEX
 8
MESH_313_F0
 10
0
 20
0
 30
0
 70
128
 71
61
 72
1
 73
62
 74
62
 0
VERTEX
 8
MESH_313_F0
 10
0
 20
0
 30
0
 70
128
 71
2
 72
1
 73
61
 74
61
 0
VERTEX
 8
MESH_313_F0
 10
0
 20
0
 30
0
 70
128
 71
3
 72
2
 73
60
 74
60
 0
VERTEX
 8
MESH_313_F0
 10
0
 20
0
 30
0
 70
128
 71
4
 72
3
 73
59
 74
59
 0
VERTEX
 8
MESH_313_F0
 10
0
 20
0
 30
0
 70
128
 71
5
 72
4
 73
58
 74
58
 0
VERTEX
 8
MESH_313_F0
 10
0
 20
0
 30
0
 70
128
 71
6
 72
5
 73
57
 74
57
 0
VERTEX
 8
MESH_313_F0
 10
0
 20
0
 30
0
 70
128
 71
7
 72
6
 73
56
 74
56
 0
VERTEX
 8
MESH_313_F0
 10
0
 20
0
 30
0
 70
128
 71
8
 72
7
 73
55
 74
55
 0
VERTEX
 8
MESH_313_F0
 10
0
 20
0
 30
0
 70
128
 71
9
 72
8
 73
54
 74
54
 0
VERTEX
 8
MESH_313_F0
 10
0
 20
0
 30
0
 70
128
 71
10
 72
9
 73
53
 74
53
 0
VERTEX
 8
MESH_313_F0
 10
0
 20
0
 30
0
 70
128
 71
11
 72
10
 73
52
 74
52
 0
VERTEX
 8
MESH_313_F0
 10
0
 20
0
 30
0
 70
128
 71
12
 72
11
 73
51
 74
51
 0
VERTEX
 8
MESH_313_F0
 10
0
 20
0
 30
0
 70
128
 71
13
 72
12
 73
50
 74
50
 0
VERTEX
 8
MESH_313_F0
 10
0
 20
0
 30
0
 70
128
 71
14
 72
13
 73
49
 74
49
 0
VERTEX
 8
MESH_313_F0
 10
0
 20
0
 30
0
 70
128
 71
14
 72
49
 73
15
 74
15
 0
VERTEX
 8
MESH_313_F0
 10
0
 20
0
 30
0
 70
128
 71
49
 72
48
 73
15
 74
15
 0
VERTEX
 8
MESH_313_F0
 10
0
 20
0
 30
0
 70
128
 71
48
 72
47
 73
15
 74
15
 0
VERTEX
 8
MESH_313_F0
 10
0
 20
0
 30
0
 70
128
 71
47
 72
46
 73
15
 74
15
 0
VERTEX
 8
MESH_313_F0
 10
0
 20
0
 30
0
 70
128
 71
46
 72
16
 73
15
 74
15
 0
VERTEX
 8
MESH_313_F0
 10
0
 20
0
 30
0
 70
128
 71
45
 72
16
 73
46
 74
46
 0
VERTEX
 8
MESH_313_F0
 10
0
 20
0
 30
0
 70
128
 71
44
 72
16
 73
45
 74
45
 0
VERTEX
 8
MESH_313_F0
 10
0
 20
0
 30
0
 70
128
 71
17
 72
16
 73
44
 74
44
 0
VERTEX
 8
MESH_313_F0
 10
0
 20
0
 30
0
 70
128
 71
17
 72
44
 73
18
 74
18
 0
VERTEX
 8
MESH_313_F0
 10
0
 20
0
 30
0
 70
128
 71
44
 72
43
 73
18
 74
18
 0
VERTEX
 8
MESH_313_F0
 10
0
 20
0
 30
0
 70
128
 71
43
 72
19
 73
18
 74
18
 0
VERTEX
 8
MESH_313_F0
 10
0
 20
0
 30
0
 70
128
 71
42
 72
19
 73
43
 74
43
 0
VERTEX
 8
MESH_313_F0
 10
0
 20
0
 30
0
 70
128
 71
20
 72
19
 73
42
 74
42
 0
VERTEX
 8
MESH_313_F0
 10
0
 20
0
 30
0
 70
128
 71
21
 72
20
 73
41
 74
41
 0
VERTEX
 8
MESH_313_F0
 10
0
 20
0
 30
0
 70
128
 71
22
 72
21
 73
40
 74
40
 0
VERTEX
 8
MESH_313_F0
 10
0
 20
0
 30
0
 70
128
 71
23
 72
22
 73
39
 74
39
 0
VERTEX
 8
MESH_313_F0
 10
0
 20
0
 30
0
 70
128
 71
24
 72
23
 73
38
 74
38
 0
VERTEX
 8
MESH_313_F0
 10
0
 20
0
 30
0
 70
128
 71
25
 72
24
 73
37
 74
37
 0
VERTEX
 8
MESH_313_F0
 10
0
 20
0
 30
0
 70
128
 71
26
 72
25
 73
36
 74
36
 0
VERTEX
 8
MESH_313_F0
 10
0
 20
0
 30
0
 70
128
 71
27
 72
26
 73
35
 74
35
 0
VERTEX
 8
MESH_313_F0
 10
0
 20
0
 30
0
 70
128
 71
28
 72
27
 73
34
 74
34
 0
VERTEX
 8
MESH_313_F0
 10
0
 20
0
 30
0
 70
128
 71
29
 72
28
 73
33
 74
33
 0
VERTEX
 8
MESH_313_F0
 10
0
 20
0
 30
0
 70
128
 71
30
 72
29
 73
32
 74
32
 0
VERTEX
 8
MESH_313_F0
 10
0
 20
0
 30
0
 70
128
 71
30
 72
32
 73
31
 74
31
 0
VERTEX
 8
MESH_313_F0
 10
0
 20
0
 30
0
 70
128
 71
29
 72
33
 73
32
 74
32
 0
VERTEX
 8
MESH_313_F0
 10
0
 20
0
 30
0
 70
128
 71
28
 72
34
 73
33
 74
33
 0
VERTEX
 8
MESH_313_F0
 10
0
 20
0
 30
0
 70
128
 71
27
 72
35
 73
34
 74
34
 0
VERTEX
 8
MESH_313_F0
 10
0
 20
0
 30
0
 70
128
 71
26
 72
36
 73
35
 74
35
 0
VERTEX
 8
MESH_313_F0
 10
0
 20
0
 30
0
 70
128
 71
25
 72
37
 73
36
 74
36
 0
VERTEX
 8
MESH_313_F0
 10
0
 20
0
 30
0
 70
128
 71
24
 72
38
 73
37
 74
37
 0
VERTEX
 8
MESH_313_F0
 10
0
 20
0
 30
0
 70
128
 71
23
 72
39
 73
38
 74
38
 0
VERTEX
 8
MESH_313_F0
 10
0
 20
0
 30
0
 70
128
 71
22
 72
40
 73
39
 74
39
 0
VERTEX
 8
MESH_313_F0
 10
0
 20
0
 30
0
 70
128
 71
21
 72
41
 73
40
 74
40
 0
VERTEX
 8
MESH_313_F0
 10
0
 20
0
 30
0
 70
128
 71
20
 72
42
 73
41
 74
41
 0
VERTEX
 8
MESH_313_F0
 10
0
 20
0
 30
0
 70
128
 71
13
 72
50
 73
49
 74
49
 0
VERTEX
 8
MESH_313_F0
 10
0
 20
0
 30
0
 70
128
 71
12
 72
51
 73
50
 74
50
 0
VERTEX
 8
MESH_313_F0
 10
0
 20
0
 30
0
 70
128
 71
11
 72
52
 73
51
 74
51
 0
VERTEX
 8
MESH_313_F0
 10
0
 20
0
 30
0
 70
128
 71
10
 72
53
 73
52
 74
52
 0
VERTEX
 8
MESH_313_F0
 10
0
 20
0
 30
0
 70
128
 71
9
 72
54
 73
53
 74
53
 0
VERTEX
 8
MESH_313_F0
 10
0
 20
0
 30
0
 70
128
 71
8
 72
55
 73
54
 74
54
 0
VERTEX
 8
MESH_313_F0
 10
0
 20
0
 30
0
 70
128
 71
7
 72
56
 73
55
 74
55
 0
VERTEX
 8
MESH_313_F0
 10
0
 20
0
 30
0
 70
128
 71
6
 72
57
 73
56
 74
56
 0
VERTEX
 8
MESH_313_F0
 10
0
 20
0
 30
0
 70
128
 71
5
 72
58
 73
57
 74
57
 0
VERTEX
 8
MESH_313_F0
 10
0
 20
0
 30
0
 70
128
 71
4
 72
59
 73
58
 74
58
 0
VERTEX
 8
MESH_313_F0
 10
0
 20
0
 30
0
 70
128
 71
3
 72
60
 73
59
 74
59
 0
VERTEX
 8
MESH_313_F0
 10
0
 20
0
 30
0
 70
128
 71
2
 72
61
 73
60
 74
60
 0
SEQEND
 0
POLYLINE
 8
MESH_312_F0
 66
1
 10
0.0
 20
0.0
 30
0.0
 70
64
 71
30
 72
28
 0
VERTEX
 8
MESH_312_F0
 10
-323.4198
 20
-295
 30
654
 70
192
 0
VERTEX
 8
MESH_312_F0
 10
-323.4821
 20
-297.9456
 30
654
 70
192
 0
VERTEX
 8
MESH_312_F0
 10
-323.1975
 20
-300.8781
 30
654
 70
192
 0
VERTEX
 8
MESH_312_F0
 10
-322.5699
 20
-303.7567
 30
654
 70
192
 0
VERTEX
 8
MESH_312_F0
 10
-321.6079
 20
-306.5415
 30
654
 70
192
 0
VERTEX
 8
MESH_312_F0
 10
-320.325
 20
-309.1938
 30
654
 70
192
 0
VERTEX
 8
MESH_312_F0
 10
-318.739
 20
-311.6767
 30
654
 70
192
 0
VERTEX
 8
MESH_312_F0
 10
-316.8718
 20
-313.9557
 30
654
 70
192
 0
VERTEX
 8
MESH_312_F0
 10
-314.7495
 20
-315.9993
 30
654
 70
192
 0
VERTEX
 8
MESH_312_F0
 10
-312.4015
 20
-317.779
 30
654
 70
192
 0
VERTEX
 8
MESH_312_F0
 10
-309.8604
 20
-319.2701
 30
654
 70
192
 0
VERTEX
 8
MESH_312_F0
 10
-307.1616
 20
-320.4519
 30
654
 70
192
 0
VERTEX
 8
MESH_312_F0
 10
-304.3424
 20
-321.308
 30
654
 70
192
 0
VERTEX
 8
MESH_312_F0
 10
-301.4421
 20
-321.8264
 30
654
 70
192
 0
VERTEX
 8
MESH_312_F0
 10
-298.501
 20
-322
 30
654
 70
192
 0
VERTEX
 8
MESH_312_F0
 10
-298.501
 20
-322
 30
819
 70
192
 0
VERTEX
 8
MESH_312_F0
 10
-301.4421
 20
-321.8264
 30
819
 70
192
 0
VERTEX
 8
MESH_312_F0
 10
-304.3424
 20
-321.308
 30
819
 70
192
 0
VERTEX
 8
MESH_312_F0
 10
-307.1616
 20
-320.4519
 30
819
 70
192
 0
VERTEX
 8
MESH_312_F0
 10
-309.8604
 20
-319.2701
 30
819
 70
192
 0
VERTEX
 8
MESH_312_F0
 10
-312.4015
 20
-317.779
 30
819
 70
192
 0
VERTEX
 8
MESH_312_F0
 10
-314.7495
 20
-315.9993
 30
819
 70
192
 0
VERTEX
 8
MESH_312_F0
 10
-316.8718
 20
-313.9557
 30
819
 70
192
 0
VERTEX
 8
MESH_312_F0
 10
-318.739
 20
-311.6767
 30
819
 70
192
 0
VERTEX
 8
MESH_312_F0
 10
-320.325
 20
-309.1938
 30
819
 70
192
 0
VERTEX
 8
MESH_312_F0
 10
-321.6079
 20
-306.5415
 30
819
 70
192
 0
VERTEX
 8
MESH_312_F0
 10
-322.5699
 20
-303.7567
 30
819
 70
192
 0
VERTEX
 8
MESH_312_F0
 10
-323.1975
 20
-300.8781
 30
819
 70
192
 0
VERTEX
 8
MESH_312_F0
 10
-323.4821
 20
-297.9456
 30
819
 70
192
 0
VERTEX
 8
MESH_312_F0
 10
-323.4198
 20
-295
 30
819
 70
192
 0
VERTEX
 8
MESH_312_F0
 10
0
 20
0
 30
0
 70
128
 71
29
 72
1
 73
30
 74
30
 0
VERTEX
 8
MESH_312_F0
 10
0
 20
0
 30
0
 70
128
 71
2
 72
1
 73
29
 74
29
 0
VERTEX
 8
MESH_312_F0
 10
0
 20
0
 30
0
 70
128
 71
3
 72
2
 73
28
 74
28
 0
VERTEX
 8
MESH_312_F0
 10
0
 20
0
 30
0
 70
128
 71
4
 72
3
 73
27
 74
27
 0
VERTEX
 8
MESH_312_F0
 10
0
 20
0
 30
0
 70
128
 71
5
 72
4
 73
26
 74
26
 0
VERTEX
 8
MESH_312_F0
 10
0
 20
0
 30
0
 70
128
 71
6
 72
5
 73
25
 74
25
 0
VERTEX
 8
MESH_312_F0
 10
0
 20
0
 30
0
 70
128
 71
7
 72
6
 73
24
 74
24
 0
VERTEX
 8
MESH_312_F0
 10
0
 20
0
 30
0
 70
128
 71
8
 72
7
 73
23
 74
23
 0
VERTEX
 8
MESH_312_F0
 10
0
 20
0
 30
0
 70
128
 71
9
 72
8
 73
22
 74
22
 0
VERTEX
 8
MESH_312_F0
 10
0
 20
0
 30
0
 70
128
 71
10
 72
9
 73
21
 74
21
 0
VERTEX
 8
MESH_312_F0
 10
0
 20
0
 30
0
 70
128
 71
11
 72
10
 73
20
 74
20
 0
VERTEX
 8
MESH_312_F0
 10
0
 20
0
 30
0
 70
128
 71
12
 72
11
 73
19
 74
19
 0
VERTEX
 8
MESH_312_F0
 10
0
 20
0
 30
0
 70
128
 71
13
 72
12
 73
18
 74
18
 0
VERTEX
 8
MESH_312_F0
 10
0
 20
0
 30
0
 70
128
 71
14
 72
13
 73
17
 74
17
 0
VERTEX
 8
MESH_312_F0
 10
0
 20
0
 30
0
 70
128
 71
15
 72
14
 73
16
 74
16
 0
VERTEX
 8
MESH_312_F0
 10
0
 20
0
 30
0
 70
128
 71
14
 72
17
 73
16
 74
16
 0
VERTEX
 8
MESH_312_F0
 10
0
 20
0
 30
0
 70
128
 71
13
 72
18
 73
17
 74
17
 0
VERTEX
 8
MESH_312_F0
 10
0
 20
0
 30
0
 70
128
 71
12
 72
19
 73
18
 74
18
 0
VERTEX
 8
MESH_312_F0
 10
0
 20
0
 30
0
 70
128
 71
11
 72
20
 73
19
 74
19
 0
VERTEX
 8
MESH_312_F0
 10
0
 20
0
 30
0
 70
128
 71
10
 72
21
 73
20
 74
20
 0
VERTEX
 8
MESH_312_F0
 10
0
 20
0
 30
0
 70
128
 71
9
 72
22
 73
21
 74
21
 0
VERTEX
 8
MESH_312_F0
 10
0
 20
0
 30
0
 70
128
 71
8
 72
23
 73
22
 74
22
 0
VERTEX
 8
MESH_312_F0
 10
0
 20
0
 30
0
 70
128
 71
7
 72
24
 73
23
 74
23
 0
VERTEX
 8
MESH_312_F0
 10
0
 20
0
 30
0
 70
128
 71
6
 72
25
 73
24
 74
24
 0
VERTEX
 8
MESH_312_F0
 10
0
 20
0
 30
0
 70
128
 71
5
 72
26
 73
25
 74
25
 0
VERTEX
 8
MESH_312_F0
 10
0
 20
0
 30
0
 70
128
 71
4
 72
27
 73
26
 74
26
 0
VERTEX
 8
MESH_312_F0
 10
0
 20
0
 30
0
 70
128
 71
3
 72
28
 73
27
 74
27
 0
VERTEX
 8
MESH_312_F0
 10
0
 20
0
 30
0
 70
128
 71
2
 72
29
 73
28
 74
28
 0
SEQEND
 0
POLYLINE
 8
MESH_311_F0
 66
1
 10
0.0
 20
0.0
 30
0.0
 70
64
 71
30
 72
28
 0
VERTEX
 8
MESH_311_F0
 10
-323.4198
 20
-295
 30
819
 70
192
 0
VERTEX
 8
MESH_311_F0
 10
-323.4821
 20
-297.9456
 30
819
 70
192
 0
VERTEX
 8
MESH_311_F0
 10
-323.1975
 20
-300.8781
 30
819
 70
192
 0
VERTEX
 8
MESH_311_F0
 10
-322.5699
 20
-303.7567
 30
819
 70
192
 0
VERTEX
 8
MESH_311_F0
 10
-321.6079
 20
-306.5415
 30
819
 70
192
 0
VERTEX
 8
MESH_311_F0
 10
-320.325
 20
-309.1938
 30
819
 70
192
 0
VERTEX
 8
MESH_311_F0
 10
-318.739
 20
-311.6767
 30
819
 70
192
 0
VERTEX
 8
MESH_311_F0
 10
-316.8718
 20
-313.9557
 30
819
 70
192
 0
VERTEX
 8
MESH_311_F0
 10
-314.7495
 20
-315.9993
 30
819
 70
192
 0
VERTEX
 8
MESH_311_F0
 10
-312.4015
 20
-317.779
 30
819
 70
192
 0
VERTEX
 8
MESH_311_F0
 10
-309.8604
 20
-319.2701
 30
819
 70
192
 0
VERTEX
 8
MESH_311_F0
 10
-307.1616
 20
-320.4519
 30
819
 70
192
 0
VERTEX
 8
MESH_311_F0
 10
-304.3424
 20
-321.308
 30
819
 70
192
 0
VERTEX
 8
MESH_311_F0
 10
-301.4421
 20
-321.8264
 30
819
 70
192
 0
VERTEX
 8
MESH_311_F0
 10
-298.501
 20
-322
 30
819
 70
192
 0
VERTEX
 8
MESH_311_F0
 10
298.501
 20
-322
 30
819
 70
192
 0
VERTEX
 8
MESH_311_F0
 10
301.4421
 20
-321.8264
 30
819
 70
192
 0
VERTEX
 8
MESH_311_F0
 10
304.3424
 20
-321.308
 30
819
 70
192
 0
VERTEX
 8
MESH_311_F0
 10
307.1616
 20
-320.4519
 30
819
 70
192
 0
VERTEX
 8
MESH_311_F0
 10
309.8604
 20
-319.2701
 30
819
 70
192
 0
VERTEX
 8
MESH_311_F0
 10
312.4015
 20
-317.779
 30
819
 70
192
 0
VERTEX
 8
MESH_311_F0
 10
314.7495
 20
-315.9993
 30
819
 70
192
 0
VERTEX
 8
MESH_311_F0
 10
316.8718
 20
-313.9557
 30
819
 70
192
 0
VERTEX
 8
MESH_311_F0
 10
318.739
 20
-311.6767
 30
819
 70
192
 0
VERTEX
 8
MESH_311_F0
 10
320.325
 20
-309.1938
 30
819
 70
192
 0
VERTEX
 8
MESH_311_F0
 10
321.6079
 20
-306.5415
 30
819
 70
192
 0
VERTEX
 8
MESH_311_F0
 10
322.5699
 20
-303.7567
 30
819
 70
192
 0
VERTEX
 8
MESH_311_F0
 10
323.1975
 20
-300.8781
 30
819
 70
192
 0
VERTEX
 8
MESH_311_F0
 10
323.4821
 20
-297.9456
 30
819
 70
192
 0
VERTEX
 8
MESH_311_F0
 10
323.4198
 20
-295
 30
819
 70
192
 0
VERTEX
 8
MESH_311_F0
 10
0
 20
0
 30
0
 70
128
 71
1
 72
28
 73
2
 74
2
 0
VERTEX
 8
MESH_311_F0
 10
0
 20
0
 30
0
 70
128
 71
28
 72
3
 73
2
 74
2
 0
VERTEX
 8
MESH_311_F0
 10
0
 20
0
 30
0
 70
128
 71
4
 72
3
 73
28
 74
28
 0
VERTEX
 8
MESH_311_F0
 10
0
 20
0
 30
0
 70
128
 71
5
 72
4
 73
27
 74
27
 0
VERTEX
 8
MESH_311_F0
 10
0
 20
0
 30
0
 70
128
 71
5
 72
27
 73
6
 74
6
 0
VERTEX
 8
MESH_311_F0
 10
0
 20
0
 30
0
 70
128
 71
27
 72
7
 73
6
 74
6
 0
VERTEX
 8
MESH_311_F0
 10
0
 20
0
 30
0
 70
128
 71
26
 72
7
 73
27
 74
27
 0
VERTEX
 8
MESH_311_F0
 10
0
 20
0
 30
0
 70
128
 71
8
 72
7
 73
26
 74
26
 0
VERTEX
 8
MESH_311_F0
 10
0
 20
0
 30
0
 70
128
 71
8
 72
26
 73
9
 74
9
 0
VERTEX
 8
MESH_311_F0
 10
0
 20
0
 30
0
 70
128
 71
26
 72
25
 73
9
 74
9
 0
VERTEX
 8
MESH_311_F0
 10
0
 20
0
 30
0
 70
128
 71
25
 72
10
 73
9
 74
9
 0
VERTEX
 8
MESH_311_F0
 10
0
 20
0
 30
0
 70
128
 71
11
 72
10
 73
25
 74
25
 0
VERTEX
 8
MESH_311_F0
 10
0
 20
0
 30
0
 70
128
 71
12
 72
11
 73
24
 74
24
 0
VERTEX
 8
MESH_311_F0
 10
0
 20
0
 30
0
 70
128
 71
13
 72
12
 73
15
 74
15
 0
VERTEX
 8
MESH_311_F0
 10
0
 20
0
 30
0
 70
128
 71
13
 72
15
 73
14
 74
14
 0
VERTEX
 8
MESH_311_F0
 10
0
 20
0
 30
0
 70
128
 71
16
 72
18
 73
17
 74
17
 0
VERTEX
 8
MESH_311_F0
 10
0
 20
0
 30
0
 70
128
 71
19
 72
18
 73
16
 74
16
 0
VERTEX
 8
MESH_311_F0
 10
0
 20
0
 30
0
 70
128
 71
20
 72
19
 73
15
 74
15
 0
VERTEX
 8
MESH_311_F0
 10
0
 20
0
 30
0
 70
128
 71
20
 72
15
 73
21
 74
21
 0
VERTEX
 8
MESH_311_F0
 10
0
 20
0
 30
0
 70
128
 71
15
 72
22
 73
21
 74
21
 0
VERTEX
 8
MESH_311_F0
 10
0
 20
0
 30
0
 70
128
 71
23
 72
22
 73
15
 74
15
 0
VERTEX
 8
MESH_311_F0
 10
0
 20
0
 30
0
 70
128
 71
23
 72
15
 73
24
 74
24
 0
VERTEX
 8
MESH_311_F0
 10
0
 20
0
 30
0
 70
128
 71
15
 72
12
 73
24
 74
24
 0
VERTEX
 8
MESH_311_F0
 10
0
 20
0
 30
0
 70
128
 71
11
 72
25
 73
24
 74
24
 0
VERTEX
 8
MESH_311_F0
 10
0
 20
0
 30
0
 70
128
 71
4
 72
28
 73
27
 74
27
 0
VERTEX
 8
MESH_311_F0
 10
0
 20
0
 30
0
 70
128
 71
1
 72
29
 73
28
 74
28
 0
VERTEX
 8
MESH_311_F0
 10
0
 20
0
 30
0
 70
128
 71
30
 72
29
 73
1
 74
1
 0
VERTEX
 8
MESH_311_F0
 10
0
 20
0
 30
0
 70
128
 71
15
 72
19
 73
16
 74
16
 0
SEQEND
 0
POLYLINE
 8
MESH_310_F0
 66
1
 10
0.0
 20
0.0
 30
0.0
 70
64
 71
4
 72
2
 0
VERTEX
 8
MESH_310_F0
 10
-325
 20
0
 30
820.0001
 70
192
 0
VERTEX
 8
MESH_310_F0
 10
-325
 20
0
 30
0
 70
192
 0
VERTEX
 8
MESH_310_F0
 10
-325
 20
-295
 30
0
 70
192
 0
VERTEX
 8
MESH_310_F0
 10
-325
 20
-295
 30
820.0001
 70
192
 0
VERTEX
 8
MESH_310_F0
 10
0
 20
0
 30
0
 70
128
 71
1
 72
3
 73
2
 74
2
 0
VERTEX
 8
MESH_310_F0
 10
0
 20
0
 30
0
 70
128
 71
4
 72
3
 73
1
 74
1
 0
SEQEND
 0
POLYLINE
 8
MESH_309_F0
 66
1
 10
0.0
 20
0.0
 30
0.0
 70
64
 71
32
 72
30
 0
VERTEX
 8
MESH_309_F0
 10
-326
 20
-297
 30
844.9999
 70
192
 0
VERTEX
 8
MESH_309_F0
 10
-325.8321
 20
-299.9408
 30
844.9999
 70
192
 0
VERTEX
 8
MESH_309_F0
 10
-325.3417
 20
-302.8135
 30
844.9999
 70
192
 0
VERTEX
 8
MESH_309_F0
 10
-324.532
 20
-305.6102
 30
844.9999
 70
192
 0
VERTEX
 8
MESH_309_F0
 10
-323.4127
 20
-308.3068
 30
844.9999
 70
192
 0
VERTEX
 8
MESH_309_F0
 10
-322.0038
 20
-310.8508
 30
844.9999
 70
192
 0
VERTEX
 8
MESH_309_F0
 10
-320.3204
 20
-313.2197
 30
844.9999
 70
192
 0
VERTEX
 8
MESH_309_F0
 10
-318.3844
 20
-315.3844
 30
844.9999
 70
192
 0
VERTEX
 8
MESH_309_F0
 10
-316.2197
 20
-317.3204
 30
844.9999
 70
192
 0
VERTEX
 8
MESH_309_F0
 10
-313.8508
 20
-319.0038
 30
844.9999
 70
192
 0
VERTEX
 8
MESH_309_F0
 10
-311.3068
 20
-320.4127
 30
844.9999
 70
192
 0
VERTEX
 8
MESH_309_F0
 10
-308.6102
 20
-321.532
 30
844.9999
 70
192
 0
VERTEX
 8
MESH_309_F0
 10
-305.8135
 20
-322.3417
 30
844.9999
 70
192
 0
VERTEX
 8
MESH_309_F0
 10
-302.9408
 20
-322.8321
 30
844.9999
 70
192
 0
VERTEX
 8
MESH_309_F0
 10
-300
 20
-323
 30
844.9999
 70
192
 0
VERTEX
 8
MESH_309_F0
 10
300
 20
-323
 30
844.9999
 70
192
 0
VERTEX
 8
MESH_309_F0
 10
302.9408
 20
-322.8321
 30
844.9999
 70
192
 0
VERTEX
 8
MESH_309_F0
 10
305.8135
 20
-322.3417
 30
844.9999
 70
192
 0
VERTEX
 8
MESH_309_F0
 10
308.6102
 20
-321.532
 30
844.9999
 70
192
 0
VERTEX
 8
MESH_309_F0
 10
311.3068
 20
-320.4127
 30
844.9999
 70
192
 0
VERTEX
 8
MESH_309_F0
 10
313.8508
 20
-319.0038
 30
844.9999
 70
192
 0
VERTEX
 8
MESH_309_F0
 10
316.2197
 20
-317.3204
 30
844.9999
 70
192
 0
VERTEX
 8
MESH_309_F0
 10
318.3844
 20
-315.3844
 30
844.9999
 70
192
 0
VERTEX
 8
MESH_309_F0
 10
320.3204
 20
-313.2197
 30
844.9999
 70
192
 0
VERTEX
 8
MESH_309_F0
 10
322.0038
 20
-310.8508
 30
844.9999
 70
192
 0
VERTEX
 8
MESH_309_F0
 10
323.4127
 20
-308.3068
 30
844.9999
 70
192
 0
VERTEX
 8
MESH_309_F0
 10
324.532
 20
-305.6102
 30
844.9999
 70
192
 0
VERTEX
 8
MESH_309_F0
 10
325.3417
 20
-302.8135
 30
844.9999
 70
192
 0
VERTEX
 8
MESH_309_F0
 10
325.8321
 20
-299.9408
 30
844.9999
 70
192
 0
VERTEX
 8
MESH_309_F0
 10
326
 20
-297
 30
844.9999
 70
192
 0
VERTEX
 8
MESH_309_F0
 10
326
 20
0
 30
844.9999
 70
192
 0
VERTEX
 8
MESH_309_F0
 10
-326
 20
0
 30
844.9999
 70
192
 0
VERTEX
 8
MESH_309_F0
 10
0
 20
0
 30
0
 70
128
 71
32
 72
2
 73
1
 74
1
 0
VERTEX
 8
MESH_309_F0
 10
0
 20
0
 30
0
 70
128
 71
3
 72
2
 73
32
 74
32
 0
VERTEX
 8
MESH_309_F0
 10
0
 20
0
 30
0
 70
128
 71
3
 72
32
 73
4
 74
4
 0
VERTEX
 8
MESH_309_F0
 10
0
 20
0
 30
0
 70
128
 71
32
 72
5
 73
4
 74
4
 0
VERTEX
 8
MESH_309_F0
 10
0
 20
0
 30
0
 70
128
 71
6
 72
5
 73
32
 74
32
 0
VERTEX
 8
MESH_309_F0
 10
0
 20
0
 30
0
 70
128
 71
6
 72
32
 73
7
 74
7
 0
VERTEX
 8
MESH_309_F0
 10
0
 20
0
 30
0
 70
128
 71
32
 72
8
 73
7
 74
7
 0
VERTEX
 8
MESH_309_F0
 10
0
 20
0
 30
0
 70
128
 71
9
 72
8
 73
32
 74
32
 0
VERTEX
 8
MESH_309_F0
 10
0
 20
0
 30
0
 70
128
 71
9
 72
32
 73
10
 74
10
 0
VERTEX
 8
MESH_309_F0
 10
0
 20
0
 30
0
 70
128
 71
32
 72
11
 73
10
 74
10
 0
VERTEX
 8
MESH_309_F0
 10
0
 20
0
 30
0
 70
128
 71
12
 72
11
 73
32
 74
32
 0
VERTEX
 8
MESH_309_F0
 10
0
 20
0
 30
0
 70
128
 71
12
 72
32
 73
13
 74
13
 0
VERTEX
 8
MESH_309_F0
 10
0
 20
0
 30
0
 70
128
 71
32
 72
14
 73
13
 74
13
 0
VERTEX
 8
MESH_309_F0
 10
0
 20
0
 30
0
 70
128
 71
15
 72
14
 73
32
 74
32
 0
VERTEX
 8
MESH_309_F0
 10
0
 20
0
 30
0
 70
128
 71
15
 72
32
 73
16
 74
16
 0
VERTEX
 8
MESH_309_F0
 10
0
 20
0
 30
0
 70
128
 71
32
 72
30
 73
16
 74
16
 0
VERTEX
 8
MESH_309_F0
 10
0
 20
0
 30
0
 70
128
 71
30
 72
29
 73
16
 74
16
 0
VERTEX
 8
MESH_309_F0
 10
0
 20
0
 30
0
 70
128
 71
29
 72
17
 73
16
 74
16
 0
VERTEX
 8
MESH_309_F0
 10
0
 20
0
 30
0
 70
128
 71
28
 72
17
 73
29
 74
29
 0
VERTEX
 8
MESH_309_F0
 10
0
 20
0
 30
0
 70
128
 71
27
 72
17
 73
28
 74
28
 0
VERTEX
 8
MESH_309_F0
 10
0
 20
0
 30
0
 70
128
 71
26
 72
17
 73
27
 74
27
 0
VERTEX
 8
MESH_309_F0
 10
0
 20
0
 30
0
 70
128
 71
25
 72
17
 73
26
 74
26
 0
VERTEX
 8
MESH_309_F0
 10
0
 20
0
 30
0
 70
128
 71
24
 72
17
 73
25
 74
25
 0
VERTEX
 8
MESH_309_F0
 10
0
 20
0
 30
0
 70
128
 71
23
 72
17
 73
24
 74
24
 0
VERTEX
 8
MESH_309_F0
 10
0
 20
0
 30
0
 70
128
 71
22
 72
17
 73
23
 74
23
 0
VERTEX
 8
MESH_309_F0
 10
0
 20
0
 30
0
 70
128
 71
21
 72
17
 73
22
 74
22
 0
VERTEX
 8
MESH_309_F0
 10
0
 20
0
 30
0
 70
128
 71
20
 72
17
 73
21
 74
21
 0
VERTEX
 8
MESH_309_F0
 10
0
 20
0
 30
0
 70
128
 71
19
 72
17
 73
20
 74
20
 0
VERTEX
 8
MESH_309_F0
 10
0
 20
0
 30
0
 70
128
 71
18
 72
17
 73
19
 74
19
 0
VERTEX
 8
MESH_309_F0
 10
0
 20
0
 30
0
 70
128
 71
32
 72
31
 73
30
 74
30
 0
SEQEND
 0
POLYLINE
 8
MESH_308_F0
 66
1
 10
0.0
 20
0.0
 30
0.0
 70
64
 71
4
 72
2
 0
VERTEX
 8
MESH_308_F0
 10
-326
 20
-297
 30
820.0001
 70
192
 0
VERTEX
 8
MESH_308_F0
 10
-326
 20
-297
 30
844.9999
 70
192
 0
VERTEX
 8
MESH_308_F0
 10
-326
 20
0
 30
844.9999
 70
192
 0
VERTEX
 8
MESH_308_F0
 10
-326
 20
0
 30
820.0001
 70
192
 0
VERTEX
 8
MESH_308_F0
 10
0
 20
0
 30
0
 70
128
 71
1
 72
3
 73
2
 74
2
 0
VERTEX
 8
MESH_308_F0
 10
0
 20
0
 30
0
 70
128
 71
4
 72
3
 73
1
 74
1
 0
SEQEND
 0
POLYLINE
 8
MESH_307_F0
 66
1
 10
0.0
 20
0.0
 30
0.0
 70
64
 71
30
 72
28
 0
VERTEX
 8
MESH_307_F0
 10
-326
 20
-297
 30
844.9999
 70
192
 0
VERTEX
 8
MESH_307_F0
 10
-326
 20
-297
 30
820.0001
 70
192
 0
VERTEX
 8
MESH_307_F0
 10
-325.8321
 20
-299.9408
 30
820.0001
 70
192
 0
VERTEX
 8
MESH_307_F0
 10
-325.3417
 20
-302.8135
 30
820.0001
 70
192
 0
VERTEX
 8
MESH_307_F0
 10
-324.532
 20
-305.6102
 30
820.0001
 70
192
 0
VERTEX
 8
MESH_307_F0
 10
-323.4127
 20
-308.3068
 30
820.0001
 70
192
 0
VERTEX
 8
MESH_307_F0
 10
-322.0038
 20
-310.8508
 30
820.0001
 70
192
 0
VERTEX
 8
MESH_307_F0
 10
-320.3204
 20
-313.2197
 30
820.0001
 70
192
 0
VERTEX
 8
MESH_307_F0
 10
-318.3844
 20
-315.3844
 30
820.0001
 70
192
 0
VERTEX
 8
MESH_307_F0
 10
-316.2197
 20
-317.3204
 30
820.0001
 70
192
 0
VERTEX
 8
MESH_307_F0
 10
-313.8508
 20
-319.0038
 30
820.0001
 70
192
 0
VERTEX
 8
MESH_307_F0
 10
-311.3068
 20
-320.4127
 30
820.0001
 70
192
 0
VERTEX
 8
MESH_307_F0
 10
-308.6102
 20
-321.532
 30
820.0001
 70
192
 0
VERTEX
 8
MESH_307_F0
 10
-305.8135
 20
-322.3417
 30
820.0001
 70
192
 0
VERTEX
 8
MESH_307_F0
 10
-302.9408
 20
-322.8321
 30
820.0001
 70
192
 0
VERTEX
 8
MESH_307_F0
 10
-300
 20
-323
 30
820.0001
 70
192
 0
VERTEX
 8
MESH_307_F0
 10
-300
 20
-323
 30
844.9999
 70
192
 0
VERTEX
 8
MESH_307_F0
 10
-302.9408
 20
-322.8321
 30
844.9999
 70
192
 0
VERTEX
 8
MESH_307_F0
 10
-305.8135
 20
-322.3417
 30
844.9999
 70
192
 0
VERTEX
 8
MESH_307_F0
 10
-308.6102
 20
-321.532
 30
844.9999
 70
192
 0
VERTEX
 8
MESH_307_F0
 10
-311.3068
 20
-320.4127
 30
844.9999
 70
192
 0
VERTEX
 8
MESH_307_F0
 10
-313.8508
 20
-319.0038
 30
844.9999
 70
192
 0
VERTEX
 8
MESH_307_F0
 10
-316.2197
 20
-317.3204
 30
844.9999
 70
192
 0
VERTEX
 8
MESH_307_F0
 10
-318.3844
 20
-315.3844
 30
844.9999
 70
192
 0
VERTEX
 8
MESH_307_F0
 10
-320.3204
 20
-313.2197
 30
844.9999
 70
192
 0
VERTEX
 8
MESH_307_F0
 10
-322.0038
 20
-310.8508
 30
844.9999
 70
192
 0
VERTEX
 8
MESH_307_F0
 10
-323.4127
 20
-308.3068
 30
844.9999
 70
192
 0
VERTEX
 8
MESH_307_F0
 10
-324.532
 20
-305.6102
 30
844.9999
 70
192
 0
VERTEX
 8
MESH_307_F0
 10
-325.3417
 20
-302.8135
 30
844.9999
 70
192
 0
VERTEX
 8
MESH_307_F0
 10
-325.8321
 20
-299.9408
 30
844.9999
 70
192
 0
VERTEX
 8
MESH_307_F0
 10
0
 20
0
 30
0
 70
128
 71
30
 72
2
 73
1
 74
1
 0
VERTEX
 8
MESH_307_F0
 10
0
 20
0
 30
0
 70
128
 71
3
 72
2
 73
30
 74
30
 0
VERTEX
 8
MESH_307_F0
 10
0
 20
0
 30
0
 70
128
 71
3
 72
30
 73
4
 74
4
 0
VERTEX
 8
MESH_307_F0
 10
0
 20
0
 30
0
 70
128
 71
30
 72
29
 73
4
 74
4
 0
VERTEX
 8
MESH_307_F0
 10
0
 20
0
 30
0
 70
128
 71
29
 72
5
 73
4
 74
4
 0
VERTEX
 8
MESH_307_F0
 10
0
 20
0
 30
0
 70
128
 71
28
 72
5
 73
29
 74
29
 0
VERTEX
 8
MESH_307_F0
 10
0
 20
0
 30
0
 70
128
 71
6
 72
5
 73
28
 74
28
 0
VERTEX
 8
MESH_307_F0
 10
0
 20
0
 30
0
 70
128
 71
7
 72
6
 73
27
 74
27
 0
VERTEX
 8
MESH_307_F0
 10
0
 20
0
 30
0
 70
128
 71
8
 72
7
 73
26
 74
26
 0
VERTEX
 8
MESH_307_F0
 10
0
 20
0
 30
0
 70
128
 71
9
 72
8
 73
25
 74
25
 0
VERTEX
 8
MESH_307_F0
 10
0
 20
0
 30
0
 70
128
 71
10
 72
9
 73
24
 74
24
 0
VERTEX
 8
MESH_307_F0
 10
0
 20
0
 30
0
 70
128
 71
11
 72
10
 73
23
 74
23
 0
VERTEX
 8
MESH_307_F0
 10
0
 20
0
 30
0
 70
128
 71
12
 72
11
 73
22
 74
22
 0
VERTEX
 8
MESH_307_F0
 10
0
 20
0
 30
0
 70
128
 71
13
 72
12
 73
21
 74
21
 0
VERTEX
 8
MESH_307_F0
 10
0
 20
0
 30
0
 70
128
 71
14
 72
13
 73
20
 74
20
 0
VERTEX
 8
MESH_307_F0
 10
0
 20
0
 30
0
 70
128
 71
15
 72
14
 73
19
 74
19
 0
VERTEX
 8
MESH_307_F0
 10
0
 20
0
 30
0
 70
128
 71
17
 72
15
 73
18
 74
18
 0
VERTEX
 8
MESH_307_F0
 10
0
 20
0
 30
0
 70
128
 71
15
 72
19
 73
18
 74
18
 0
VERTEX
 8
MESH_307_F0
 10
0
 20
0
 30
0
 70
128
 71
17
 72
16
 73
15
 74
15
 0
VERTEX
 8
MESH_307_F0
 10
0
 20
0
 30
0
 70
128
 71
14
 72
20
 73
19
 74
19
 0
VERTEX
 8
MESH_307_F0
 10
0
 20
0
 30
0
 70
128
 71
13
 72
21
 73
20
 74
20
 0
VERTEX
 8
MESH_307_F0
 10
0
 20
0
 30
0
 70
128
 71
12
 72
22
 73
21
 74
21
 0
VERTEX
 8
MESH_307_F0
 10
0
 20
0
 30
0
 70
128
 71
11
 72
23
 73
22
 74
22
 0
VERTEX
 8
MESH_307_F0
 10
0
 20
0
 30
0
 70
128
 71
10
 72
24
 73
23
 74
23
 0
VERTEX
 8
MESH_307_F0
 10
0
 20
0
 30
0
 70
128
 71
9
 72
25
 73
24
 74
24
 0
VERTEX
 8
MESH_307_F0
 10
0
 20
0
 30
0
 70
128
 71
8
 72
26
 73
25
 74
25
 0
VERTEX
 8
MESH_307_F0
 10
0
 20
0
 30
0
 70
128
 71
7
 72
27
 73
26
 74
26
 0
VERTEX
 8
MESH_307_F0
 10
0
 20
0
 30
0
 70
128
 71
6
 72
28
 73
27
 74
27
 0
SEQEND
 0
POLYLINE
 8
MESH_306_F0
 66
1
 10
0.0
 20
0.0
 30
0.0
 70
64
 71
4
 72
2
 0
VERTEX
 8
MESH_306_F0
 10
-300
 20
-323
 30
844.9999
 70
192
 0
VERTEX
 8
MESH_306_F0
 10
-300
 20
-323
 30
820.0001
 70
192
 0
VERTEX
 8
MESH_306_F0
 10
300
 20
-323
 30
820.0001
 70
192
 0
VERTEX
 8
MESH_306_F0
 10
300
 20
-323
 30
844.9999
 70
192
 0
VERTEX
 8
MESH_306_F0
 10
0
 20
0
 30
0
 70
128
 71
1
 72
3
 73
2
 74
2
 0
VERTEX
 8
MESH_306_F0
 10
0
 20
0
 30
0
 70
128
 71
4
 72
3
 73
1
 74
1
 0
SEQEND
 0
POLYLINE
 8
MESH_305_F0
 66
1
 10
0.0
 20
0.0
 30
0.0
 70
64
 71
30
 72
28
 0
VERTEX
 8
MESH_305_F0
 10
300
 20
-323
 30
844.9999
 70
192
 0
VERTEX
 8
MESH_305_F0
 10
300
 20
-323
 30
820.0001
 70
192
 0
VERTEX
 8
MESH_305_F0
 10
302.9408
 20
-322.8321
 30
820.0001
 70
192
 0
VERTEX
 8
MESH_305_F0
 10
305.8135
 20
-322.3417
 30
820.0001
 70
192
 0
VERTEX
 8
MESH_305_F0
 10
308.6102
 20
-321.532
 30
820.0001
 70
192
 0
VERTEX
 8
MESH_305_F0
 10
311.3068
 20
-320.4127
 30
820.0001
 70
192
 0
VERTEX
 8
MESH_305_F0
 10
313.8508
 20
-319.0038
 30
820.0001
 70
192
 0
VERTEX
 8
MESH_305_F0
 10
316.2197
 20
-317.3204
 30
820.0001
 70
192
 0
VERTEX
 8
MESH_305_F0
 10
318.3844
 20
-315.3844
 30
820.0001
 70
192
 0
VERTEX
 8
MESH_305_F0
 10
320.3204
 20
-313.2197
 30
820.0001
 70
192
 0
VERTEX
 8
MESH_305_F0
 10
322.0038
 20
-310.8508
 30
820.0001
 70
192
 0
VERTEX
 8
MESH_305_F0
 10
323.4127
 20
-308.3068
 30
820.0001
 70
192
 0
VERTEX
 8
MESH_305_F0
 10
324.532
 20
-305.6102
 30
820.0001
 70
192
 0
VERTEX
 8
MESH_305_F0
 10
325.3417
 20
-302.8135
 30
820.0001
 70
192
 0
VERTEX
 8
MESH_305_F0
 10
325.8321
 20
-299.9408
 30
820.0001
 70
192
 0
VERTEX
 8
MESH_305_F0
 10
326
 20
-297
 30
820.0001
 70
192
 0
VERTEX
 8
MESH_305_F0
 10
326
 20
-297
 30
844.9999
 70
192
 0
VERTEX
 8
MESH_305_F0
 10
325.8321
 20
-299.9408
 30
844.9999
 70
192
 0
VERTEX
 8
MESH_305_F0
 10
325.3417
 20
-302.8135
 30
844.9999
 70
192
 0
VERTEX
 8
MESH_305_F0
 10
324.532
 20
-305.6102
 30
844.9999
 70
192
 0
VERTEX
 8
MESH_305_F0
 10
323.4127
 20
-308.3068
 30
844.9999
 70
192
 0
VERTEX
 8
MESH_305_F0
 10
322.0038
 20
-310.8508
 30
844.9999
 70
192
 0
VERTEX
 8
MESH_305_F0
 10
320.3204
 20
-313.2197
 30
844.9999
 70
192
 0
VERTEX
 8
MESH_305_F0
 10
318.3844
 20
-315.3844
 30
844.9999
 70
192
 0
VERTEX
 8
MESH_305_F0
 10
316.2197
 20
-317.3204
 30
844.9999
 70
192
 0
VERTEX
 8
MESH_305_F0
 10
313.8508
 20
-319.0038
 30
844.9999
 70
192
 0
VERTEX
 8
MESH_305_F0
 10
311.3068
 20
-320.4127
 30
844.9999
 70
192
 0
VERTEX
 8
MESH_305_F0
 10
308.6102
 20
-321.532
 30
844.9999
 70
192
 0
VERTEX
 8
MESH_305_F0
 10
305.8135
 20
-322.3417
 30
844.9999
 70
192
 0
VERTEX
 8
MESH_305_F0
 10
302.9408
 20
-322.8321
 30
844.9999
 70
192
 0
VERTEX
 8
MESH_305_F0
 10
0
 20
0
 30
0
 70
128
 71
30
 72
2
 73
1
 74
1
 0
VERTEX
 8
MESH_305_F0
 10
0
 20
0
 30
0
 70
128
 71
3
 72
2
 73
30
 74
30
 0
VERTEX
 8
MESH_305_F0
 10
0
 20
0
 30
0
 70
128
 71
3
 72
30
 73
4
 74
4
 0
VERTEX
 8
MESH_305_F0
 10
0
 20
0
 30
0
 70
128
 71
30
 72
29
 73
4
 74
4
 0
VERTEX
 8
MESH_305_F0
 10
0
 20
0
 30
0
 70
128
 71
29
 72
5
 73
4
 74
4
 0
VERTEX
 8
MESH_305_F0
 10
0
 20
0
 30
0
 70
128
 71
28
 72
5
 73
29
 74
29
 0
VERTEX
 8
MESH_305_F0
 10
0
 20
0
 30
0
 70
128
 71
6
 72
5
 73
28
 74
28
 0
VERTEX
 8
MESH_305_F0
 10
0
 20
0
 30
0
 70
128
 71
7
 72
6
 73
27
 74
27
 0
VERTEX
 8
MESH_305_F0
 10
0
 20
0
 30
0
 70
128
 71
8
 72
7
 73
26
 74
26
 0
VERTEX
 8
MESH_305_F0
 10
0
 20
0
 30
0
 70
128
 71
9
 72
8
 73
25
 74
25
 0
VERTEX
 8
MESH_305_F0
 10
0
 20
0
 30
0
 70
128
 71
10
 72
9
 73
24
 74
24
 0
VERTEX
 8
MESH_305_F0
 10
0
 20
0
 30
0
 70
128
 71
11
 72
10
 73
23
 74
23
 0
VERTEX
 8
MESH_305_F0
 10
0
 20
0
 30
0
 70
128
 71
12
 72
11
 73
22
 74
22
 0
VERTEX
 8
MESH_305_F0
 10
0
 20
0
 30
0
 70
128
 71
13
 72
12
 73
21
 74
21
 0
VERTEX
 8
MESH_305_F0
 10
0
 20
0
 30
0
 70
128
 71
14
 72
13
 73
20
 74
20
 0
VERTEX
 8
MESH_305_F0
 10
0
 20
0
 30
0
 70
128
 71
15
 72
14
 73
19
 74
19
 0
VERTEX
 8
MESH_305_F0
 10
0
 20
0
 30
0
 70
128
 71
17
 72
15
 73
18
 74
18
 0
VERTEX
 8
MESH_305_F0
 10
0
 20
0
 30
0
 70
128
 71
15
 72
19
 73
18
 74
18
 0
VERTEX
 8
MESH_305_F0
 10
0
 20
0
 30
0
 70
128
 71
17
 72
16
 73
15
 74
15
 0
VERTEX
 8
MESH_305_F0
 10
0
 20
0
 30
0
 70
128
 71
14
 72
20
 73
19
 74
19
 0
VERTEX
 8
MESH_305_F0
 10
0
 20
0
 30
0
 70
128
 71
13
 72
21
 73
20
 74
20
 0
VERTEX
 8
MESH_305_F0
 10
0
 20
0
 30
0
 70
128
 71
12
 72
22
 73
21
 74
21
 0
VERTEX
 8
MESH_305_F0
 10
0
 20
0
 30
0
 70
128
 71
11
 72
23
 73
22
 74
22
 0
VERTEX
 8
MESH_305_F0
 10
0
 20
0
 30
0
 70
128
 71
10
 72
24
 73
23
 74
23
 0
VERTEX
 8
MESH_305_F0
 10
0
 20
0
 30
0
 70
128
 71
9
 72
25
 73
24
 74
24
 0
VERTEX
 8
MESH_305_F0
 10
0
 20
0
 30
0
 70
128
 71
8
 72
26
 73
25
 74
25
 0
VERTEX
 8
MESH_305_F0
 10
0
 20
0
 30
0
 70
128
 71
7
 72
27
 73
26
 74
26
 0
VERTEX
 8
MESH_305_F0
 10
0
 20
0
 30
0
 70
128
 71
6
 72
28
 73
27
 74
27
 0
SEQEND
 0
POLYLINE
 8
MESH_304_F0
 66
1
 10
0.0
 20
0.0
 30
0.0
 70
64
 71
4
 72
2
 0
VERTEX
 8
MESH_304_F0
 10
326
 20
-297
 30
844.9999
 70
192
 0
VERTEX
 8
MESH_304_F0
 10
326
 20
-297
 30
820.0001
 70
192
 0
VERTEX
 8
MESH_304_F0
 10
326
 20
0
 30
820.0001
 70
192
 0
VERTEX
 8
MESH_304_F0
 10
326
 20
0
 30
844.9999
 70
192
 0
VERTEX
 8
MESH_304_F0
 10
0
 20
0
 30
0
 70
128
 71
1
 72
3
 73
2
 74
2
 0
VERTEX
 8
MESH_304_F0
 10
0
 20
0
 30
0
 70
128
 71
4
 72
3
 73
1
 74
1
 0
SEQEND
 0
POLYLINE
 8
MESH_303_F0
 66
1
 10
0.0
 20
0.0
 30
0.0
 70
64
 71
36
 72
34
 0
VERTEX
 8
MESH_303_F0
 10
-325
 20
-295
 30
820.0001
 70
192
 0
VERTEX
 8
MESH_303_F0
 10
325
 20
-295
 30
820.0001
 70
192
 0
VERTEX
 8
MESH_303_F0
 10
325
 20
0
 30
820.0001
 70
192
 0
VERTEX
 8
MESH_303_F0
 10
326
 20
0
 30
820.0001
 70
192
 0
VERTEX
 8
MESH_303_F0
 10
326
 20
-297
 30
820.0001
 70
192
 0
VERTEX
 8
MESH_303_F0
 10
325.8321
 20
-299.9408
 30
820.0001
 70
192
 0
VERTEX
 8
MESH_303_F0
 10
325.3417
 20
-302.8135
 30
820.0001
 70
192
 0
VERTEX
 8
MESH_303_F0
 10
324.532
 20
-305.6102
 30
820.0001
 70
192
 0
VERTEX
 8
MESH_303_F0
 10
323.4127
 20
-308.3068
 30
820.0001
 70
192
 0
VERTEX
 8
MESH_303_F0
 10
322.0038
 20
-310.8508
 30
820.0001
 70
192
 0
VERTEX
 8
MESH_303_F0
 10
320.3204
 20
-313.2197
 30
820.0001
 70
192
 0
VERTEX
 8
MESH_303_F0
 10
318.3844
 20
-315.3844
 30
820.0001
 70
192
 0
VERTEX
 8
MESH_303_F0
 10
316.2197
 20
-317.3204
 30
820.0001
 70
192
 0
VERTEX
 8
MESH_303_F0
 10
313.8508
 20
-319.0038
 30
820.0001
 70
192
 0
VERTEX
 8
MESH_303_F0
 10
311.3068
 20
-320.4127
 30
820.0001
 70
192
 0
VERTEX
 8
MESH_303_F0
 10
308.6102
 20
-321.532
 30
820.0001
 70
192
 0
VERTEX
 8
MESH_303_F0
 10
305.8135
 20
-322.3417
 30
820.0001
 70
192
 0
VERTEX
 8
MESH_303_F0
 10
302.9408
 20
-322.8321
 30
820.0001
 70
192
 0
VERTEX
 8
MESH_303_F0
 10
300
 20
-323
 30
820.0001
 70
192
 0
VERTEX
 8
MESH_303_F0
 10
-300
 20
-323
 30
820.0001
 70
192
 0
VERTEX
 8
MESH_303_F0
 10
-302.9408
 20
-322.8321
 30
820.0001
 70
192
 0
VERTEX
 8
MESH_303_F0
 10
-305.8135
 20
-322.3417
 30
820.0001
 70
192
 0
VERTEX
 8
MESH_303_F0
 10
-308.6102
 20
-321.532
 30
820.0001
 70
192
 0
VERTEX
 8
MESH_303_F0
 10
-311.3068
 20
-320.4127
 30
820.0001
 70
192
 0
VERTEX
 8
MESH_303_F0
 10
-313.8508
 20
-319.0038
 30
820.0001
 70
192
 0
VERTEX
 8
MESH_303_F0
 10
-316.2197
 20
-317.3204
 30
820.0001
 70
192
 0
VERTEX
 8
MESH_303_F0
 10
-318.3844
 20
-315.3844
 30
820.0001
 70
192
 0
VERTEX
 8
MESH_303_F0
 10
-320.3204
 20
-313.2197
 30
820.0001
 70
192
 0
VERTEX
 8
MESH_303_F0
 10
-322.0038
 20
-310.8508
 30
820.0001
 70
192
 0
VERTEX
 8
MESH_303_F0
 10
-323.4127
 20
-308.3068
 30
820.0001
 70
192
 0
VERTEX
 8
MESH_303_F0
 10
-324.532
 20
-305.6102
 30
820.0001
 70
192
 0
VERTEX
 8
MESH_303_F0
 10
-325.3417
 20
-302.8135
 30
820.0001
 70
192
 0
VERTEX
 8
MESH_303_F0
 10
-325.8321
 20
-299.9408
 30
820.0001
 70
192
 0
VERTEX
 8
MESH_303_F0
 10
-326
 20
-297
 30
820.0001
 70
192
 0
VERTEX
 8
MESH_303_F0
 10
-326
 20
0
 30
820.0001
 70
192
 0
VERTEX
 8
MESH_303_F0
 10
-325
 20
0
 30
820.0001
 70
192
 0
VERTEX
 8
MESH_303_F0
 10
0
 20
0
 30
0
 70
128
 71
2
 72
7
 73
6
 74
6
 0
VERTEX
 8
MESH_303_F0
 10
0
 20
0
 30
0
 70
128
 71
3
 72
2
 73
5
 74
5
 0
VERTEX
 8
MESH_303_F0
 10
0
 20
0
 30
0
 70
128
 71
3
 72
5
 73
4
 74
4
 0
VERTEX
 8
MESH_303_F0
 10
0
 20
0
 30
0
 70
128
 71
2
 72
6
 73
5
 74
5
 0
VERTEX
 8
MESH_303_F0
 10
0
 20
0
 30
0
 70
128
 71
19
 72
7
 73
2
 74
2
 0
VERTEX
 8
MESH_303_F0
 10
0
 20
0
 30
0
 70
128
 71
20
 72
19
 73
1
 74
1
 0
VERTEX
 8
MESH_303_F0
 10
0
 20
0
 30
0
 70
128
 71
20
 72
1
 73
21
 74
21
 0
VERTEX
 8
MESH_303_F0
 10
0
 20
0
 30
0
 70
128
 71
1
 72
22
 73
21
 74
21
 0
VERTEX
 8
MESH_303_F0
 10
0
 20
0
 30
0
 70
128
 71
23
 72
22
 73
1
 74
1
 0
VERTEX
 8
MESH_303_F0
 10
0
 20
0
 30
0
 70
128
 71
23
 72
1
 73
24
 74
24
 0
VERTEX
 8
MESH_303_F0
 10
0
 20
0
 30
0
 70
128
 71
1
 72
25
 73
24
 74
24
 0
VERTEX
 8
MESH_303_F0
 10
0
 20
0
 30
0
 70
128
 71
26
 72
25
 73
1
 74
1
 0
VERTEX
 8
MESH_303_F0
 10
0
 20
0
 30
0
 70
128
 71
26
 72
1
 73
27
 74
27
 0
VERTEX
 8
MESH_303_F0
 10
0
 20
0
 30
0
 70
128
 71
1
 72
28
 73
27
 74
27
 0
VERTEX
 8
MESH_303_F0
 10
0
 20
0
 30
0
 70
128
 71
29
 72
28
 73
1
 74
1
 0
VERTEX
 8
MESH_303_F0
 10
0
 20
0
 30
0
 70
128
 71
29
 72
1
 73
30
 74
30
 0
VERTEX
 8
MESH_303_F0
 10
0
 20
0
 30
0
 70
128
 71
1
 72
31
 73
30
 74
30
 0
VERTEX
 8
MESH_303_F0
 10
0
 20
0
 30
0
 70
128
 71
32
 72
31
 73
1
 74
1
 0
VERTEX
 8
MESH_303_F0
 10
0
 20
0
 30
0
 70
128
 71
32
 72
1
 73
33
 74
33
 0
VERTEX
 8
MESH_303_F0
 10
0
 20
0
 30
0
 70
128
 71
1
 72
34
 73
33
 74
33
 0
VERTEX
 8
MESH_303_F0
 10
0
 20
0
 30
0
 70
128
 71
35
 72
34
 73
1
 74
1
 0
VERTEX
 8
MESH_303_F0
 10
0
 20
0
 30
0
 70
128
 71
35
 72
1
 73
36
 74
36
 0
VERTEX
 8
MESH_303_F0
 10
0
 20
0
 30
0
 70
128
 71
19
 72
8
 73
7
 74
7
 0
VERTEX
 8
MESH_303_F0
 10
0
 20
0
 30
0
 70
128
 71
9
 72
8
 73
19
 74
19
 0
VERTEX
 8
MESH_303_F0
 10
0
 20
0
 30
0
 70
128
 71
9
 72
19
 73
10
 74
10
 0
VERTEX
 8
MESH_303_F0
 10
0
 20
0
 30
0
 70
128
 71
19
 72
11
 73
10
 74
10
 0
VERTEX
 8
MESH_303_F0
 10
0
 20
0
 30
0
 70
128
 71
12
 72
11
 73
19
 74
19
 0
VERTEX
 8
MESH_303_F0
 10
0
 20
0
 30
0
 70
128
 71
12
 72
19
 73
13
 74
13
 0
VERTEX
 8
MESH_303_F0
 10
0
 20
0
 30
0
 70
128
 71
19
 72
14
 73
13
 74
13
 0
VERTEX
 8
MESH_303_F0
 10
0
 20
0
 30
0
 70
128
 71
15
 72
14
 73
19
 74
19
 0
VERTEX
 8
MESH_303_F0
 10
0
 20
0
 30
0
 70
128
 71
15
 72
19
 73
16
 74
16
 0
VERTEX
 8
MESH_303_F0
 10
0
 20
0
 30
0
 70
128
 71
19
 72
17
 73
16
 74
16
 0
VERTEX
 8
MESH_303_F0
 10
0
 20
0
 30
0
 70
128
 71
18
 72
17
 73
19
 74
19
 0
VERTEX
 8
MESH_303_F0
 10
0
 20
0
 30
0
 70
128
 71
2
 72
1
 73
19
 74
19
 0
SEQEND
 0
POLYLINE
 8
MESH_302_F0
 66
1
 10
0.0
 20
0.0
 30
0.0
 70
64
 71
4
 72
2
 0
VERTEX
 8
MESH_302_F0
 10
307
 20
0
 30
0
 70
192
 0
VERTEX
 8
MESH_302_F0
 10
325
 20
0
 30
0
 70
192
 0
VERTEX
 8
MESH_302_F0
 10
325
 20
-295
 30
0
 70
192
 0
VERTEX
 8
MESH_302_F0
 10
307
 20
-295
 30
0
 70
192
 0
VERTEX
 8
MESH_302_F0
 10
0
 20
0
 30
0
 70
128
 71
1
 72
3
 73
2
 74
2
 0
VERTEX
 8
MESH_302_F0
 10
0
 20
0
 30
0
 70
128
 71
4
 72
3
 73
1
 74
1
 0
SEQEND
 0
POLYLINE
 8
MESH_301_F0
 66
1
 10
0.0
 20
0.0
 30
0.0
 70
64
 71
4
 72
2
 0
VERTEX
 8
MESH_301_F0
 10
320
 20
-304
 30
48.5
 70
192
 0
VERTEX
 8
MESH_301_F0
 10
-320
 20
-304
 30
48.5
 70
192
 0
VERTEX
 8
MESH_301_F0
 10
-320
 20
-304
 30
1.5
 70
192
 0
VERTEX
 8
MESH_301_F0
 10
320
 20
-304
 30
1.5
 70
192
 0
VERTEX
 8
MESH_301_F0
 10
0
 20
0
 30
0
 70
128
 71
4
 72
2
 73
1
 74
1
 0
VERTEX
 8
MESH_301_F0
 10
0
 20
0
 30
0
 70
128
 71
3
 72
2
 73
4
 74
4
 0
SEQEND
 0
POLYLINE
 8
MESH_300_F0
 66
1
 10
0.0
 20
0.0
 30
0.0
 70
64
 71
4
 72
2
 0
VERTEX
 8
MESH_300_F0
 10
320
 20
-295
 30
48.5
 70
192
 0
VERTEX
 8
MESH_300_F0
 10
320
 20
-304
 30
48.5
 70
192
 0
VERTEX
 8
MESH_300_F0
 10
320
 20
-304
 30
1.5
 70
192
 0
VERTEX
 8
MESH_300_F0
 10
320
 20
-295
 30
1.5
 70
192
 0
VERTEX
 8
MESH_300_F0
 10
0
 20
0
 30
0
 70
128
 71
4
 72
2
 73
1
 74
1
 0
VERTEX
 8
MESH_300_F0
 10
0
 20
0
 30
0
 70
128
 71
3
 72
2
 73
4
 74
4
 0
SEQEND
 0
POLYLINE
 8
MESH_299_F0
 66
1
 10
0.0
 20
0.0
 30
0.0
 70
64
 71
10
 72
8
 0
VERTEX
 8
MESH_299_F0
 10
-307
 20
-295
 30
1.5
 70
192
 0
VERTEX
 8
MESH_299_F0
 10
-307
 20
-286
 30
1.5
 70
192
 0
VERTEX
 8
MESH_299_F0
 10
-102.3333
 20
-286
 30
1.5
 70
192
 0
VERTEX
 8
MESH_299_F0
 10
102.3333
 20
-286
 30
1.5
 70
192
 0
VERTEX
 8
MESH_299_F0
 10
307
 20
-286
 30
1.5
 70
192
 0
VERTEX
 8
MESH_299_F0
 10
307
 20
-295
 30
1.5
 70
192
 0
VERTEX
 8
MESH_299_F0
 10
320
 20
-295
 30
1.5
 70
192
 0
VERTEX
 8
MESH_299_F0
 10
320
 20
-304
 30
1.5
 70
192
 0
VERTEX
 8
MESH_299_F0
 10
-320
 20
-304
 30
1.5
 70
192
 0
VERTEX
 8
MESH_299_F0
 10
-320
 20
-295
 30
1.5
 70
192
 0
VERTEX
 8
MESH_299_F0
 10
0
 20
0
 30
0
 70
128
 71
1
 72
3
 73
2
 74
2
 0
VERTEX
 8
MESH_299_F0
 10
0
 20
0
 30
0
 70
128
 71
6
 72
3
 73
1
 74
1
 0
VERTEX
 8
MESH_299_F0
 10
0
 20
0
 30
0
 70
128
 71
8
 72
6
 73
9
 74
9
 0
VERTEX
 8
MESH_299_F0
 10
0
 20
0
 30
0
 70
128
 71
6
 72
1
 73
9
 74
9
 0
VERTEX
 8
MESH_299_F0
 10
0
 20
0
 30
0
 70
128
 71
1
 72
10
 73
9
 74
9
 0
VERTEX
 8
MESH_299_F0
 10
0
 20
0
 30
0
 70
128
 71
6
 72
4
 73
3
 74
3
 0
VERTEX
 8
MESH_299_F0
 10
0
 20
0
 30
0
 70
128
 71
5
 72
4
 73
6
 74
6
 0
VERTEX
 8
MESH_299_F0
 10
0
 20
0
 30
0
 70
128
 71
8
 72
7
 73
6
 74
6
 0
SEQEND
 0
POLYLINE
 8
MESH_298_F0
 66
1
 10
0.0
 20
0.0
 30
0.0
 70
64
 71
4
 72
2
 0
VERTEX
 8
MESH_298_F0
 10
-320
 20
-295
 30
1.5
 70
192
 0
VERTEX
 8
MESH_298_F0
 10
-320
 20
-304
 30
1.5
 70
192
 0
VERTEX
 8
MESH_298_F0
 10
-320
 20
-304
 30
48.5
 70
192
 0
VERTEX
 8
MESH_298_F0
 10
-320
 20
-295
 30
48.5
 70
192
 0
VERTEX
 8
MESH_298_F0
 10
0
 20
0
 30
0
 70
128
 71
4
 72
2
 73
1
 74
1
 0
VERTEX
 8
MESH_298_F0
 10
0
 20
0
 30
0
 70
128
 71
3
 72
2
 73
4
 74
4
 0
SEQEND
 0
POLYLINE
 8
MESH_297_F0
 66
1
 10
0.0
 20
0.0
 30
0.0
 70
64
 71
10
 72
8
 0
VERTEX
 8
MESH_297_F0
 10
-320
 20
-295
 30
48.5
 70
192
 0
VERTEX
 8
MESH_297_F0
 10
-320
 20
-304
 30
48.5
 70
192
 0
VERTEX
 8
MESH_297_F0
 10
320
 20
-304
 30
48.5
 70
192
 0
VERTEX
 8
MESH_297_F0
 10
320
 20
-295
 30
48.5
 70
192
 0
VERTEX
 8
MESH_297_F0
 10
307
 20
-295
 30
48.5
 70
192
 0
VERTEX
 8
MESH_297_F0
 10
307
 20
-286
 30
48.5
 70
192
 0
VERTEX
 8
MESH_297_F0
 10
102.3333
 20
-286
 30
48.5
 70
192
 0
VERTEX
 8
MESH_297_F0
 10
-102.3333
 20
-286
 30
48.5
 70
192
 0
VERTEX
 8
MESH_297_F0
 10
-307
 20
-286
 30
48.5
 70
192
 0
VERTEX
 8
MESH_297_F0
 10
-307
 20
-295
 30
48.5
 70
192
 0
VERTEX
 8
MESH_297_F0
 10
0
 20
0
 30
0
 70
128
 71
10
 72
2
 73
1
 74
1
 0
VERTEX
 8
MESH_297_F0
 10
0
 20
0
 30
0
 70
128
 71
5
 72
2
 73
10
 74
10
 0
VERTEX
 8
MESH_297_F0
 10
0
 20
0
 30
0
 70
128
 71
7
 72
5
 73
8
 74
8
 0
VERTEX
 8
MESH_297_F0
 10
0
 20
0
 30
0
 70
128
 71
5
 72
10
 73
8
 74
8
 0
VERTEX
 8
MESH_297_F0
 10
0
 20
0
 30
0
 70
128
 71
10
 72
9
 73
8
 74
8
 0
VERTEX
 8
MESH_297_F0
 10
0
 20
0
 30
0
 70
128
 71
5
 72
3
 73
2
 74
2
 0
VERTEX
 8
MESH_297_F0
 10
0
 20
0
 30
0
 70
128
 71
4
 72
3
 73
5
 74
5
 0
VERTEX
 8
MESH_297_F0
 10
0
 20
0
 30
0
 70
128
 71
7
 72
6
 73
5
 74
5
 0
SEQEND
 0
POLYLINE
 8
MESH_296_F0
 66
1
 10
0.0
 20
0.0
 30
0.0
 70
64
 71
8
 72
6
 0
VERTEX
 8
MESH_296_F0
 10
-307
 20
-286
 30
48.5
 70
192
 0
VERTEX
 8
MESH_296_F0
 10
-102.3333
 20
-286
 30
48.5
 70
192
 0
VERTEX
 8
MESH_296_F0
 10
102.3333
 20
-286
 30
48.5
 70
192
 0
VERTEX
 8
MESH_296_F0
 10
307
 20
-286
 30
48.5
 70
192
 0
VERTEX
 8
MESH_296_F0
 10
307
 20
-286
 30
1.5
 70
192
 0
VERTEX
 8
MESH_296_F0
 10
102.3333
 20
-286
 30
1.5
 70
192
 0
VERTEX
 8
MESH_296_F0
 10
-102.3333
 20
-286
 30
1.5
 70
192
 0
VERTEX
 8
MESH_296_F0
 10
-307
 20
-286
 30
1.5
 70
192
 0
VERTEX
 8
MESH_296_F0
 10
0
 20
0
 30
0
 70
128
 71
8
 72
2
 73
1
 74
1
 0
VERTEX
 8
MESH_296_F0
 10
0
 20
0
 30
0
 70
128
 71
7
 72
2
 73
8
 74
8
 0
VERTEX
 8
MESH_296_F0
 10
0
 20
0
 30
0
 70
128
 71
3
 72
2
 73
7
 74
7
 0
VERTEX
 8
MESH_296_F0
 10
0
 20
0
 30
0
 70
128
 71
4
 72
3
 73
6
 74
6
 0
VERTEX
 8
MESH_296_F0
 10
0
 20
0
 30
0
 70
128
 71
4
 72
6
 73
5
 74
5
 0
VERTEX
 8
MESH_296_F0
 10
0
 20
0
 30
0
 70
128
 71
3
 72
7
 73
6
 74
6
 0
SEQEND
 0
POLYLINE
 8
MESH_295_F0
 66
1
 10
0.0
 20
0.0
 30
0.0
 70
64
 71
10
 72
8
 0
VERTEX
 8
MESH_295_F0
 10
307
 20
-286
 30
1.5
 70
192
 0
VERTEX
 8
MESH_295_F0
 10
307
 20
-286
 30
48.5
 70
192
 0
VERTEX
 8
MESH_295_F0
 10
307
 20
-295
 30
48.5
 70
192
 0
VERTEX
 8
MESH_295_F0
 10
307
 20
-295
 30
53
 70
192
 0
VERTEX
 8
MESH_295_F0
 10
307
 20
-294.5
 30
53
 70
192
 0
VERTEX
 8
MESH_295_F0
 10
307
 20
-294.5
 30
50
 70
192
 0
VERTEX
 8
MESH_295_F0
 10
307
 20
0
 30
50
 70
192
 0
VERTEX
 8
MESH_295_F0
 10
307
 20
0
 30
0
 70
192
 0
VERTEX
 8
MESH_295_F0
 10
307
 20
-295
 30
0
 70
192
 0
VERTEX
 8
MESH_295_F0
 10
307
 20
-295
 30
1.5
 70
192
 0
VERTEX
 8
MESH_295_F0
 10
0
 20
0
 30
0
 70
128
 71
2
 72
7
 73
6
 74
6
 0
VERTEX
 8
MESH_295_F0
 10
0
 20
0
 30
0
 70
128
 71
2
 72
6
 73
3
 74
3
 0
VERTEX
 8
MESH_295_F0
 10
0
 20
0
 30
0
 70
128
 71
6
 72
4
 73
3
 74
3
 0
VERTEX
 8
MESH_295_F0
 10
0
 20
0
 30
0
 70
128
 71
5
 72
4
 73
6
 74
6
 0
VERTEX
 8
MESH_295_F0
 10
0
 20
0
 30
0
 70
128
 71
2
 72
8
 73
7
 74
7
 0
VERTEX
 8
MESH_295_F0
 10
0
 20
0
 30
0
 70
128
 71
1
 72
8
 73
2
 74
2
 0
VERTEX
 8
MESH_295_F0
 10
0
 20
0
 30
0
 70
128
 71
9
 72
8
 73
1
 74
1
 0
VERTEX
 8
MESH_295_F0
 10
0
 20
0
 30
0
 70
128
 71
9
 72
1
 73
10
 74
10
 0
SEQEND
 0
POLYLINE
 8
MESH_294_F0
 66
1
 10
0.0
 20
0.0
 30
0.0
 70
64
 71
4
 72
2
 0
VERTEX
 8
MESH_294_F0
 10
298.501
 20
-322
 30
53
 70
192
 0
VERTEX
 8
MESH_294_F0
 10
298.501
 20
-322
 30
647
 70
192
 0
VERTEX
 8
MESH_294_F0
 10
1.5
 20
-322
 30
647
 70
192
 0
VERTEX
 8
MESH_294_F0
 10
1.5
 20
-322
 30
53
 70
192
 0
VERTEX
 8
MESH_294_F0
 10
0
 20
0
 30
0
 70
128
 71
1
 72
3
 73
2
 74
2
 0
VERTEX
 8
MESH_294_F0
 10
0
 20
0
 30
0
 70
128
 71
4
 72
3
 73
1
 74
1
 0
SEQEND
 0
POLYLINE
 8
MESH_293_F0
 66
1
 10
0.0
 20
0.0
 30
0.0
 70
64
 71
4
 72
2
 0
VERTEX
 8
MESH_293_F0
 10
-298.501
 20
-322
 30
647
 70
192
 0
VERTEX
 8
MESH_293_F0
 10
-298.501
 20
-322
 30
53
 70
192
 0
VERTEX
 8
MESH_293_F0
 10
-1.5
 20
-322
 30
53
 70
192
 0
VERTEX
 8
MESH_293_F0
 10
-1.5
 20
-322
 30
647
 70
192
 0
VERTEX
 8
MESH_293_F0
 10
0
 20
0
 30
0
 70
128
 71
1
 72
3
 73
2
 74
2
 0
VERTEX
 8
MESH_293_F0
 10
0
 20
0
 30
0
 70
128
 71
4
 72
3
 73
1
 74
1
 0
SEQEND
 0
POLYLINE
 8
MESH_292_F0
 66
1
 10
0.0
 20
0.0
 30
0.0
 70
64
 71
19
 72
17
 0
VERTEX
 8
MESH_292_F0
 10
-307
 20
-295
 30
53
 70
192
 0
VERTEX
 8
MESH_292_F0
 10
-307
 20
-294.5
 30
53
 70
192
 0
VERTEX
 8
MESH_292_F0
 10
-1.5
 20
-294.5
 30
53
 70
192
 0
VERTEX
 8
MESH_292_F0
 10
-1.5
 20
-322
 30
53
 70
192
 0
VERTEX
 8
MESH_292_F0
 10
-298.501
 20
-322
 30
53
 70
192
 0
VERTEX
 8
MESH_292_F0
 10
-301.4421
 20
-321.8264
 30
53
 70
192
 0
VERTEX
 8
MESH_292_F0
 10
-304.3424
 20
-321.308
 30
53
 70
192
 0
VERTEX
 8
MESH_292_F0
 10
-307.1616
 20
-320.4519
 30
53
 70
192
 0
VERTEX
 8
MESH_292_F0
 10
-309.8604
 20
-319.2701
 30
53
 70
192
 0
VERTEX
 8
MESH_292_F0
 10
-312.4015
 20
-317.779
 30
53
 70
192
 0
VERTEX
 8
MESH_292_F0
 10
-314.7495
 20
-315.9993
 30
53
 70
192
 0
VERTEX
 8
MESH_292_F0
 10
-316.8718
 20
-313.9557
 30
53
 70
192
 0
VERTEX
 8
MESH_292_F0
 10
-318.739
 20
-311.6767
 30
53
 70
192
 0
VERTEX
 8
MESH_292_F0
 10
-320.325
 20
-309.1938
 30
53
 70
192
 0
VERTEX
 8
MESH_292_F0
 10
-321.6079
 20
-306.5415
 30
53
 70
192
 0
VERTEX
 8
MESH_292_F0
 10
-322.5699
 20
-303.7567
 30
53
 70
192
 0
VERTEX
 8
MESH_292_F0
 10
-323.1975
 20
-300.8781
 30
53
 70
192
 0
VERTEX
 8
MESH_292_F0
 10
-323.4821
 20
-297.9456
 30
53
 70
192
 0
VERTEX
 8
MESH_292_F0
 10
-323.4198
 20
-295
 30
53
 70
192
 0
VERTEX
 8
MESH_292_F0
 10
0
 20
0
 30
0
 70
128
 71
1
 72
3
 73
2
 74
2
 0
VERTEX
 8
MESH_292_F0
 10
0
 20
0
 30
0
 70
128
 71
15
 72
3
 73
1
 74
1
 0
VERTEX
 8
MESH_292_F0
 10
0
 20
0
 30
0
 70
128
 71
16
 72
15
 73
19
 74
19
 0
VERTEX
 8
MESH_292_F0
 10
0
 20
0
 30
0
 70
128
 71
16
 72
19
 73
17
 74
17
 0
VERTEX
 8
MESH_292_F0
 10
0
 20
0
 30
0
 70
128
 71
19
 72
18
 73
17
 74
17
 0
VERTEX
 8
MESH_292_F0
 10
0
 20
0
 30
0
 70
128
 71
14
 72
3
 73
15
 74
15
 0
VERTEX
 8
MESH_292_F0
 10
0
 20
0
 30
0
 70
128
 71
4
 72
3
 73
14
 74
14
 0
VERTEX
 8
MESH_292_F0
 10
0
 20
0
 30
0
 70
128
 71
12
 72
4
 73
13
 74
13
 0
VERTEX
 8
MESH_292_F0
 10
0
 20
0
 30
0
 70
128
 71
4
 72
14
 73
13
 74
13
 0
VERTEX
 8
MESH_292_F0
 10
0
 20
0
 30
0
 70
128
 71
5
 72
9
 73
8
 74
8
 0
VERTEX
 8
MESH_292_F0
 10
0
 20
0
 30
0
 70
128
 71
6
 72
5
 73
7
 74
7
 0
VERTEX
 8
MESH_292_F0
 10
0
 20
0
 30
0
 70
128
 71
5
 72
8
 73
7
 74
7
 0
VERTEX
 8
MESH_292_F0
 10
0
 20
0
 30
0
 70
128
 71
5
 72
10
 73
9
 74
9
 0
VERTEX
 8
MESH_292_F0
 10
0
 20
0
 30
0
 70
128
 71
4
 72
10
 73
5
 74
5
 0
VERTEX
 8
MESH_292_F0
 10
0
 20
0
 30
0
 70
128
 71
11
 72
10
 73
4
 74
4
 0
VERTEX
 8
MESH_292_F0
 10
0
 20
0
 30
0
 70
128
 71
11
 72
4
 73
12
 74
12
 0
VERTEX
 8
MESH_292_F0
 10
0
 20
0
 30
0
 70
128
 71
15
 72
1
 73
19
 74
19
 0
SEQEND
 0
POLYLINE
 8
MESH_291_F0
 66
1
 10
0.0
 20
0.0
 30
0.0
 70
64
 71
30
 72
28
 0
VERTEX
 8
MESH_291_F0
 10
-323.4198
 20
-295
 30
53
 70
192
 0
VERTEX
 8
MESH_291_F0
 10
-323.4821
 20
-297.9456
 30
53
 70
192
 0
VERTEX
 8
MESH_291_F0
 10
-323.1975
 20
-300.8781
 30
53
 70
192
 0
VERTEX
 8
MESH_291_F0
 10
-322.5699
 20
-303.7567
 30
53
 70
192
 0
VERTEX
 8
MESH_291_F0
 10
-321.6079
 20
-306.5415
 30
53
 70
192
 0
VERTEX
 8
MESH_291_F0
 10
-320.325
 20
-309.1938
 30
53
 70
192
 0
VERTEX
 8
MESH_291_F0
 10
-318.739
 20
-311.6767
 30
53
 70
192
 0
VERTEX
 8
MESH_291_F0
 10
-316.8718
 20
-313.9557
 30
53
 70
192
 0
VERTEX
 8
MESH_291_F0
 10
-314.7495
 20
-315.9993
 30
53
 70
192
 0
VERTEX
 8
MESH_291_F0
 10
-312.4015
 20
-317.779
 30
53
 70
192
 0
VERTEX
 8
MESH_291_F0
 10
-309.8604
 20
-319.2701
 30
53
 70
192
 0
VERTEX
 8
MESH_291_F0
 10
-307.1616
 20
-320.4519
 30
53
 70
192
 0
VERTEX
 8
MESH_291_F0
 10
-304.3424
 20
-321.308
 30
53
 70
192
 0
VERTEX
 8
MESH_291_F0
 10
-301.4421
 20
-321.8264
 30
53
 70
192
 0
VERTEX
 8
MESH_291_F0
 10
-298.501
 20
-322
 30
53
 70
192
 0
VERTEX
 8
MESH_291_F0
 10
-298.501
 20
-322
 30
647
 70
192
 0
VERTEX
 8
MESH_291_F0
 10
-301.4421
 20
-321.8264
 30
647
 70
192
 0
VERTEX
 8
MESH_291_F0
 10
-304.3424
 20
-321.308
 30
647
 70
192
 0
VERTEX
 8
MESH_291_F0
 10
-307.1616
 20
-320.4519
 30
647
 70
192
 0
VERTEX
 8
MESH_291_F0
 10
-309.8604
 20
-319.2701
 30
647
 70
192
 0
VERTEX
 8
MESH_291_F0
 10
-312.4015
 20
-317.779
 30
647
 70
192
 0
VERTEX
 8
MESH_291_F0
 10
-314.7495
 20
-315.9993
 30
647
 70
192
 0
VERTEX
 8
MESH_291_F0
 10
-316.8718
 20
-313.9557
 30
647
 70
192
 0
VERTEX
 8
MESH_291_F0
 10
-318.739
 20
-311.6767
 30
647
 70
192
 0
VERTEX
 8
MESH_291_F0
 10
-320.325
 20
-309.1938
 30
647
 70
192
 0
VERTEX
 8
MESH_291_F0
 10
-321.6079
 20
-306.5415
 30
647
 70
192
 0
VERTEX
 8
MESH_291_F0
 10
-322.5699
 20
-303.7567
 30
647
 70
192
 0
VERTEX
 8
MESH_291_F0
 10
-323.1975
 20
-300.8781
 30
647
 70
192
 0
VERTEX
 8
MESH_291_F0
 10
-323.4821
 20
-297.9456
 30
647
 70
192
 0
VERTEX
 8
MESH_291_F0
 10
-323.4198
 20
-295
 30
647
 70
192
 0
VERTEX
 8
MESH_291_F0
 10
0
 20
0
 30
0
 70
128
 71
29
 72
1
 73
30
 74
30
 0
VERTEX
 8
MESH_291_F0
 10
0
 20
0
 30
0
 70
128
 71
2
 72
1
 73
29
 74
29
 0
VERTEX
 8
MESH_291_F0
 10
0
 20
0
 30
0
 70
128
 71
3
 72
2
 73
28
 74
28
 0
VERTEX
 8
MESH_291_F0
 10
0
 20
0
 30
0
 70
128
 71
4
 72
3
 73
27
 74
27
 0
VERTEX
 8
MESH_291_F0
 10
0
 20
0
 30
0
 70
128
 71
5
 72
4
 73
26
 74
26
 0
VERTEX
 8
MESH_291_F0
 10
0
 20
0
 30
0
 70
128
 71
6
 72
5
 73
25
 74
25
 0
VERTEX
 8
MESH_291_F0
 10
0
 20
0
 30
0
 70
128
 71
7
 72
6
 73
24
 74
24
 0
VERTEX
 8
MESH_291_F0
 10
0
 20
0
 30
0
 70
128
 71
8
 72
7
 73
23
 74
23
 0
VERTEX
 8
MESH_291_F0
 10
0
 20
0
 30
0
 70
128
 71
9
 72
8
 73
22
 74
22
 0
VERTEX
 8
MESH_291_F0
 10
0
 20
0
 30
0
 70
128
 71
10
 72
9
 73
21
 74
21
 0
VERTEX
 8
MESH_291_F0
 10
0
 20
0
 30
0
 70
128
 71
11
 72
10
 73
20
 74
20
 0
VERTEX
 8
MESH_291_F0
 10
0
 20
0
 30
0
 70
128
 71
12
 72
11
 73
19
 74
19
 0
VERTEX
 8
MESH_291_F0
 10
0
 20
0
 30
0
 70
128
 71
13
 72
12
 73
18
 74
18
 0
VERTEX
 8
MESH_291_F0
 10
0
 20
0
 30
0
 70
128
 71
14
 72
13
 73
17
 74
17
 0
VERTEX
 8
MESH_291_F0
 10
0
 20
0
 30
0
 70
128
 71
15
 72
14
 73
16
 74
16
 0
VERTEX
 8
MESH_291_F0
 10
0
 20
0
 30
0
 70
128
 71
14
 72
17
 73
16
 74
16
 0
VERTEX
 8
MESH_291_F0
 10
0
 20
0
 30
0
 70
128
 71
13
 72
18
 73
17
 74
17
 0
VERTEX
 8
MESH_291_F0
 10
0
 20
0
 30
0
 70
128
 71
12
 72
19
 73
18
 74
18
 0
VERTEX
 8
MESH_291_F0
 10
0
 20
0
 30
0
 70
128
 71
11
 72
20
 73
19
 74
19
 0
VERTEX
 8
MESH_291_F0
 10
0
 20
0
 30
0
 70
128
 71
10
 72
21
 73
20
 74
20
 0
VERTEX
 8
MESH_291_F0
 10
0
 20
0
 30
0
 70
128
 71
9
 72
22
 73
21
 74
21
 0
VERTEX
 8
MESH_291_F0
 10
0
 20
0
 30
0
 70
128
 71
8
 72
23
 73
22
 74
22
 0
VERTEX
 8
MESH_291_F0
 10
0
 20
0
 30
0
 70
128
 71
7
 72
24
 73
23
 74
23
 0
VERTEX
 8
MESH_291_F0
 10
0
 20
0
 30
0
 70
128
 71
6
 72
25
 73
24
 74
24
 0
VERTEX
 8
MESH_291_F0
 10
0
 20
0
 30
0
 70
128
 71
5
 72
26
 73
25
 74
25
 0
VERTEX
 8
MESH_291_F0
 10
0
 20
0
 30
0
 70
128
 71
4
 72
27
 73
26
 74
26
 0
VERTEX
 8
MESH_291_F0
 10
0
 20
0
 30
0
 70
128
 71
3
 72
28
 73
27
 74
27
 0
VERTEX
 8
MESH_291_F0
 10
0
 20
0
 30
0
 70
128
 71
2
 72
29
 73
28
 74
28
 0
SEQEND
 0
POLYLINE
 8
MESH_290_F0
 66
1
 10
0.0
 20
0.0
 30
0.0
 70
64
 71
17
 72
15
 0
VERTEX
 8
MESH_290_F0
 10
-323.4198
 20
-295
 30
647
 70
192
 0
VERTEX
 8
MESH_290_F0
 10
-323.4821
 20
-297.9456
 30
647
 70
192
 0
VERTEX
 8
MESH_290_F0
 10
-323.1975
 20
-300.8781
 30
647
 70
192
 0
VERTEX
 8
MESH_290_F0
 10
-322.5699
 20
-303.7567
 30
647
 70
192
 0
VERTEX
 8
MESH_290_F0
 10
-321.6079
 20
-306.5415
 30
647
 70
192
 0
VERTEX
 8
MESH_290_F0
 10
-320.325
 20
-309.1938
 30
647
 70
192
 0
VERTEX
 8
MESH_290_F0
 10
-318.739
 20
-311.6767
 30
647
 70
192
 0
VERTEX
 8
MESH_290_F0
 10
-316.8718
 20
-313.9557
 30
647
 70
192
 0
VERTEX
 8
MESH_290_F0
 10
-314.7495
 20
-315.9993
 30
647
 70
192
 0
VERTEX
 8
MESH_290_F0
 10
-312.4015
 20
-317.779
 30
647
 70
192
 0
VERTEX
 8
MESH_290_F0
 10
-309.8604
 20
-319.2701
 30
647
 70
192
 0
VERTEX
 8
MESH_290_F0
 10
-307.1616
 20
-320.4519
 30
647
 70
192
 0
VERTEX
 8
MESH_290_F0
 10
-304.3424
 20
-321.308
 30
647
 70
192
 0
VERTEX
 8
MESH_290_F0
 10
-301.4421
 20
-321.8264
 30
647
 70
192
 0
VERTEX
 8
MESH_290_F0
 10
-298.501
 20
-322
 30
647
 70
192
 0
VERTEX
 8
MESH_290_F0
 10
-1.5
 20
-322
 30
647
 70
192
 0
VERTEX
 8
MESH_290_F0
 10
-1.5
 20
-295
 30
647
 70
192
 0
VERTEX
 8
MESH_290_F0
 10
0
 20
0
 30
0
 70
128
 71
17
 72
2
 73
1
 74
1
 0
VERTEX
 8
MESH_290_F0
 10
0
 20
0
 30
0
 70
128
 71
3
 72
2
 73
17
 74
17
 0
VERTEX
 8
MESH_290_F0
 10
0
 20
0
 30
0
 70
128
 71
3
 72
17
 73
4
 74
4
 0
VERTEX
 8
MESH_290_F0
 10
0
 20
0
 30
0
 70
128
 71
17
 72
5
 73
4
 74
4
 0
VERTEX
 8
MESH_290_F0
 10
0
 20
0
 30
0
 70
128
 71
6
 72
5
 73
17
 74
17
 0
VERTEX
 8
MESH_290_F0
 10
0
 20
0
 30
0
 70
128
 71
7
 72
6
 73
16
 74
16
 0
VERTEX
 8
MESH_290_F0
 10
0
 20
0
 30
0
 70
128
 71
7
 72
16
 73
8
 74
8
 0
VERTEX
 8
MESH_290_F0
 10
0
 20
0
 30
0
 70
128
 71
16
 72
9
 73
8
 74
8
 0
VERTEX
 8
MESH_290_F0
 10
0
 20
0
 30
0
 70
128
 71
10
 72
9
 73
16
 74
16
 0
VERTEX
 8
MESH_290_F0
 10
0
 20
0
 30
0
 70
128
 71
10
 72
16
 73
11
 74
11
 0
VERTEX
 8
MESH_290_F0
 10
0
 20
0
 30
0
 70
128
 71
16
 72
15
 73
11
 74
11
 0
VERTEX
 8
MESH_290_F0
 10
0
 20
0
 30
0
 70
128
 71
15
 72
12
 73
11
 74
11
 0
VERTEX
 8
MESH_290_F0
 10
0
 20
0
 30
0
 70
128
 71
13
 72
12
 73
15
 74
15
 0
VERTEX
 8
MESH_290_F0
 10
0
 20
0
 30
0
 70
128
 71
13
 72
15
 73
14
 74
14
 0
VERTEX
 8
MESH_290_F0
 10
0
 20
0
 30
0
 70
128
 71
6
 72
17
 73
16
 74
16
 0
SEQEND
 0
POLYLINE
 8
MESH_289_F0
 66
1
 10
0.0
 20
0.0
 30
0.0
 70
64
 71
6
 72
4
 0
VERTEX
 8
MESH_289_F0
 10
-1.5
 20
-295
 30
647
 70
192
 0
VERTEX
 8
MESH_289_F0
 10
-1.5
 20
-322
 30
647
 70
192
 0
VERTEX
 8
MESH_289_F0
 10
-1.5
 20
-322
 30
53
 70
192
 0
VERTEX
 8
MESH_289_F0
 10
-1.5
 20
-294.5
 30
53
 70
192
 0
VERTEX
 8
MESH_289_F0
 10
-1.5
 20
-294.5
 30
68
 70
192
 0
VERTEX
 8
MESH_289_F0
 10
-1.5
 20
-295
 30
68
 70
192
 0
VERTEX
 8
MESH_289_F0
 10
0
 20
0
 30
0
 70
128
 71
6
 72
2
 73
1
 74
1
 0
VERTEX
 8
MESH_289_F0
 10
0
 20
0
 30
0
 70
128
 71
3
 72
2
 73
6
 74
6
 0
VERTEX
 8
MESH_289_F0
 10
0
 20
0
 30
0
 70
128
 71
3
 72
6
 73
4
 74
4
 0
VERTEX
 8
MESH_289_F0
 10
0
 20
0
 30
0
 70
128
 71
6
 72
5
 73
4
 74
4
 0
SEQEND
 0
POLYLINE
 8
MESH_288_F0
 66
1
 10
0.0
 20
0.0
 30
0.0
 70
64
 71
5
 72
3
 0
VERTEX
 8
MESH_288_F0
 10
-1.5
 20
-294.5
 30
68
 70
192
 0
VERTEX
 8
MESH_288_F0
 10
0
 20
-294.5
 30
68
 70
192
 0
VERTEX
 8
MESH_288_F0
 10
1.5
 20
-294.5
 30
68
 70
192
 0
VERTEX
 8
MESH_288_F0
 10
1.5
 20
-295
 30
68
 70
192
 0
VERTEX
 8
MESH_288_F0
 10
-1.5
 20
-295
 30
68
 70
192
 0
VERTEX
 8
MESH_288_F0
 10
0
 20
0
 30
0
 70
128
 71
5
 72
2
 73
1
 74
1
 0
VERTEX
 8
MESH_288_F0
 10
0
 20
0
 30
0
 70
128
 71
4
 72
2
 73
5
 74
5
 0
VERTEX
 8
MESH_288_F0
 10
0
 20
0
 30
0
 70
128
 71
3
 72
2
 73
4
 74
4
 0
SEQEND
 0
POLYLINE
 8
MESH_287_F0
 66
1
 10
0.0
 20
0.0
 30
0.0
 70
64
 71
6
 72
4
 0
VERTEX
 8
MESH_287_F0
 10
1.5
 20
-295
 30
68
 70
192
 0
VERTEX
 8
MESH_287_F0
 10
1.5
 20
-294.5
 30
68
 70
192
 0
VERTEX
 8
MESH_287_F0
 10
1.5
 20
-294.5
 30
53
 70
192
 0
VERTEX
 8
MESH_287_F0
 10
1.5
 20
-322
 30
53
 70
192
 0
VERTEX
 8
MESH_287_F0
 10
1.5
 20
-322
 30
647
 70
192
 0
VERTEX
 8
MESH_287_F0
 10
1.5
 20
-295
 30
647
 70
192
 0
VERTEX
 8
MESH_287_F0
 10
0
 20
0
 30
0
 70
128
 71
1
 72
3
 73
2
 74
2
 0
VERTEX
 8
MESH_287_F0
 10
0
 20
0
 30
0
 70
128
 71
4
 72
3
 73
1
 74
1
 0
VERTEX
 8
MESH_287_F0
 10
0
 20
0
 30
0
 70
128
 71
4
 72
1
 73
5
 74
5
 0
VERTEX
 8
MESH_287_F0
 10
0
 20
0
 30
0
 70
128
 71
1
 72
6
 73
5
 74
5
 0
SEQEND
 0
POLYLINE
 8
MESH_286_F0
 66
1
 10
0.0
 20
0.0
 30
0.0
 70
64
 71
17
 72
15
 0
VERTEX
 8
MESH_286_F0
 10
1.5
 20
-295
 30
647
 70
192
 0
VERTEX
 8
MESH_286_F0
 10
1.5
 20
-322
 30
647
 70
192
 0
VERTEX
 8
MESH_286_F0
 10
298.501
 20
-322
 30
647
 70
192
 0
VERTEX
 8
MESH_286_F0
 10
301.4421
 20
-321.8264
 30
647
 70
192
 0
VERTEX
 8
MESH_286_F0
 10
304.3424
 20
-321.308
 30
647
 70
192
 0
VERTEX
 8
MESH_286_F0
 10
307.1616
 20
-320.4519
 30
647
 70
192
 0
VERTEX
 8
MESH_286_F0
 10
309.8604
 20
-319.2701
 30
647
 70
192
 0
VERTEX
 8
MESH_286_F0
 10
312.4015
 20
-317.779
 30
647
 70
192
 0
VERTEX
 8
MESH_286_F0
 10
314.7495
 20
-315.9993
 30
647
 70
192
 0
VERTEX
 8
MESH_286_F0
 10
316.8718
 20
-313.9557
 30
647
 70
192
 0
VERTEX
 8
MESH_286_F0
 10
318.739
 20
-311.6767
 30
647
 70
192
 0
VERTEX
 8
MESH_286_F0
 10
320.325
 20
-309.1938
 30
647
 70
192
 0
VERTEX
 8
MESH_286_F0
 10
321.6079
 20
-306.5415
 30
647
 70
192
 0
VERTEX
 8
MESH_286_F0
 10
322.5699
 20
-303.7567
 30
647
 70
192
 0
VERTEX
 8
MESH_286_F0
 10
323.1975
 20
-300.8781
 30
647
 70
192
 0
VERTEX
 8
MESH_286_F0
 10
323.4821
 20
-297.9456
 30
647
 70
192
 0
VERTEX
 8
MESH_286_F0
 10
323.4198
 20
-295
 30
647
 70
192
 0
VERTEX
 8
MESH_286_F0
 10
0
 20
0
 30
0
 70
128
 71
2
 72
11
 73
10
 74
10
 0
VERTEX
 8
MESH_286_F0
 10
0
 20
0
 30
0
 70
128
 71
8
 72
2
 73
9
 74
9
 0
VERTEX
 8
MESH_286_F0
 10
0
 20
0
 30
0
 70
128
 71
2
 72
10
 73
9
 74
9
 0
VERTEX
 8
MESH_286_F0
 10
0
 20
0
 30
0
 70
128
 71
7
 72
2
 73
8
 74
8
 0
VERTEX
 8
MESH_286_F0
 10
0
 20
0
 30
0
 70
128
 71
3
 72
2
 73
7
 74
7
 0
VERTEX
 8
MESH_286_F0
 10
0
 20
0
 30
0
 70
128
 71
5
 72
3
 73
6
 74
6
 0
VERTEX
 8
MESH_286_F0
 10
0
 20
0
 30
0
 70
128
 71
3
 72
7
 73
6
 74
6
 0
VERTEX
 8
MESH_286_F0
 10
0
 20
0
 30
0
 70
128
 71
5
 72
4
 73
3
 74
3
 0
VERTEX
 8
MESH_286_F0
 10
0
 20
0
 30
0
 70
128
 71
2
 72
12
 73
11
 74
11
 0
VERTEX
 8
MESH_286_F0
 10
0
 20
0
 30
0
 70
128
 71
1
 72
12
 73
2
 74
2
 0
VERTEX
 8
MESH_286_F0
 10
0
 20
0
 30
0
 70
128
 71
13
 72
12
 73
1
 74
1
 0
VERTEX
 8
MESH_286_F0
 10
0
 20
0
 30
0
 70
128
 71
13
 72
1
 73
14
 74
14
 0
VERTEX
 8
MESH_286_F0
 10
0
 20
0
 30
0
 70
128
 71
1
 72
15
 73
14
 74
14
 0
VERTEX
 8
MESH_286_F0
 10
0
 20
0
 30
0
 70
128
 71
16
 72
15
 73
1
 74
1
 0
VERTEX
 8
MESH_286_F0
 10
0
 20
0
 30
0
 70
128
 71
16
 72
1
 73
17
 74
17
 0
SEQEND
 0
POLYLINE
 8
MESH_285_F0
 66
1
 10
0.0
 20
0.0
 30
0.0
 70
64
 71
30
 72
28
 0
VERTEX
 8
MESH_285_F0
 10
323.4198
 20
-295
 30
647
 70
192
 0
VERTEX
 8
MESH_285_F0
 10
323.4821
 20
-297.9456
 30
647
 70
192
 0
VERTEX
 8
MESH_285_F0
 10
323.1975
 20
-300.8781
 30
647
 70
192
 0
VERTEX
 8
MESH_285_F0
 10
322.5699
 20
-303.7567
 30
647
 70
192
 0
VERTEX
 8
MESH_285_F0
 10
321.6079
 20
-306.5415
 30
647
 70
192
 0
VERTEX
 8
MESH_285_F0
 10
320.325
 20
-309.1938
 30
647
 70
192
 0
VERTEX
 8
MESH_285_F0
 10
318.739
 20
-311.6767
 30
647
 70
192
 0
VERTEX
 8
MESH_285_F0
 10
316.8718
 20
-313.9557
 30
647
 70
192
 0
VERTEX
 8
MESH_285_F0
 10
314.7495
 20
-315.9993
 30
647
 70
192
 0
VERTEX
 8
MESH_285_F0
 10
312.4015
 20
-317.779
 30
647
 70
192
 0
VERTEX
 8
MESH_285_F0
 10
309.8604
 20
-319.2701
 30
647
 70
192
 0
VERTEX
 8
MESH_285_F0
 10
307.1616
 20
-320.4519
 30
647
 70
192
 0
VERTEX
 8
MESH_285_F0
 10
304.3424
 20
-321.308
 30
647
 70
192
 0
VERTEX
 8
MESH_285_F0
 10
301.4421
 20
-321.8264
 30
647
 70
192
 0
VERTEX
 8
MESH_285_F0
 10
298.501
 20
-322
 30
647
 70
192
 0
VERTEX
 8
MESH_285_F0
 10
298.501
 20
-322
 30
53
 70
192
 0
VERTEX
 8
MESH_285_F0
 10
301.4421
 20
-321.8264
 30
53
 70
192
 0
VERTEX
 8
MESH_285_F0
 10
304.3424
 20
-321.308
 30
53
 70
192
 0
VERTEX
 8
MESH_285_F0
 10
307.1616
 20
-320.4519
 30
53
 70
192
 0
VERTEX
 8
MESH_285_F0
 10
309.8604
 20
-319.2701
 30
53
 70
192
 0
VERTEX
 8
MESH_285_F0
 10
312.4015
 20
-317.779
 30
53
 70
192
 0
VERTEX
 8
MESH_285_F0
 10
314.7495
 20
-315.9993
 30
53
 70
192
 0
VERTEX
 8
MESH_285_F0
 10
316.8718
 20
-313.9557
 30
53
 70
192
 0
VERTEX
 8
MESH_285_F0
 10
318.739
 20
-311.6767
 30
53
 70
192
 0
VERTEX
 8
MESH_285_F0
 10
320.325
 20
-309.1938
 30
53
 70
192
 0
VERTEX
 8
MESH_285_F0
 10
321.6079
 20
-306.5415
 30
53
 70
192
 0
VERTEX
 8
MESH_285_F0
 10
322.5699
 20
-303.7567
 30
53
 70
192
 0
VERTEX
 8
MESH_285_F0
 10
323.1975
 20
-300.8781
 30
53
 70
192
 0
VERTEX
 8
MESH_285_F0
 10
323.4821
 20
-297.9456
 30
53
 70
192
 0
VERTEX
 8
MESH_285_F0
 10
323.4198
 20
-295
 30
53
 70
192
 0
VERTEX
 8
MESH_285_F0
 10
0
 20
0
 30
0
 70
128
 71
29
 72
1
 73
30
 74
30
 0
VERTEX
 8
MESH_285_F0
 10
0
 20
0
 30
0
 70
128
 71
2
 72
1
 73
29
 74
29
 0
VERTEX
 8
MESH_285_F0
 10
0
 20
0
 30
0
 70
128
 71
3
 72
2
 73
28
 74
28
 0
VERTEX
 8
MESH_285_F0
 10
0
 20
0
 30
0
 70
128
 71
4
 72
3
 73
27
 74
27
 0
VERTEX
 8
MESH_285_F0
 10
0
 20
0
 30
0
 70
128
 71
5
 72
4
 73
26
 74
26
 0
VERTEX
 8
MESH_285_F0
 10
0
 20
0
 30
0
 70
128
 71
6
 72
5
 73
25
 74
25
 0
VERTEX
 8
MESH_285_F0
 10
0
 20
0
 30
0
 70
128
 71
7
 72
6
 73
24
 74
24
 0
VERTEX
 8
MESH_285_F0
 10
0
 20
0
 30
0
 70
128
 71
8
 72
7
 73
23
 74
23
 0
VERTEX
 8
MESH_285_F0
 10
0
 20
0
 30
0
 70
128
 71
9
 72
8
 73
22
 74
22
 0
VERTEX
 8
MESH_285_F0
 10
0
 20
0
 30
0
 70
128
 71
10
 72
9
 73
21
 74
21
 0
VERTEX
 8
MESH_285_F0
 10
0
 20
0
 30
0
 70
128
 71
11
 72
10
 73
20
 74
20
 0
VERTEX
 8
MESH_285_F0
 10
0
 20
0
 30
0
 70
128
 71
12
 72
11
 73
19
 74
19
 0
VERTEX
 8
MESH_285_F0
 10
0
 20
0
 30
0
 70
128
 71
13
 72
12
 73
18
 74
18
 0
VERTEX
 8
MESH_285_F0
 10
0
 20
0
 30
0
 70
128
 71
14
 72
13
 73
17
 74
17
 0
VERTEX
 8
MESH_285_F0
 10
0
 20
0
 30
0
 70
128
 71
15
 72
14
 73
16
 74
16
 0
VERTEX
 8
MESH_285_F0
 10
0
 20
0
 30
0
 70
128
 71
14
 72
17
 73
16
 74
16
 0
VERTEX
 8
MESH_285_F0
 10
0
 20
0
 30
0
 70
128
 71
13
 72
18
 73
17
 74
17
 0
VERTEX
 8
MESH_285_F0
 10
0
 20
0
 30
0
 70
128
 71
12
 72
19
 73
18
 74
18
 0
VERTEX
 8
MESH_285_F0
 10
0
 20
0
 30
0
 70
128
 71
11
 72
20
 73
19
 74
19
 0
VERTEX
 8
MESH_285_F0
 10
0
 20
0
 30
0
 70
128
 71
10
 72
21
 73
20
 74
20
 0
VERTEX
 8
MESH_285_F0
 10
0
 20
0
 30
0
 70
128
 71
9
 72
22
 73
21
 74
21
 0
VERTEX
 8
MESH_285_F0
 10
0
 20
0
 30
0
 70
128
 71
8
 72
23
 73
22
 74
22
 0
VERTEX
 8
MESH_285_F0
 10
0
 20
0
 30
0
 70
128
 71
7
 72
24
 73
23
 74
23
 0
VERTEX
 8
MESH_285_F0
 10
0
 20
0
 30
0
 70
128
 71
6
 72
25
 73
24
 74
24
 0
VERTEX
 8
MESH_285_F0
 10
0
 20
0
 30
0
 70
128
 71
5
 72
26
 73
25
 74
25
 0
VERTEX
 8
MESH_285_F0
 10
0
 20
0
 30
0
 70
128
 71
4
 72
27
 73
26
 74
26
 0
VERTEX
 8
MESH_285_F0
 10
0
 20
0
 30
0
 70
128
 71
3
 72
28
 73
27
 74
27
 0
VERTEX
 8
MESH_285_F0
 10
0
 20
0
 30
0
 70
128
 71
2
 72
29
 73
28
 74
28
 0
SEQEND
 0
POLYLINE
 8
MESH_284_F0
 66
1
 10
0.0
 20
0.0
 30
0.0
 70
64
 71
19
 72
17
 0
VERTEX
 8
MESH_284_F0
 10
307
 20
-295
 30
53
 70
192
 0
VERTEX
 8
MESH_284_F0
 10
323.4198
 20
-295
 30
53
 70
192
 0
VERTEX
 8
MESH_284_F0
 10
323.4821
 20
-297.9456
 30
53
 70
192
 0
VERTEX
 8
MESH_284_F0
 10
323.1975
 20
-300.8781
 30
53
 70
192
 0
VERTEX
 8
MESH_284_F0
 10
322.5699
 20
-303.7567
 30
53
 70
192
 0
VERTEX
 8
MESH_284_F0
 10
321.6079
 20
-306.5415
 30
53
 70
192
 0
VERTEX
 8
MESH_284_F0
 10
320.325
 20
-309.1938
 30
53
 70
192
 0
VERTEX
 8
MESH_284_F0
 10
318.739
 20
-311.6767
 30
53
 70
192
 0
VERTEX
 8
MESH_284_F0
 10
316.8718
 20
-313.9557
 30
53
 70
192
 0
VERTEX
 8
MESH_284_F0
 10
314.7495
 20
-315.9993
 30
53
 70
192
 0
VERTEX
 8
MESH_284_F0
 10
312.4015
 20
-317.779
 30
53
 70
192
 0
VERTEX
 8
MESH_284_F0
 10
309.8604
 20
-319.2701
 30
53
 70
192
 0
VERTEX
 8
MESH_284_F0
 10
307.1616
 20
-320.4519
 30
53
 70
192
 0
VERTEX
 8
MESH_284_F0
 10
304.3424
 20
-321.308
 30
53
 70
192
 0
VERTEX
 8
MESH_284_F0
 10
301.4421
 20
-321.8264
 30
53
 70
192
 0
VERTEX
 8
MESH_284_F0
 10
298.501
 20
-322
 30
53
 70
192
 0
VERTEX
 8
MESH_284_F0
 10
1.5
 20
-322
 30
53
 70
192
 0
VERTEX
 8
MESH_284_F0
 10
1.5
 20
-294.5
 30
53
 70
192
 0
VERTEX
 8
MESH_284_F0
 10
307
 20
-294.5
 30
53
 70
192
 0
VERTEX
 8
MESH_284_F0
 10
0
 20
0
 30
0
 70
128
 71
1
 72
3
 73
2
 74
2
 0
VERTEX
 8
MESH_284_F0
 10
0
 20
0
 30
0
 70
128
 71
4
 72
3
 73
1
 74
1
 0
VERTEX
 8
MESH_284_F0
 10
0
 20
0
 30
0
 70
128
 71
5
 72
4
 73
18
 74
18
 0
VERTEX
 8
MESH_284_F0
 10
0
 20
0
 30
0
 70
128
 71
5
 72
18
 73
6
 74
6
 0
VERTEX
 8
MESH_284_F0
 10
0
 20
0
 30
0
 70
128
 71
18
 72
7
 73
6
 74
6
 0
VERTEX
 8
MESH_284_F0
 10
0
 20
0
 30
0
 70
128
 71
8
 72
7
 73
18
 74
18
 0
VERTEX
 8
MESH_284_F0
 10
0
 20
0
 30
0
 70
128
 71
8
 72
18
 73
9
 74
9
 0
VERTEX
 8
MESH_284_F0
 10
0
 20
0
 30
0
 70
128
 71
18
 72
10
 73
9
 74
9
 0
VERTEX
 8
MESH_284_F0
 10
0
 20
0
 30
0
 70
128
 71
11
 72
10
 73
18
 74
18
 0
VERTEX
 8
MESH_284_F0
 10
0
 20
0
 30
0
 70
128
 71
11
 72
18
 73
12
 74
12
 0
VERTEX
 8
MESH_284_F0
 10
0
 20
0
 30
0
 70
128
 71
18
 72
14
 73
12
 74
12
 0
VERTEX
 8
MESH_284_F0
 10
0
 20
0
 30
0
 70
128
 71
14
 72
13
 73
12
 74
12
 0
VERTEX
 8
MESH_284_F0
 10
0
 20
0
 30
0
 70
128
 71
14
 72
16
 73
15
 74
15
 0
VERTEX
 8
MESH_284_F0
 10
0
 20
0
 30
0
 70
128
 71
17
 72
16
 73
14
 74
14
 0
VERTEX
 8
MESH_284_F0
 10
0
 20
0
 30
0
 70
128
 71
17
 72
14
 73
18
 74
18
 0
VERTEX
 8
MESH_284_F0
 10
0
 20
0
 30
0
 70
128
 71
18
 72
1
 73
19
 74
19
 0
VERTEX
 8
MESH_284_F0
 10
0
 20
0
 30
0
 70
128
 71
4
 72
1
 73
18
 74
18
 0
SEQEND
 0
POLYLINE
 8
MESH_283_F0
 66
1
 10
0.0
 20
0.0
 30
0.0
 70
64
 71
9
 72
7
 0
VERTEX
 8
MESH_283_F0
 10
307
 20
-294.5
 30
53
 70
192
 0
VERTEX
 8
MESH_283_F0
 10
1.5
 20
-294.5
 30
53
 70
192
 0
VERTEX
 8
MESH_283_F0
 10
1.5
 20
-294.5
 30
68
 70
192
 0
VERTEX
 8
MESH_283_F0
 10
0
 20
-294.5
 30
68
 70
192
 0
VERTEX
 8
MESH_283_F0
 10
-1.5
 20
-294.5
 30
68
 70
192
 0
VERTEX
 8
MESH_283_F0
 10
-1.5
 20
-294.5
 30
53
 70
192
 0
VERTEX
 8
MESH_283_F0
 10
-307
 20
-294.5
 30
53
 70
192
 0
VERTEX
 8
MESH_283_F0
 10
-307
 20
-294.5
 30
50
 70
192
 0
VERTEX
 8
MESH_283_F0
 10
307
 20
-294.5
 30
50
 70
192
 0
VERTEX
 8
MESH_283_F0
 10
0
 20
0
 30
0
 70
128
 71
9
 72
2
 73
1
 74
1
 0
VERTEX
 8
MESH_283_F0
 10
0
 20
0
 30
0
 70
128
 71
6
 72
2
 73
9
 74
9
 0
VERTEX
 8
MESH_283_F0
 10
0
 20
0
 30
0
 70
128
 71
7
 72
6
 73
8
 74
8
 0
VERTEX
 8
MESH_283_F0
 10
0
 20
0
 30
0
 70
128
 71
6
 72
9
 73
8
 74
8
 0
VERTEX
 8
MESH_283_F0
 10
0
 20
0
 30
0
 70
128
 71
2
 72
4
 73
3
 74
3
 0
VERTEX
 8
MESH_283_F0
 10
0
 20
0
 30
0
 70
128
 71
5
 72
4
 73
2
 74
2
 0
VERTEX
 8
MESH_283_F0
 10
0
 20
0
 30
0
 70
128
 71
5
 72
2
 73
6
 74
6
 0
SEQEND
 0
POLYLINE
 8
MESH_282_F0
 66
1
 10
0.0
 20
0.0
 30
0.0
 70
64
 71
4
 72
2
 0
VERTEX
 8
MESH_282_F0
 10
307
 20
-294.5
 30
50
 70
192
 0
VERTEX
 8
MESH_282_F0
 10
-307
 20
-294.5
 30
50
 70
192
 0
VERTEX
 8
MESH_282_F0
 10
-307
 20
0
 30
50
 70
192
 0
VERTEX
 8
MESH_282_F0
 10
307
 20
0
 30
50
 70
192
 0
VERTEX
 8
MESH_282_F0
 10
0
 20
0
 30
0
 70
128
 71
1
 72
3
 73
2
 74
2
 0
VERTEX
 8
MESH_282_F0
 10
0
 20
0
 30
0
 70
128
 71
4
 72
3
 73
1
 74
1
 0
SEQEND
 0
POLYLINE
 8
MESH_281_F0
 66
1
 10
0.0
 20
0.0
 30
0.0
 70
64
 71
10
 72
8
 0
VERTEX
 8
MESH_281_F0
 10
-307
 20
-295
 30
1.5
 70
192
 0
VERTEX
 8
MESH_281_F0
 10
-307
 20
-295
 30
0
 70
192
 0
VERTEX
 8
MESH_281_F0
 10
-307
 20
0
 30
0
 70
192
 0
VERTEX
 8
MESH_281_F0
 10
-307
 20
0
 30
50
 70
192
 0
VERTEX
 8
MESH_281_F0
 10
-307
 20
-294.5
 30
50
 70
192
 0
VERTEX
 8
MESH_281_F0
 10
-307
 20
-294.5
 30
53
 70
192
 0
VERTEX
 8
MESH_281_F0
 10
-307
 20
-295
 30
53
 70
192
 0
VERTEX
 8
MESH_281_F0
 10
-307
 20
-295
 30
48.5
 70
192
 0
VERTEX
 8
MESH_281_F0
 10
-307
 20
-286
 30
48.5
 70
192
 0
VERTEX
 8
MESH_281_F0
 10
-307
 20
-286
 30
1.5
 70
192
 0
VERTEX
 8
MESH_281_F0
 10
0
 20
0
 30
0
 70
128
 71
10
 72
2
 73
1
 74
1
 0
VERTEX
 8
MESH_281_F0
 10
0
 20
0
 30
0
 70
128
 71
3
 72
2
 73
10
 74
10
 0
VERTEX
 8
MESH_281_F0
 10
0
 20
0
 30
0
 70
128
 71
4
 72
3
 73
9
 74
9
 0
VERTEX
 8
MESH_281_F0
 10
0
 20
0
 30
0
 70
128
 71
4
 72
9
 73
5
 74
5
 0
VERTEX
 8
MESH_281_F0
 10
0
 20
0
 30
0
 70
128
 71
9
 72
8
 73
5
 74
5
 0
VERTEX
 8
MESH_281_F0
 10
0
 20
0
 30
0
 70
128
 71
8
 72
7
 73
5
 74
5
 0
VERTEX
 8
MESH_281_F0
 10
0
 20
0
 30
0
 70
128
 71
7
 72
6
 73
5
 74
5
 0
VERTEX
 8
MESH_281_F0
 10
0
 20
0
 30
0
 70
128
 71
3
 72
10
 73
9
 74
9
 0
SEQEND
 0
POLYLINE
 8
MESH_280_F0
 66
1
 10
0.0
 20
0.0
 30
0.0
 70
64
 71
32
 72
32
 0
VERTEX
 8
MESH_280_F0
 10
-325
 20
-295
 30
0
 70
192
 0
VERTEX
 8
MESH_280_F0
 10
-307
 20
-295
 30
0
 70
192
 0
VERTEX
 8
MESH_280_F0
 10
-307
 20
-295
 30
1.5
 70
192
 0
VERTEX
 8
MESH_280_F0
 10
-320
 20
-295
 30
1.5
 70
192
 0
VERTEX
 8
MESH_280_F0
 10
-320
 20
-295
 30
48.5
 70
192
 0
VERTEX
 8
MESH_280_F0
 10
-307
 20
-295
 30
48.5
 70
192
 0
VERTEX
 8
MESH_280_F0
 10
-307
 20
-295
 30
53
 70
192
 0
VERTEX
 8
MESH_280_F0
 10
-323.4198
 20
-295
 30
53
 70
192
 0
VERTEX
 8
MESH_280_F0
 10
-323.4198
 20
-295
 30
647
 70
192
 0
VERTEX
 8
MESH_280_F0
 10
-1.5
 20
-295
 30
647
 70
192
 0
VERTEX
 8
MESH_280_F0
 10
-1.5
 20
-295
 30
68
 70
192
 0
VERTEX
 8
MESH_280_F0
 10
1.5
 20
-295
 30
68
 70
192
 0
VERTEX
 8
MESH_280_F0
 10
1.5
 20
-295
 30
647
 70
192
 0
VERTEX
 8
MESH_280_F0
 10
323.4198
 20
-295
 30
647
 70
192
 0
VERTEX
 8
MESH_280_F0
 10
323.4198
 20
-295
 30
53
 70
192
 0
VERTEX
 8
MESH_280_F0
 10
307
 20
-295
 30
53
 70
192
 0
VERTEX
 8
MESH_280_F0
 10
307
 20
-295
 30
48.5
 70
192
 0
VERTEX
 8
MESH_280_F0
 10
320
 20
-295
 30
48.5
 70
192
 0
VERTEX
 8
MESH_280_F0
 10
320
 20
-295
 30
1.5
 70
192
 0
VERTEX
 8
MESH_280_F0
 10
307
 20
-295
 30
1.5
 70
192
 0
VERTEX
 8
MESH_280_F0
 10
307
 20
-295
 30
0
 70
192
 0
VERTEX
 8
MESH_280_F0
 10
325
 20
-295
 30
0
 70
192
 0
VERTEX
 8
MESH_280_F0
 10
325
 20
-295
 30
820.0001
 70
192
 0
VERTEX
 8
MESH_280_F0
 10
-325
 20
-295
 30
820.0001
 70
192
 0
VERTEX
 8
MESH_280_F0
 10
-323.4198
 20
-295
 30
819
 70
192
 0
VERTEX
 8
MESH_280_F0
 10
323.4198
 20
-295
 30
819
 70
192
 0
VERTEX
 8
MESH_280_F0
 10
323.4198
 20
-295
 30
654
 70
192
 0
VERTEX
 8
MESH_280_F0
 10
324
 20
-295
 30
654
 70
192
 0
VERTEX
 8
MESH_280_F0
 10
324
 20
-295
 30
650
 70
192
 0
VERTEX
 8
MESH_280_F0
 10
-324
 20
-295
 30
650
 70
192
 0
VERTEX
 8
MESH_280_F0
 10
-324
 20
-295
 30
654
 70
192
 0
VERTEX
 8
MESH_280_F0
 10
-323.4198
 20
-295
 30
654
 70
192
 0
VERTEX
 8
MESH_280_F0
 10
0
 20
0
 30
0
 70
128
 71
1
 72
4
 73
2
 74
2
 0
VERTEX
 8
MESH_280_F0
 10
0
 20
0
 30
0
 70
128
 71
4
 72
3
 73
2
 74
2
 0
VERTEX
 8
MESH_280_F0
 10
0
 20
0
 30
0
 70
128
 71
1
 72
5
 73
4
 74
4
 0
VERTEX
 8
MESH_280_F0
 10
0
 20
0
 30
0
 70
128
 71
8
 72
5
 73
1
 74
1
 0
VERTEX
 8
MESH_280_F0
 10
0
 20
0
 30
0
 70
128
 71
9
 72
8
 73
30
 74
30
 0
VERTEX
 8
MESH_280_F0
 10
0
 20
0
 30
0
 70
128
 71
9
 72
30
 73
10
 74
10
 0
VERTEX
 8
MESH_280_F0
 10
0
 20
0
 30
0
 70
128
 71
30
 72
13
 73
10
 74
10
 0
VERTEX
 8
MESH_280_F0
 10
0
 20
0
 30
0
 70
128
 71
13
 72
12
 73
10
 74
10
 0
VERTEX
 8
MESH_280_F0
 10
0
 20
0
 30
0
 70
128
 71
12
 72
11
 73
10
 74
10
 0
VERTEX
 8
MESH_280_F0
 10
0
 20
0
 30
0
 70
128
 71
5
 72
7
 73
6
 74
6
 0
VERTEX
 8
MESH_280_F0
 10
0
 20
0
 30
0
 70
128
 71
8
 72
7
 73
5
 74
5
 0
VERTEX
 8
MESH_280_F0
 10
0
 20
0
 30
0
 70
128
 71
29
 72
13
 73
30
 74
30
 0
VERTEX
 8
MESH_280_F0
 10
0
 20
0
 30
0
 70
128
 71
14
 72
13
 73
29
 74
29
 0
VERTEX
 8
MESH_280_F0
 10
0
 20
0
 30
0
 70
128
 71
14
 72
29
 73
15
 74
15
 0
VERTEX
 8
MESH_280_F0
 10
0
 20
0
 30
0
 70
128
 71
29
 72
22
 73
15
 74
15
 0
VERTEX
 8
MESH_280_F0
 10
0
 20
0
 30
0
 70
128
 71
22
 72
18
 73
15
 74
15
 0
VERTEX
 8
MESH_280_F0
 10
0
 20
0
 30
0
 70
128
 71
18
 72
16
 73
15
 74
15
 0
VERTEX
 8
MESH_280_F0
 10
0
 20
0
 30
0
 70
128
 71
17
 72
16
 73
18
 74
18
 0
VERTEX
 8
MESH_280_F0
 10
0
 20
0
 30
0
 70
128
 71
22
 72
19
 73
18
 74
18
 0
VERTEX
 8
MESH_280_F0
 10
0
 20
0
 30
0
 70
128
 71
21
 72
19
 73
22
 74
22
 0
VERTEX
 8
MESH_280_F0
 10
0
 20
0
 30
0
 70
128
 71
20
 72
19
 73
21
 74
21
 0
VERTEX
 8
MESH_280_F0
 10
0
 20
0
 30
0
 70
128
 71
29
 72
23
 73
22
 74
22
 0
VERTEX
 8
MESH_280_F0
 10
0
 20
0
 30
0
 70
128
 71
28
 72
23
 73
29
 74
29
 0
VERTEX
 8
MESH_280_F0
 10
0
 20
0
 30
0
 70
128
 71
26
 72
23
 73
28
 74
28
 0
VERTEX
 8
MESH_280_F0
 10
0
 20
0
 30
0
 70
128
 71
26
 72
28
 73
27
 74
27
 0
VERTEX
 8
MESH_280_F0
 10
0
 20
0
 30
0
 70
128
 71
26
 72
24
 73
23
 74
23
 0
VERTEX
 8
MESH_280_F0
 10
0
 20
0
 30
0
 70
128
 71
25
 72
24
 73
26
 74
26
 0
VERTEX
 8
MESH_280_F0
 10
0
 20
0
 30
0
 70
128
 71
31
 72
24
 73
25
 74
25
 0
VERTEX
 8
MESH_280_F0
 10
0
 20
0
 30
0
 70
128
 71
31
 72
25
 73
32
 74
32
 0
VERTEX
 8
MESH_280_F0
 10
0
 20
0
 30
0
 70
128
 71
30
 72
24
 73
31
 74
31
 0
VERTEX
 8
MESH_280_F0
 10
0
 20
0
 30
0
 70
128
 71
1
 72
24
 73
30
 74
30
 0
VERTEX
 8
MESH_280_F0
 10
0
 20
0
 30
0
 70
128
 71
1
 72
30
 73
8
 74
8
 0
SEQEND
 0
POLYLINE
 8
MESH_279_F0
 66
1
 10
0.0
 20
0.0
 30
0.0
 70
64
 71
4
 72
2
 0
VERTEX
 8
MESH_279_F0
 10
325
 20
-295
 30
820.0001
 70
192
 0
VERTEX
 8
MESH_279_F0
 10
325
 20
-295
 30
0
 70
192
 0
VERTEX
 8
MESH_279_F0
 10
325
 20
0
 30
0
 70
192
 0
VERTEX
 8
MESH_279_F0
 10
325
 20
0
 30
820.0001
 70
192
 0
VERTEX
 8
MESH_279_F0
 10
0
 20
0
 30
0
 70
128
 71
1
 72
3
 73
2
 74
2
 0
VERTEX
 8
MESH_279_F0
 10
0
 20
0
 30
0
 70
128
 71
4
 72
3
 73
1
 74
1
 0
SEQEND
 0
POLYLINE
 8
MESH_278_F0
 66
1
 10
0.0
 20
0.0
 30
0.0
 70
64
 71
56
 72
54
 0
VERTEX
 8
MESH_278_F0
 10
-235
 20
-21
 30
360
 70
192
 0
VERTEX
 8
MESH_278_F0
 10
-236.2054
 20
-21
 30
360.0729
 70
192
 0
VERTEX
 8
MESH_278_F0
 10
-237.3932
 20
-21
 30
360.2906
 70
192
 0
VERTEX
 8
MESH_278_F0
 10
-238.5461
 20
-21
 30
360.6498
 70
192
 0
VERTEX
 8
MESH_278_F0
 10
-239.6472
 20
-21
 30
361.1454
 70
192
 0
VERTEX
 8
MESH_278_F0
 10
-240.6806
 20
-21
 30
361.7702
 70
192
 0
VERTEX
 8
MESH_278_F0
 10
-241.6312
 20
-21
 30
362.5149
 70
192
 0
VERTEX
 8
MESH_278_F0
 10
-242.4851
 20
-21
 30
363.3688
 70
192
 0
VERTEX
 8
MESH_278_F0
 10
-243.2298
 20
-21
 30
364.3193
 70
192
 0
VERTEX
 8
MESH_278_F0
 10
-243.8546
 20
-21
 30
365.3528
 70
192
 0
VERTEX
 8
MESH_278_F0
 10
-244.3501
 20
-21
 30
366.4539
 70
192
 0
VERTEX
 8
MESH_278_F0
 10
-244.7094
 20
-21
 30
367.6068
 70
192
 0
VERTEX
 8
MESH_278_F0
 10
-244.9271
 20
-21
 30
368.7946
 70
192
 0
VERTEX
 8
MESH_278_F0
 10
-245
 20
-21
 30
370
 70
192
 0
VERTEX
 8
MESH_278_F0
 10
-245
 20
-21
 30
708
 70
192
 0
VERTEX
 8
MESH_278_F0
 10
-244.9271
 20
-21
 30
709.2053
 70
192
 0
VERTEX
 8
MESH_278_F0
 10
-244.7094
 20
-21
 30
710.3932
 70
192
 0
VERTEX
 8
MESH_278_F0
 10
-244.3501
 20
-21
 30
711.546
 70
192
 0
VERTEX
 8
MESH_278_F0
 10
-243.8546
 20
-21
 30
712.6472
 70
192
 0
VERTEX
 8
MESH_278_F0
 10
-243.2298
 20
-21
 30
713.6807
 70
192
 0
VERTEX
 8
MESH_278_F0
 10
-242.4851
 20
-21
 30
714.6312
 70
192
 0
VERTEX
 8
MESH_278_F0
 10
-241.6312
 20
-21
 30
715.4851
 70
192
 0
VERTEX
 8
MESH_278_F0
 10
-240.6806
 20
-21
 30
716.2298
 70
192
 0
VERTEX
 8
MESH_278_F0
 10
-239.6472
 20
-21
 30
716.8546
 70
192
 0
VERTEX
 8
MESH_278_F0
 10
-238.5461
 20
-21
 30
717.3502
 70
192
 0
VERTEX
 8
MESH_278_F0
 10
-237.3932
 20
-21
 30
717.7094
 70
192
 0
VERTEX
 8
MESH_278_F0
 10
-236.2054
 20
-21
 30
717.9271
 70
192
 0
VERTEX
 8
MESH_278_F0
 10
-235
 20
-21
 30
718
 70
192
 0
VERTEX
 8
MESH_278_F0
 10
235
 20
-21
 30
718
 70
192
 0
VERTEX
 8
MESH_278_F0
 10
236.2054
 20
-21
 30
717.9271
 70
192
 0
VERTEX
 8
MESH_278_F0
 10
237.3932
 20
-21
 30
717.7094
 70
192
 0
VERTEX
 8
MESH_278_F0
 10
238.5461
 20
-21
 30
717.3502
 70
192
 0
VERTEX
 8
MESH_278_F0
 10
239.6472
 20
-21
 30
716.8546
 70
192
 0
VERTEX
 8
MESH_278_F0
 10
240.6806
 20
-21
 30
716.2298
 70
192
 0
VERTEX
 8
MESH_278_F0
 10
241.6312
 20
-21
 30
715.4851
 70
192
 0
VERTEX
 8
MESH_278_F0
 10
242.4851
 20
-21
 30
714.6312
 70
192
 0
VERTEX
 8
MESH_278_F0
 10
243.2298
 20
-21
 30
713.6807
 70
192
 0
VERTEX
 8
MESH_278_F0
 10
243.8546
 20
-21
 30
712.6472
 70
192
 0
VERTEX
 8
MESH_278_F0
 10
244.3501
 20
-21
 30
711.546
 70
192
 0
VERTEX
 8
MESH_278_F0
 10
244.7094
 20
-21
 30
710.3932
 70
192
 0
VERTEX
 8
MESH_278_F0
 10
244.9271
 20
-21
 30
709.2053
 70
192
 0
VERTEX
 8
MESH_278_F0
 10
245
 20
-21
 30
708
 70
192
 0
VERTEX
 8
MESH_278_F0
 10
245
 20
-21
 30
370
 70
192
 0
VERTEX
 8
MESH_278_F0
 10
244.9271
 20
-21
 30
368.7946
 70
192
 0
VERTEX
 8
MESH_278_F0
 10
244.7094
 20
-21
 30
367.6068
 70
192
 0
VERTEX
 8
MESH_278_F0
 10
244.3501
 20
-21
 30
366.4539
 70
192
 0
VERTEX
 8
MESH_278_F0
 10
243.8546
 20
-21
 30
365.3528
 70
192
 0
VERTEX
 8
MESH_278_F0
 10
243.2298
 20
-21
 30
364.3193
 70
192
 0
VERTEX
 8
MESH_278_F0
 10
242.4851
 20
-21
 30
363.3688
 70
192
 0
VERTEX
 8
MESH_278_F0
 10
241.6312
 20
-21
 30
362.5149
 70
192
 0
VERTEX
 8
MESH_278_F0
 10
240.6806
 20
-21
 30
361.7702
 70
192
 0
VERTEX
 8
MESH_278_F0
 10
239.6472
 20
-21
 30
361.1454
 70
192
 0
VERTEX
 8
MESH_278_F0
 10
238.5461
 20
-21
 30
360.6498
 70
192
 0
VERTEX
 8
MESH_278_F0
 10
237.3932
 20
-21
 30
360.2906
 70
192
 0
VERTEX
 8
MESH_278_F0
 10
236.2054
 20
-21
 30
360.0729
 70
192
 0
VERTEX
 8
MESH_278_F0
 10
235
 20
-21
 30
360
 70
192
 0
VERTEX
 8
MESH_278_F0
 10
0
 20
0
 30
0
 70
128
 71
13
 72
15
 73
14
 74
14
 0
VERTEX
 8
MESH_278_F0
 10
0
 20
0
 30
0
 70
128
 71
16
 72
15
 73
13
 74
13
 0
VERTEX
 8
MESH_278_F0
 10
0
 20
0
 30
0
 70
128
 71
17
 72
16
 73
12
 74
12
 0
VERTEX
 8
MESH_278_F0
 10
0
 20
0
 30
0
 70
128
 71
18
 72
17
 73
11
 74
11
 0
VERTEX
 8
MESH_278_F0
 10
0
 20
0
 30
0
 70
128
 71
19
 72
18
 73
10
 74
10
 0
VERTEX
 8
MESH_278_F0
 10
0
 20
0
 30
0
 70
128
 71
20
 72
19
 73
9
 74
9
 0
VERTEX
 8
MESH_278_F0
 10
0
 20
0
 30
0
 70
128
 71
21
 72
20
 73
8
 74
8
 0
VERTEX
 8
MESH_278_F0
 10
0
 20
0
 30
0
 70
128
 71
22
 72
21
 73
7
 74
7
 0
VERTEX
 8
MESH_278_F0
 10
0
 20
0
 30
0
 70
128
 71
23
 72
22
 73
6
 74
6
 0
VERTEX
 8
MESH_278_F0
 10
0
 20
0
 30
0
 70
128
 71
24
 72
23
 73
5
 74
5
 0
VERTEX
 8
MESH_278_F0
 10
0
 20
0
 30
0
 70
128
 71
25
 72
24
 73
4
 74
4
 0
VERTEX
 8
MESH_278_F0
 10
0
 20
0
 30
0
 70
128
 71
26
 72
25
 73
3
 74
3
 0
VERTEX
 8
MESH_278_F0
 10
0
 20
0
 30
0
 70
128
 71
27
 72
26
 73
2
 74
2
 0
VERTEX
 8
MESH_278_F0
 10
0
 20
0
 30
0
 70
128
 71
28
 72
27
 73
1
 74
1
 0
VERTEX
 8
MESH_278_F0
 10
0
 20
0
 30
0
 70
128
 71
29
 72
28
 73
56
 74
56
 0
VERTEX
 8
MESH_278_F0
 10
0
 20
0
 30
0
 70
128
 71
30
 72
29
 73
55
 74
55
 0
VERTEX
 8
MESH_278_F0
 10
0
 20
0
 30
0
 70
128
 71
31
 72
30
 73
54
 74
54
 0
VERTEX
 8
MESH_278_F0
 10
0
 20
0
 30
0
 70
128
 71
32
 72
31
 73
53
 74
53
 0
VERTEX
 8
MESH_278_F0
 10
0
 20
0
 30
0
 70
128
 71
33
 72
32
 73
52
 74
52
 0
VERTEX
 8
MESH_278_F0
 10
0
 20
0
 30
0
 70
128
 71
34
 72
33
 73
51
 74
51
 0
VERTEX
 8
MESH_278_F0
 10
0
 20
0
 30
0
 70
128
 71
35
 72
34
 73
50
 74
50
 0
VERTEX
 8
MESH_278_F0
 10
0
 20
0
 30
0
 70
128
 71
36
 72
35
 73
49
 74
49
 0
VERTEX
 8
MESH_278_F0
 10
0
 20
0
 30
0
 70
128
 71
37
 72
36
 73
48
 74
48
 0
VERTEX
 8
MESH_278_F0
 10
0
 20
0
 30
0
 70
128
 71
38
 72
37
 73
47
 74
47
 0
VERTEX
 8
MESH_278_F0
 10
0
 20
0
 30
0
 70
128
 71
39
 72
38
 73
46
 74
46
 0
VERTEX
 8
MESH_278_F0
 10
0
 20
0
 30
0
 70
128
 71
40
 72
39
 73
45
 74
45
 0
VERTEX
 8
MESH_278_F0
 10
0
 20
0
 30
0
 70
128
 71
41
 72
40
 73
44
 74
44
 0
VERTEX
 8
MESH_278_F0
 10
0
 20
0
 30
0
 70
128
 71
42
 72
41
 73
43
 74
43
 0
VERTEX
 8
MESH_278_F0
 10
0
 20
0
 30
0
 70
128
 71
41
 72
44
 73
43
 74
43
 0
VERTEX
 8
MESH_278_F0
 10
0
 20
0
 30
0
 70
128
 71
26
 72
3
 73
2
 74
2
 0
VERTEX
 8
MESH_278_F0
 10
0
 20
0
 30
0
 70
128
 71
25
 72
4
 73
3
 74
3
 0
VERTEX
 8
MESH_278_F0
 10
0
 20
0
 30
0
 70
128
 71
24
 72
5
 73
4
 74
4
 0
VERTEX
 8
MESH_278_F0
 10
0
 20
0
 30
0
 70
128
 71
23
 72
6
 73
5
 74
5
 0
VERTEX
 8
MESH_278_F0
 10
0
 20
0
 30
0
 70
128
 71
22
 72
7
 73
6
 74
6
 0
VERTEX
 8
MESH_278_F0
 10
0
 20
0
 30
0
 70
128
 71
21
 72
8
 73
7
 74
7
 0
VERTEX
 8
MESH_278_F0
 10
0
 20
0
 30
0
 70
128
 71
20
 72
9
 73
8
 74
8
 0
VERTEX
 8
MESH_278_F0
 10
0
 20
0
 30
0
 70
128
 71
19
 72
10
 73
9
 74
9
 0
VERTEX
 8
MESH_278_F0
 10
0
 20
0
 30
0
 70
128
 71
18
 72
11
 73
10
 74
10
 0
VERTEX
 8
MESH_278_F0
 10
0
 20
0
 30
0
 70
128
 71
17
 72
12
 73
11
 74
11
 0
VERTEX
 8
MESH_278_F0
 10
0
 20
0
 30
0
 70
128
 71
16
 72
13
 73
12
 74
12
 0
VERTEX
 8
MESH_278_F0
 10
0
 20
0
 30
0
 70
128
 71
40
 72
45
 73
44
 74
44
 0
VERTEX
 8
MESH_278_F0
 10
0
 20
0
 30
0
 70
128
 71
39
 72
46
 73
45
 74
45
 0
VERTEX
 8
MESH_278_F0
 10
0
 20
0
 30
0
 70
128
 71
38
 72
47
 73
46
 74
46
 0
VERTEX
 8
MESH_278_F0
 10
0
 20
0
 30
0
 70
128
 71
37
 72
48
 73
47
 74
47
 0
VERTEX
 8
MESH_278_F0
 10
0
 20
0
 30
0
 70
128
 71
36
 72
49
 73
48
 74
48
 0
VERTEX
 8
MESH_278_F0
 10
0
 20
0
 30
0
 70
128
 71
35
 72
50
 73
49
 74
49
 0
VERTEX
 8
MESH_278_F0
 10
0
 20
0
 30
0
 70
128
 71
34
 72
51
 73
50
 74
50
 0
VERTEX
 8
MESH_278_F0
 10
0
 20
0
 30
0
 70
128
 71
33
 72
52
 73
51
 74
51
 0
VERTEX
 8
MESH_278_F0
 10
0
 20
0
 30
0
 70
128
 71
32
 72
53
 73
52
 74
52
 0
VERTEX
 8
MESH_278_F0
 10
0
 20
0
 30
0
 70
128
 71
31
 72
54
 73
53
 74
53
 0
VERTEX
 8
MESH_278_F0
 10
0
 20
0
 30
0
 70
128
 71
30
 72
55
 73
54
 74
54
 0
VERTEX
 8
MESH_278_F0
 10
0
 20
0
 30
0
 70
128
 71
29
 72
56
 73
55
 74
55
 0
VERTEX
 8
MESH_278_F0
 10
0
 20
0
 30
0
 70
128
 71
28
 72
1
 73
56
 74
56
 0
VERTEX
 8
MESH_278_F0
 10
0
 20
0
 30
0
 70
128
 71
1
 72
27
 73
2
 74
2
 0
SEQEND
 0
POLYLINE
 8
MESH_277_F0
 66
1
 10
0.0
 20
0.0
 30
0.0
 70
64
 71
35
 72
33
 0
VERTEX
 8
MESH_277_F0
 10
-245
 20
-21
 30
708
 70
192
 0
VERTEX
 8
MESH_277_F0
 10
-245
 20
-17.8
 30
708
 70
192
 0
VERTEX
 8
MESH_277_F0
 10
-244.9651
 20
-17.8
 30
708.8025
 70
192
 0
VERTEX
 8
MESH_277_F0
 10
-244.872
 20
-17.8
 30
709.5851
 70
192
 0
VERTEX
 8
MESH_277_F0
 10
-244.7198
 20
-17.8
 30
710.3502
 70
192
 0
VERTEX
 8
MESH_277_F0
 10
-244.5074
 20
-17.8
 30
711.0997
 70
192
 0
VERTEX
 8
MESH_277_F0
 10
-244.2361
 20
-17.8
 30
711.8307
 70
192
 0
VERTEX
 8
MESH_277_F0
 10
-243.9072
 20
-17.8
 30
712.5421
 70
192
 0
VERTEX
 8
MESH_277_F0
 10
-243.5233
 20
-17.8
 30
713.2278
 70
192
 0
VERTEX
 8
MESH_277_F0
 10
-243.0873
 20
-17.8
 30
713.8816
 70
192
 0
VERTEX
 8
MESH_277_F0
 10
-242.6028
 20
-17.8
 30
714.4969
 70
192
 0
VERTEX
 8
MESH_277_F0
 10
-242.0719
 20
-17.8
 30
715.0715
 70
192
 0
VERTEX
 8
MESH_277_F0
 10
-241.4974
 20
-17.8
 30
715.6024
 70
192
 0
VERTEX
 8
MESH_277_F0
 10
-240.8821
 20
-17.8
 30
716.087
 70
192
 0
VERTEX
 8
MESH_277_F0
 10
-240.2283
 20
-17.8
 30
716.523
 70
192
 0
VERTEX
 8
MESH_277_F0
 10
-239.5426
 20
-17.8
 30
716.9069
 70
192
 0
VERTEX
 8
MESH_277_F0
 10
-238.8311
 20
-17.8
 30
717.236
 70
192
 0
VERTEX
 8
MESH_277_F0
 10
-238.1
 20
-17.8
 30
717.5073
 70
192
 0
VERTEX
 8
MESH_277_F0
 10
-237.3505
 20
-17.8
 30
717.7197
 70
192
 0
VERTEX
 8
MESH_277_F0
 10
-236.5854
 20
-17.8
 30
717.872
 70
192
 0
VERTEX
 8
MESH_277_F0
 10
-235.8026
 20
-17.8
 30
717.9651
 70
192
 0
VERTEX
 8
MESH_277_F0
 10
-235
 20
-17.8
 30
718
 70
192
 0
VERTEX
 8
MESH_277_F0
 10
-235
 20
-21
 30
718
 70
192
 0
VERTEX
 8
MESH_277_F0
 10
-236.2054
 20
-21
 30
717.9271
 70
192
 0
VERTEX
 8
MESH_277_F0
 10
-237.3932
 20
-21
 30
717.7094
 70
192
 0
VERTEX
 8
MESH_277_F0
 10
-238.5461
 20
-21
 30
717.3502
 70
192
 0
VERTEX
 8
MESH_277_F0
 10
-239.6472
 20
-21
 30
716.8546
 70
192
 0
VERTEX
 8
MESH_277_F0
 10
-240.6806
 20
-21
 30
716.2298
 70
192
 0
VERTEX
 8
MESH_277_F0
 10
-241.6312
 20
-21
 30
715.4851
 70
192
 0
VERTEX
 8
MESH_277_F0
 10
-242.4851
 20
-21
 30
714.6312
 70
192
 0
VERTEX
 8
MESH_277_F0
 10
-243.2298
 20
-21
 30
713.6807
 70
192
 0
VERTEX
 8
MESH_277_F0
 10
-243.8546
 20
-21
 30
712.6472
 70
192
 0
VERTEX
 8
MESH_277_F0
 10
-244.3501
 20
-21
 30
711.546
 70
192
 0
VERTEX
 8
MESH_277_F0
 10
-244.7094
 20
-21
 30
710.3932
 70
192
 0
VERTEX
 8
MESH_277_F0
 10
-244.9271
 20
-21
 30
709.2053
 70
192
 0
VERTEX
 8
MESH_277_F0
 10
0
 20
0
 30
0
 70
128
 71
1
 72
3
 73
2
 74
2
 0
VERTEX
 8
MESH_277_F0
 10
0
 20
0
 30
0
 70
128
 71
35
 72
3
 73
1
 74
1
 0
VERTEX
 8
MESH_277_F0
 10
0
 20
0
 30
0
 70
128
 71
4
 72
3
 73
35
 74
35
 0
VERTEX
 8
MESH_277_F0
 10
0
 20
0
 30
0
 70
128
 71
5
 72
4
 73
34
 74
34
 0
VERTEX
 8
MESH_277_F0
 10
0
 20
0
 30
0
 70
128
 71
5
 72
34
 73
6
 74
6
 0
VERTEX
 8
MESH_277_F0
 10
0
 20
0
 30
0
 70
128
 71
34
 72
33
 73
6
 74
6
 0
VERTEX
 8
MESH_277_F0
 10
0
 20
0
 30
0
 70
128
 71
33
 72
7
 73
6
 74
6
 0
VERTEX
 8
MESH_277_F0
 10
0
 20
0
 30
0
 70
128
 71
32
 72
7
 73
33
 74
33
 0
VERTEX
 8
MESH_277_F0
 10
0
 20
0
 30
0
 70
128
 71
8
 72
7
 73
32
 74
32
 0
VERTEX
 8
MESH_277_F0
 10
0
 20
0
 30
0
 70
128
 71
8
 72
32
 73
9
 74
9
 0
VERTEX
 8
MESH_277_F0
 10
0
 20
0
 30
0
 70
128
 71
32
 72
31
 73
9
 74
9
 0
VERTEX
 8
MESH_277_F0
 10
0
 20
0
 30
0
 70
128
 71
31
 72
10
 73
9
 74
9
 0
VERTEX
 8
MESH_277_F0
 10
0
 20
0
 30
0
 70
128
 71
30
 72
10
 73
31
 74
31
 0
VERTEX
 8
MESH_277_F0
 10
0
 20
0
 30
0
 70
128
 71
11
 72
10
 73
30
 74
30
 0
VERTEX
 8
MESH_277_F0
 10
0
 20
0
 30
0
 70
128
 71
11
 72
30
 73
12
 74
12
 0
VERTEX
 8
MESH_277_F0
 10
0
 20
0
 30
0
 70
128
 71
30
 72
29
 73
12
 74
12
 0
VERTEX
 8
MESH_277_F0
 10
0
 20
0
 30
0
 70
128
 71
29
 72
13
 73
12
 74
12
 0
VERTEX
 8
MESH_277_F0
 10
0
 20
0
 30
0
 70
128
 71
28
 72
13
 73
29
 74
29
 0
VERTEX
 8
MESH_277_F0
 10
0
 20
0
 30
0
 70
128
 71
14
 72
13
 73
28
 74
28
 0
VERTEX
 8
MESH_277_F0
 10
0
 20
0
 30
0
 70
128
 71
14
 72
28
 73
15
 74
15
 0
VERTEX
 8
MESH_277_F0
 10
0
 20
0
 30
0
 70
128
 71
28
 72
27
 73
15
 74
15
 0
VERTEX
 8
MESH_277_F0
 10
0
 20
0
 30
0
 70
128
 71
27
 72
16
 73
15
 74
15
 0
VERTEX
 8
MESH_277_F0
 10
0
 20
0
 30
0
 70
128
 71
17
 72
16
 73
27
 74
27
 0
VERTEX
 8
MESH_277_F0
 10
0
 20
0
 30
0
 70
128
 71
18
 72
17
 73
26
 74
26
 0
VERTEX
 8
MESH_277_F0
 10
0
 20
0
 30
0
 70
128
 71
19
 72
18
 73
25
 74
25
 0
VERTEX
 8
MESH_277_F0
 10
0
 20
0
 30
0
 70
128
 71
19
 72
25
 73
20
 74
20
 0
VERTEX
 8
MESH_277_F0
 10
0
 20
0
 30
0
 70
128
 71
25
 72
24
 73
20
 74
20
 0
VERTEX
 8
MESH_277_F0
 10
0
 20
0
 30
0
 70
128
 71
24
 72
21
 73
20
 74
20
 0
VERTEX
 8
MESH_277_F0
 10
0
 20
0
 30
0
 70
128
 71
23
 72
21
 73
24
 74
24
 0
VERTEX
 8
MESH_277_F0
 10
0
 20
0
 30
0
 70
128
 71
22
 72
21
 73
23
 74
23
 0
VERTEX
 8
MESH_277_F0
 10
0
 20
0
 30
0
 70
128
 71
18
 72
26
 73
25
 74
25
 0
VERTEX
 8
MESH_277_F0
 10
0
 20
0
 30
0
 70
128
 71
17
 72
27
 73
26
 74
26
 0
VERTEX
 8
MESH_277_F0
 10
0
 20
0
 30
0
 70
128
 71
4
 72
35
 73
34
 74
34
 0
SEQEND
 0
POLYLINE
 8
MESH_276_F0
 66
1
 10
0.0
 20
0.0
 30
0.0
 70
64
 71
4
 72
2
 0
VERTEX
 8
MESH_276_F0
 10
-235
 20
-21
 30
718
 70
192
 0
VERTEX
 8
MESH_276_F0
 10
-235
 20
-17.8
 30
718
 70
192
 0
VERTEX
 8
MESH_276_F0
 10
235
 20
-17.8
 30
718
 70
192
 0
VERTEX
 8
MESH_276_F0
 10
235
 20
-21
 30
718
 70
192
 0
VERTEX
 8
MESH_276_F0
 10
0
 20
0
 30
0
 70
128
 71
1
 72
3
 73
2
 74
2
 0
VERTEX
 8
MESH_276_F0
 10
0
 20
0
 30
0
 70
128
 71
4
 72
3
 73
1
 74
1
 0
SEQEND
 0
POLYLINE
 8
MESH_275_F0
 66
1
 10
0.0
 20
0.0
 30
0.0
 70
64
 71
35
 72
33
 0
VERTEX
 8
MESH_275_F0
 10
235
 20
-21
 30
718
 70
192
 0
VERTEX
 8
MESH_275_F0
 10
235
 20
-17.8
 30
718
 70
192
 0
VERTEX
 8
MESH_275_F0
 10
235.8025
 20
-17.8
 30
717.9651
 70
192
 0
VERTEX
 8
MESH_275_F0
 10
236.5852
 20
-17.8
 30
717.872
 70
192
 0
VERTEX
 8
MESH_275_F0
 10
237.3502
 20
-17.8
 30
717.7198
 70
192
 0
VERTEX
 8
MESH_275_F0
 10
238.0997
 20
-17.8
 30
717.5074
 70
192
 0
VERTEX
 8
MESH_275_F0
 10
238.8307
 20
-17.8
 30
717.2361
 70
192
 0
VERTEX
 8
MESH_275_F0
 10
239.5421
 20
-17.8
 30
716.9072
 70
192
 0
VERTEX
 8
MESH_275_F0
 10
240.2278
 20
-17.8
 30
716.5233
 70
192
 0
VERTEX
 8
MESH_275_F0
 10
240.8816
 20
-17.8
 30
716.0873
 70
192
 0
VERTEX
 8
MESH_275_F0
 10
241.4969
 20
-17.8
 30
715.6028
 70
192
 0
VERTEX
 8
MESH_275_F0
 10
242.0715
 20
-17.8
 30
715.0719
 70
192
 0
VERTEX
 8
MESH_275_F0
 10
242.6024
 20
-17.8
 30
714.4974
 70
192
 0
VERTEX
 8
MESH_275_F0
 10
243.087
 20
-17.8
 30
713.882
 70
192
 0
VERTEX
 8
MESH_275_F0
 10
243.523
 20
-17.8
 30
713.2283
 70
192
 0
VERTEX
 8
MESH_275_F0
 10
243.9069
 20
-17.8
 30
712.5425
 70
192
 0
VERTEX
 8
MESH_275_F0
 10
244.236
 20
-17.8
 30
711.8311
 70
192
 0
VERTEX
 8
MESH_275_F0
 10
244.5073
 20
-17.8
 30
711.1
 70
192
 0
VERTEX
 8
MESH_275_F0
 10
244.7197
 20
-17.8
 30
710.3505
 70
192
 0
VERTEX
 8
MESH_275_F0
 10
244.872
 20
-17.8
 30
709.5854
 70
192
 0
VERTEX
 8
MESH_275_F0
 10
244.9651
 20
-17.8
 30
708.8026
 70
192
 0
VERTEX
 8
MESH_275_F0
 10
245
 20
-17.8
 30
708
 70
192
 0
VERTEX
 8
MESH_275_F0
 10
245
 20
-21
 30
708
 70
192
 0
VERTEX
 8
MESH_275_F0
 10
244.9271
 20
-21
 30
709.2053
 70
192
 0
VERTEX
 8
MESH_275_F0
 10
244.7094
 20
-21
 30
710.3932
 70
192
 0
VERTEX
 8
MESH_275_F0
 10
244.3501
 20
-21
 30
711.546
 70
192
 0
VERTEX
 8
MESH_275_F0
 10
243.8546
 20
-21
 30
712.6472
 70
192
 0
VERTEX
 8
MESH_275_F0
 10
243.2298
 20
-21
 30
713.6807
 70
192
 0
VERTEX
 8
MESH_275_F0
 10
242.4851
 20
-21
 30
714.6312
 70
192
 0
VERTEX
 8
MESH_275_F0
 10
241.6312
 20
-21
 30
715.4851
 70
192
 0
VERTEX
 8
MESH_275_F0
 10
240.6806
 20
-21
 30
716.2298
 70
192
 0
VERTEX
 8
MESH_275_F0
 10
239.6472
 20
-21
 30
716.8546
 70
192
 0
VERTEX
 8
MESH_275_F0
 10
238.5461
 20
-21
 30
717.3502
 70
192
 0
VERTEX
 8
MESH_275_F0
 10
237.3932
 20
-21
 30
717.7094
 70
192
 0
VERTEX
 8
MESH_275_F0
 10
236.2054
 20
-21
 30
717.9271
 70
192
 0
VERTEX
 8
MESH_275_F0
 10
0
 20
0
 30
0
 70
128
 71
1
 72
3
 73
2
 74
2
 0
VERTEX
 8
MESH_275_F0
 10
0
 20
0
 30
0
 70
128
 71
35
 72
3
 73
1
 74
1
 0
VERTEX
 8
MESH_275_F0
 10
0
 20
0
 30
0
 70
128
 71
4
 72
3
 73
35
 74
35
 0
VERTEX
 8
MESH_275_F0
 10
0
 20
0
 30
0
 70
128
 71
5
 72
4
 73
34
 74
34
 0
VERTEX
 8
MESH_275_F0
 10
0
 20
0
 30
0
 70
128
 71
5
 72
34
 73
6
 74
6
 0
VERTEX
 8
MESH_275_F0
 10
0
 20
0
 30
0
 70
128
 71
34
 72
33
 73
6
 74
6
 0
VERTEX
 8
MESH_275_F0
 10
0
 20
0
 30
0
 70
128
 71
33
 72
7
 73
6
 74
6
 0
VERTEX
 8
MESH_275_F0
 10
0
 20
0
 30
0
 70
128
 71
32
 72
7
 73
33
 74
33
 0
VERTEX
 8
MESH_275_F0
 10
0
 20
0
 30
0
 70
128
 71
8
 72
7
 73
32
 74
32
 0
VERTEX
 8
MESH_275_F0
 10
0
 20
0
 30
0
 70
128
 71
8
 72
32
 73
9
 74
9
 0
VERTEX
 8
MESH_275_F0
 10
0
 20
0
 30
0
 70
128
 71
32
 72
31
 73
9
 74
9
 0
VERTEX
 8
MESH_275_F0
 10
0
 20
0
 30
0
 70
128
 71
31
 72
10
 73
9
 74
9
 0
VERTEX
 8
MESH_275_F0
 10
0
 20
0
 30
0
 70
128
 71
30
 72
10
 73
31
 74
31
 0
VERTEX
 8
MESH_275_F0
 10
0
 20
0
 30
0
 70
128
 71
11
 72
10
 73
30
 74
30
 0
VERTEX
 8
MESH_275_F0
 10
0
 20
0
 30
0
 70
128
 71
11
 72
30
 73
12
 74
12
 0
VERTEX
 8
MESH_275_F0
 10
0
 20
0
 30
0
 70
128
 71
30
 72
29
 73
12
 74
12
 0
VERTEX
 8
MESH_275_F0
 10
0
 20
0
 30
0
 70
128
 71
29
 72
13
 73
12
 74
12
 0
VERTEX
 8
MESH_275_F0
 10
0
 20
0
 30
0
 70
128
 71
28
 72
13
 73
29
 74
29
 0
VERTEX
 8
MESH_275_F0
 10
0
 20
0
 30
0
 70
128
 71
14
 72
13
 73
28
 74
28
 0
VERTEX
 8
MESH_275_F0
 10
0
 20
0
 30
0
 70
128
 71
14
 72
28
 73
15
 74
15
 0
VERTEX
 8
MESH_275_F0
 10
0
 20
0
 30
0
 70
128
 71
28
 72
27
 73
15
 74
15
 0
VERTEX
 8
MESH_275_F0
 10
0
 20
0
 30
0
 70
128
 71
27
 72
16
 73
15
 74
15
 0
VERTEX
 8
MESH_275_F0
 10
0
 20
0
 30
0
 70
128
 71
17
 72
16
 73
27
 74
27
 0
VERTEX
 8
MESH_275_F0
 10
0
 20
0
 30
0
 70
128
 71
18
 72
17
 73
26
 74
26
 0
VERTEX
 8
MESH_275_F0
 10
0
 20
0
 30
0
 70
128
 71
19
 72
18
 73
25
 74
25
 0
VERTEX
 8
MESH_275_F0
 10
0
 20
0
 30
0
 70
128
 71
19
 72
25
 73
20
 74
20
 0
VERTEX
 8
MESH_275_F0
 10
0
 20
0
 30
0
 70
128
 71
25
 72
24
 73
20
 74
20
 0
VERTEX
 8
MESH_275_F0
 10
0
 20
0
 30
0
 70
128
 71
24
 72
21
 73
20
 74
20
 0
VERTEX
 8
MESH_275_F0
 10
0
 20
0
 30
0
 70
128
 71
23
 72
21
 73
24
 74
24
 0
VERTEX
 8
MESH_275_F0
 10
0
 20
0
 30
0
 70
128
 71
22
 72
21
 73
23
 74
23
 0
VERTEX
 8
MESH_275_F0
 10
0
 20
0
 30
0
 70
128
 71
18
 72
26
 73
25
 74
25
 0
VERTEX
 8
MESH_275_F0
 10
0
 20
0
 30
0
 70
128
 71
17
 72
27
 73
26
 74
26
 0
VERTEX
 8
MESH_275_F0
 10
0
 20
0
 30
0
 70
128
 71
4
 72
35
 73
34
 74
34
 0
SEQEND
 0
POLYLINE
 8
MESH_274_F0
 66
1
 10
0.0
 20
0.0
 30
0.0
 70
64
 71
4
 72
2
 0
VERTEX
 8
MESH_274_F0
 10
245
 20
-21
 30
708
 70
192
 0
VERTEX
 8
MESH_274_F0
 10
245
 20
-17.8
 30
708
 70
192
 0
VERTEX
 8
MESH_274_F0
 10
245
 20
-17.8
 30
370
 70
192
 0
VERTEX
 8
MESH_274_F0
 10
245
 20
-21
 30
370
 70
192
 0
VERTEX
 8
MESH_274_F0
 10
0
 20
0
 30
0
 70
128
 71
4
 72
2
 73
1
 74
1
 0
VERTEX
 8
MESH_274_F0
 10
0
 20
0
 30
0
 70
128
 71
3
 72
2
 73
4
 74
4
 0
SEQEND
 0
POLYLINE
 8
MESH_273_F0
 66
1
 10
0.0
 20
0.0
 30
0.0
 70
64
 71
35
 72
33
 0
VERTEX
 8
MESH_273_F0
 10
245
 20
-21
 30
370
 70
192
 0
VERTEX
 8
MESH_273_F0
 10
245
 20
-17.8
 30
370
 70
192
 0
VERTEX
 8
MESH_273_F0
 10
244.9651
 20
-17.8
 30
369.1975
 70
192
 0
VERTEX
 8
MESH_273_F0
 10
244.872
 20
-17.8
 30
368.4148
 70
192
 0
VERTEX
 8
MESH_273_F0
 10
244.7198
 20
-17.8
 30
367.6498
 70
192
 0
VERTEX
 8
MESH_273_F0
 10
244.5074
 20
-17.8
 30
366.9004
 70
192
 0
VERTEX
 8
MESH_273_F0
 10
244.2361
 20
-17.8
 30
366.1693
 70
192
 0
VERTEX
 8
MESH_273_F0
 10
243.9072
 20
-17.8
 30
365.4579
 70
192
 0
VERTEX
 8
MESH_273_F0
 10
243.5233
 20
-17.8
 30
364.7722
 70
192
 0
VERTEX
 8
MESH_273_F0
 10
243.0873
 20
-17.8
 30
364.1184
 70
192
 0
VERTEX
 8
MESH_273_F0
 10
242.6028
 20
-17.8
 30
363.5031
 70
192
 0
VERTEX
 8
MESH_273_F0
 10
242.0719
 20
-17.8
 30
362.9285
 70
192
 0
VERTEX
 8
MESH_273_F0
 10
241.4974
 20
-17.8
 30
362.3976
 70
192
 0
VERTEX
 8
MESH_273_F0
 10
240.8821
 20
-17.8
 30
361.913
 70
192
 0
VERTEX
 8
MESH_273_F0
 10
240.2283
 20
-17.8
 30
361.477
 70
192
 0
VERTEX
 8
MESH_273_F0
 10
239.5426
 20
-17.8
 30
361.093
 70
192
 0
VERTEX
 8
MESH_273_F0
 10
238.8311
 20
-17.8
 30
360.764
 70
192
 0
VERTEX
 8
MESH_273_F0
 10
238.1
 20
-17.8
 30
360.4927
 70
192
 0
VERTEX
 8
MESH_273_F0
 10
237.3505
 20
-17.8
 30
360.2803
 70
192
 0
VERTEX
 8
MESH_273_F0
 10
236.5854
 20
-17.8
 30
360.128
 70
192
 0
VERTEX
 8
MESH_273_F0
 10
235.8026
 20
-17.8
 30
360.0349
 70
192
 0
VERTEX
 8
MESH_273_F0
 10
235
 20
-17.8
 30
360
 70
192
 0
VERTEX
 8
MESH_273_F0
 10
235
 20
-21
 30
360
 70
192
 0
VERTEX
 8
MESH_273_F0
 10
236.2054
 20
-21
 30
360.0729
 70
192
 0
VERTEX
 8
MESH_273_F0
 10
237.3932
 20
-21
 30
360.2906
 70
192
 0
VERTEX
 8
MESH_273_F0
 10
238.5461
 20
-21
 30
360.6498
 70
192
 0
VERTEX
 8
MESH_273_F0
 10
239.6472
 20
-21
 30
361.1454
 70
192
 0
VERTEX
 8
MESH_273_F0
 10
240.6806
 20
-21
 30
361.7702
 70
192
 0
VERTEX
 8
MESH_273_F0
 10
241.6312
 20
-21
 30
362.5149
 70
192
 0
VERTEX
 8
MESH_273_F0
 10
242.4851
 20
-21
 30
363.3688
 70
192
 0
VERTEX
 8
MESH_273_F0
 10
243.2298
 20
-21
 30
364.3193
 70
192
 0
VERTEX
 8
MESH_273_F0
 10
243.8546
 20
-21
 30
365.3528
 70
192
 0
VERTEX
 8
MESH_273_F0
 10
244.3501
 20
-21
 30
366.4539
 70
192
 0
VERTEX
 8
MESH_273_F0
 10
244.7094
 20
-21
 30
367.6068
 70
192
 0
VERTEX
 8
MESH_273_F0
 10
244.9271
 20
-21
 30
368.7946
 70
192
 0
VERTEX
 8
MESH_273_F0
 10
0
 20
0
 30
0
 70
128
 71
1
 72
3
 73
2
 74
2
 0
VERTEX
 8
MESH_273_F0
 10
0
 20
0
 30
0
 70
128
 71
35
 72
3
 73
1
 74
1
 0
VERTEX
 8
MESH_273_F0
 10
0
 20
0
 30
0
 70
128
 71
4
 72
3
 73
35
 74
35
 0
VERTEX
 8
MESH_273_F0
 10
0
 20
0
 30
0
 70
128
 71
5
 72
4
 73
34
 74
34
 0
VERTEX
 8
MESH_273_F0
 10
0
 20
0
 30
0
 70
128
 71
5
 72
34
 73
6
 74
6
 0
VERTEX
 8
MESH_273_F0
 10
0
 20
0
 30
0
 70
128
 71
34
 72
33
 73
6
 74
6
 0
VERTEX
 8
MESH_273_F0
 10
0
 20
0
 30
0
 70
128
 71
33
 72
7
 73
6
 74
6
 0
VERTEX
 8
MESH_273_F0
 10
0
 20
0
 30
0
 70
128
 71
32
 72
7
 73
33
 74
33
 0
VERTEX
 8
MESH_273_F0
 10
0
 20
0
 30
0
 70
128
 71
8
 72
7
 73
32
 74
32
 0
VERTEX
 8
MESH_273_F0
 10
0
 20
0
 30
0
 70
128
 71
8
 72
32
 73
9
 74
9
 0
VERTEX
 8
MESH_273_F0
 10
0
 20
0
 30
0
 70
128
 71
32
 72
31
 73
9
 74
9
 0
VERTEX
 8
MESH_273_F0
 10
0
 20
0
 30
0
 70
128
 71
31
 72
10
 73
9
 74
9
 0
VERTEX
 8
MESH_273_F0
 10
0
 20
0
 30
0
 70
128
 71
30
 72
10
 73
31
 74
31
 0
VERTEX
 8
MESH_273_F0
 10
0
 20
0
 30
0
 70
128
 71
11
 72
10
 73
30
 74
30
 0
VERTEX
 8
MESH_273_F0
 10
0
 20
0
 30
0
 70
128
 71
11
 72
30
 73
12
 74
12
 0
VERTEX
 8
MESH_273_F0
 10
0
 20
0
 30
0
 70
128
 71
30
 72
29
 73
12
 74
12
 0
VERTEX
 8
MESH_273_F0
 10
0
 20
0
 30
0
 70
128
 71
29
 72
13
 73
12
 74
12
 0
VERTEX
 8
MESH_273_F0
 10
0
 20
0
 30
0
 70
128
 71
28
 72
13
 73
29
 74
29
 0
VERTEX
 8
MESH_273_F0
 10
0
 20
0
 30
0
 70
128
 71
14
 72
13
 73
28
 74
28
 0
VERTEX
 8
MESH_273_F0
 10
0
 20
0
 30
0
 70
128
 71
14
 72
28
 73
15
 74
15
 0
VERTEX
 8
MESH_273_F0
 10
0
 20
0
 30
0
 70
128
 71
28
 72
27
 73
15
 74
15
 0
VERTEX
 8
MESH_273_F0
 10
0
 20
0
 30
0
 70
128
 71
27
 72
16
 73
15
 74
15
 0
VERTEX
 8
MESH_273_F0
 10
0
 20
0
 30
0
 70
128
 71
17
 72
16
 73
27
 74
27
 0
VERTEX
 8
MESH_273_F0
 10
0
 20
0
 30
0
 70
128
 71
18
 72
17
 73
26
 74
26
 0
VERTEX
 8
MESH_273_F0
 10
0
 20
0
 30
0
 70
128
 71
19
 72
18
 73
25
 74
25
 0
VERTEX
 8
MESH_273_F0
 10
0
 20
0
 30
0
 70
128
 71
19
 72
25
 73
20
 74
20
 0
VERTEX
 8
MESH_273_F0
 10
0
 20
0
 30
0
 70
128
 71
25
 72
24
 73
20
 74
20
 0
VERTEX
 8
MESH_273_F0
 10
0
 20
0
 30
0
 70
128
 71
24
 72
21
 73
20
 74
20
 0
VERTEX
 8
MESH_273_F0
 10
0
 20
0
 30
0
 70
128
 71
23
 72
21
 73
24
 74
24
 0
VERTEX
 8
MESH_273_F0
 10
0
 20
0
 30
0
 70
128
 71
22
 72
21
 73
23
 74
23
 0
VERTEX
 8
MESH_273_F0
 10
0
 20
0
 30
0
 70
128
 71
18
 72
26
 73
25
 74
25
 0
VERTEX
 8
MESH_273_F0
 10
0
 20
0
 30
0
 70
128
 71
17
 72
27
 73
26
 74
26
 0
VERTEX
 8
MESH_273_F0
 10
0
 20
0
 30
0
 70
128
 71
4
 72
35
 73
34
 74
34
 0
SEQEND
 0
POLYLINE
 8
MESH_272_F0
 66
1
 10
0.0
 20
0.0
 30
0.0
 70
64
 71
4
 72
2
 0
VERTEX
 8
MESH_272_F0
 10
235
 20
-21
 30
360
 70
192
 0
VERTEX
 8
MESH_272_F0
 10
235
 20
-17.8
 30
360
 70
192
 0
VERTEX
 8
MESH_272_F0
 10
-235
 20
-17.8
 30
360
 70
192
 0
VERTEX
 8
MESH_272_F0
 10
-235
 20
-21
 30
360
 70
192
 0
VERTEX
 8
MESH_272_F0
 10
0
 20
0
 30
0
 70
128
 71
1
 72
3
 73
2
 74
2
 0
VERTEX
 8
MESH_272_F0
 10
0
 20
0
 30
0
 70
128
 71
4
 72
3
 73
1
 74
1
 0
SEQEND
 0
POLYLINE
 8
MESH_271_F0
 66
1
 10
0.0
 20
0.0
 30
0.0
 70
64
 71
35
 72
33
 0
VERTEX
 8
MESH_271_F0
 10
-235
 20
-21
 30
360
 70
192
 0
VERTEX
 8
MESH_271_F0
 10
-235
 20
-17.8
 30
360
 70
192
 0
VERTEX
 8
MESH_271_F0
 10
-235.8025
 20
-17.8
 30
360.0349
 70
192
 0
VERTEX
 8
MESH_271_F0
 10
-236.5852
 20
-17.8
 30
360.1279
 70
192
 0
VERTEX
 8
MESH_271_F0
 10
-237.3502
 20
-17.8
 30
360.2802
 70
192
 0
VERTEX
 8
MESH_271_F0
 10
-238.0997
 20
-17.8
 30
360.4926
 70
192
 0
VERTEX
 8
MESH_271_F0
 10
-238.8307
 20
-17.8
 30
360.7639
 70
192
 0
VERTEX
 8
MESH_271_F0
 10
-239.5421
 20
-17.8
 30
361.0928
 70
192
 0
VERTEX
 8
MESH_271_F0
 10
-240.2278
 20
-17.8
 30
361.4767
 70
192
 0
VERTEX
 8
MESH_271_F0
 10
-240.8816
 20
-17.8
 30
361.9127
 70
192
 0
VERTEX
 8
MESH_271_F0
 10
-241.4969
 20
-17.8
 30
362.3972
 70
192
 0
VERTEX
 8
MESH_271_F0
 10
-242.0715
 20
-17.8
 30
362.9281
 70
192
 0
VERTEX
 8
MESH_271_F0
 10
-242.6024
 20
-17.8
 30
363.5026
 70
192
 0
VERTEX
 8
MESH_271_F0
 10
-243.087
 20
-17.8
 30
364.1179
 70
192
 0
VERTEX
 8
MESH_271_F0
 10
-243.523
 20
-17.8
 30
364.7717
 70
192
 0
VERTEX
 8
MESH_271_F0
 10
-243.9069
 20
-17.8
 30
365.4574
 70
192
 0
VERTEX
 8
MESH_271_F0
 10
-244.236
 20
-17.8
 30
366.1689
 70
192
 0
VERTEX
 8
MESH_271_F0
 10
-244.5073
 20
-17.8
 30
366.9
 70
192
 0
VERTEX
 8
MESH_271_F0
 10
-244.7197
 20
-17.8
 30
367.6495
 70
192
 0
VERTEX
 8
MESH_271_F0
 10
-244.872
 20
-17.8
 30
368.4146
 70
192
 0
VERTEX
 8
MESH_271_F0
 10
-244.9651
 20
-17.8
 30
369.1974
 70
192
 0
VERTEX
 8
MESH_271_F0
 10
-245
 20
-17.8
 30
370
 70
192
 0
VERTEX
 8
MESH_271_F0
 10
-245
 20
-21
 30
370
 70
192
 0
VERTEX
 8
MESH_271_F0
 10
-244.9271
 20
-21
 30
368.7946
 70
192
 0
VERTEX
 8
MESH_271_F0
 10
-244.7094
 20
-21
 30
367.6068
 70
192
 0
VERTEX
 8
MESH_271_F0
 10
-244.3501
 20
-21
 30
366.4539
 70
192
 0
VERTEX
 8
MESH_271_F0
 10
-243.8546
 20
-21
 30
365.3528
 70
192
 0
VERTEX
 8
MESH_271_F0
 10
-243.2298
 20
-21
 30
364.3193
 70
192
 0
VERTEX
 8
MESH_271_F0
 10
-242.4851
 20
-21
 30
363.3688
 70
192
 0
VERTEX
 8
MESH_271_F0
 10
-241.6312
 20
-21
 30
362.5149
 70
192
 0
VERTEX
 8
MESH_271_F0
 10
-240.6806
 20
-21
 30
361.7702
 70
192
 0
VERTEX
 8
MESH_271_F0
 10
-239.6472
 20
-21
 30
361.1454
 70
192
 0
VERTEX
 8
MESH_271_F0
 10
-238.5461
 20
-21
 30
360.6498
 70
192
 0
VERTEX
 8
MESH_271_F0
 10
-237.3932
 20
-21
 30
360.2906
 70
192
 0
VERTEX
 8
MESH_271_F0
 10
-236.2054
 20
-21
 30
360.0729
 70
192
 0
VERTEX
 8
MESH_271_F0
 10
0
 20
0
 30
0
 70
128
 71
1
 72
3
 73
2
 74
2
 0
VERTEX
 8
MESH_271_F0
 10
0
 20
0
 30
0
 70
128
 71
35
 72
3
 73
1
 74
1
 0
VERTEX
 8
MESH_271_F0
 10
0
 20
0
 30
0
 70
128
 71
4
 72
3
 73
35
 74
35
 0
VERTEX
 8
MESH_271_F0
 10
0
 20
0
 30
0
 70
128
 71
5
 72
4
 73
34
 74
34
 0
VERTEX
 8
MESH_271_F0
 10
0
 20
0
 30
0
 70
128
 71
5
 72
34
 73
6
 74
6
 0
VERTEX
 8
MESH_271_F0
 10
0
 20
0
 30
0
 70
128
 71
34
 72
33
 73
6
 74
6
 0
VERTEX
 8
MESH_271_F0
 10
0
 20
0
 30
0
 70
128
 71
33
 72
7
 73
6
 74
6
 0
VERTEX
 8
MESH_271_F0
 10
0
 20
0
 30
0
 70
128
 71
32
 72
7
 73
33
 74
33
 0
VERTEX
 8
MESH_271_F0
 10
0
 20
0
 30
0
 70
128
 71
8
 72
7
 73
32
 74
32
 0
VERTEX
 8
MESH_271_F0
 10
0
 20
0
 30
0
 70
128
 71
8
 72
32
 73
9
 74
9
 0
VERTEX
 8
MESH_271_F0
 10
0
 20
0
 30
0
 70
128
 71
32
 72
31
 73
9
 74
9
 0
VERTEX
 8
MESH_271_F0
 10
0
 20
0
 30
0
 70
128
 71
31
 72
10
 73
9
 74
9
 0
VERTEX
 8
MESH_271_F0
 10
0
 20
0
 30
0
 70
128
 71
30
 72
10
 73
31
 74
31
 0
VERTEX
 8
MESH_271_F0
 10
0
 20
0
 30
0
 70
128
 71
11
 72
10
 73
30
 74
30
 0
VERTEX
 8
MESH_271_F0
 10
0
 20
0
 30
0
 70
128
 71
11
 72
30
 73
12
 74
12
 0
VERTEX
 8
MESH_271_F0
 10
0
 20
0
 30
0
 70
128
 71
30
 72
29
 73
12
 74
12
 0
VERTEX
 8
MESH_271_F0
 10
0
 20
0
 30
0
 70
128
 71
29
 72
13
 73
12
 74
12
 0
VERTEX
 8
MESH_271_F0
 10
0
 20
0
 30
0
 70
128
 71
28
 72
13
 73
29
 74
29
 0
VERTEX
 8
MESH_271_F0
 10
0
 20
0
 30
0
 70
128
 71
14
 72
13
 73
28
 74
28
 0
VERTEX
 8
MESH_271_F0
 10
0
 20
0
 30
0
 70
128
 71
14
 72
28
 73
15
 74
15
 0
VERTEX
 8
MESH_271_F0
 10
0
 20
0
 30
0
 70
128
 71
28
 72
27
 73
15
 74
15
 0
VERTEX
 8
MESH_271_F0
 10
0
 20
0
 30
0
 70
128
 71
27
 72
16
 73
15
 74
15
 0
VERTEX
 8
MESH_271_F0
 10
0
 20
0
 30
0
 70
128
 71
17
 72
16
 73
27
 74
27
 0
VERTEX
 8
MESH_271_F0
 10
0
 20
0
 30
0
 70
128
 71
18
 72
17
 73
26
 74
26
 0
VERTEX
 8
MESH_271_F0
 10
0
 20
0
 30
0
 70
128
 71
19
 72
18
 73
25
 74
25
 0
VERTEX
 8
MESH_271_F0
 10
0
 20
0
 30
0
 70
128
 71
19
 72
25
 73
20
 74
20
 0
VERTEX
 8
MESH_271_F0
 10
0
 20
0
 30
0
 70
128
 71
25
 72
24
 73
20
 74
20
 0
VERTEX
 8
MESH_271_F0
 10
0
 20
0
 30
0
 70
128
 71
24
 72
21
 73
20
 74
20
 0
VERTEX
 8
MESH_271_F0
 10
0
 20
0
 30
0
 70
128
 71
23
 72
21
 73
24
 74
24
 0
VERTEX
 8
MESH_271_F0
 10
0
 20
0
 30
0
 70
128
 71
22
 72
21
 73
23
 74
23
 0
VERTEX
 8
MESH_271_F0
 10
0
 20
0
 30
0
 70
128
 71
18
 72
26
 73
25
 74
25
 0
VERTEX
 8
MESH_271_F0
 10
0
 20
0
 30
0
 70
128
 71
17
 72
27
 73
26
 74
26
 0
VERTEX
 8
MESH_271_F0
 10
0
 20
0
 30
0
 70
128
 71
4
 72
35
 73
34
 74
34
 0
SEQEND
 0
POLYLINE
 8
MESH_270_F0
 66
1
 10
0.0
 20
0.0
 30
0.0
 70
64
 71
4
 72
2
 0
VERTEX
 8
MESH_270_F0
 10
-245
 20
-21
 30
370
 70
192
 0
VERTEX
 8
MESH_270_F0
 10
-245
 20
-17.8
 30
370
 70
192
 0
VERTEX
 8
MESH_270_F0
 10
-245
 20
-17.8
 30
708
 70
192
 0
VERTEX
 8
MESH_270_F0
 10
-245
 20
-21
 30
708
 70
192
 0
VERTEX
 8
MESH_270_F0
 10
0
 20
0
 30
0
 70
128
 71
4
 72
2
 73
1
 74
1
 0
VERTEX
 8
MESH_270_F0
 10
0
 20
0
 30
0
 70
128
 71
3
 72
2
 73
4
 74
4
 0
SEQEND
 0
POLYLINE
 8
MESH_269_F0
 66
1
 10
0.0
 20
0.0
 30
0.0
 70
64
 71
4
 72
2
 0
VERTEX
 8
MESH_269_F0
 10
-307
 20
0
 30
820.0001
 70
192
 0
VERTEX
 8
MESH_269_F0
 10
307
 20
0
 30
820.0001
 70
192
 0
VERTEX
 8
MESH_269_F0
 10
307
 20
-17.5
 30
820.0001
 70
192
 0
VERTEX
 8
MESH_269_F0
 10
-307
 20
-17.5
 30
820.0001
 70
192
 0
VERTEX
 8
MESH_269_F0
 10
0
 20
0
 30
0
 70
128
 71
1
 72
3
 73
2
 74
2
 0
VERTEX
 8
MESH_269_F0
 10
0
 20
0
 30
0
 70
128
 71
4
 72
3
 73
1
 74
1
 0
SEQEND
 0
POLYLINE
 8
MESH_268_F0
 66
1
 10
0.0
 20
0.0
 30
0.0
 70
64
 71
4
 72
2
 0
VERTEX
 8
MESH_268_F0
 10
307
 20
-17.5
 30
820.0001
 70
192
 0
VERTEX
 8
MESH_268_F0
 10
307
 20
-17.5
 30
819.4999
 70
192
 0
VERTEX
 8
MESH_268_F0
 10
-307
 20
-17.5
 30
819.4999
 70
192
 0
VERTEX
 8
MESH_268_F0
 10
-307
 20
-17.5
 30
820.0001
 70
192
 0
VERTEX
 8
MESH_268_F0
 10
0
 20
0
 30
0
 70
128
 71
4
 72
2
 73
1
 74
1
 0
VERTEX
 8
MESH_268_F0
 10
0
 20
0
 30
0
 70
128
 71
3
 72
2
 73
4
 74
4
 0
SEQEND
 0
POLYLINE
 8
MESH_267_F0
 66
1
 10
0.0
 20
0.0
 30
0.0
 70
64
 71
4
 72
2
 0
VERTEX
 8
MESH_267_F0
 10
307
 20
0
 30
68
 70
192
 0
VERTEX
 8
MESH_267_F0
 10
-307
 20
0
 30
68
 70
192
 0
VERTEX
 8
MESH_267_F0
 10
-307
 20
-17.8
 30
68
 70
192
 0
VERTEX
 8
MESH_267_F0
 10
307
 20
-17.8
 30
68
 70
192
 0
VERTEX
 8
MESH_267_F0
 10
0
 20
0
 30
0
 70
128
 71
1
 72
3
 73
2
 74
2
 0
VERTEX
 8
MESH_267_F0
 10
0
 20
0
 30
0
 70
128
 71
4
 72
3
 73
1
 74
1
 0
SEQEND
 0
POLYLINE
 8
MESH_266_F0
 66
1
 10
0.0
 20
0.0
 30
0.0
 70
64
 71
10
 72
8
 0
VERTEX
 8
MESH_266_F0
 10
307
 20
0
 30
68
 70
192
 0
VERTEX
 8
MESH_266_F0
 10
307
 20
-17.8
 30
68
 70
192
 0
VERTEX
 8
MESH_266_F0
 10
307
 20
-17.8
 30
740
 70
192
 0
VERTEX
 8
MESH_266_F0
 10
307
 20
-21
 30
740
 70
192
 0
VERTEX
 8
MESH_266_F0
 10
307
 20
-21
 30
779.5
 70
192
 0
VERTEX
 8
MESH_266_F0
 10
307
 20
-8.5
 30
779.5
 70
192
 0
VERTEX
 8
MESH_266_F0
 10
307
 20
-8.5
 30
819.4999
 70
192
 0
VERTEX
 8
MESH_266_F0
 10
307
 20
-17.5
 30
819.4999
 70
192
 0
VERTEX
 8
MESH_266_F0
 10
307
 20
-17.5
 30
820.0001
 70
192
 0
VERTEX
 8
MESH_266_F0
 10
307
 20
0
 30
820.0001
 70
192
 0
VERTEX
 8
MESH_266_F0
 10
0
 20
0
 30
0
 70
128
 71
6
 72
1
 73
10
 74
10
 0
VERTEX
 8
MESH_266_F0
 10
0
 20
0
 30
0
 70
128
 71
6
 72
10
 73
7
 74
7
 0
VERTEX
 8
MESH_266_F0
 10
0
 20
0
 30
0
 70
128
 71
10
 72
9
 73
7
 74
7
 0
VERTEX
 8
MESH_266_F0
 10
0
 20
0
 30
0
 70
128
 71
9
 72
8
 73
7
 74
7
 0
VERTEX
 8
MESH_266_F0
 10
0
 20
0
 30
0
 70
128
 71
6
 72
2
 73
1
 74
1
 0
VERTEX
 8
MESH_266_F0
 10
0
 20
0
 30
0
 70
128
 71
3
 72
2
 73
6
 74
6
 0
VERTEX
 8
MESH_266_F0
 10
0
 20
0
 30
0
 70
128
 71
4
 72
3
 73
5
 74
5
 0
VERTEX
 8
MESH_266_F0
 10
0
 20
0
 30
0
 70
128
 71
3
 72
6
 73
5
 74
5
 0
SEQEND
 0
POLYLINE
 8
MESH_265_F0
 66
1
 10
0.0
 20
0.0
 30
0.0
 70
64
 71
4
 72
2
 0
VERTEX
 8
MESH_265_F0
 10
-293
 20
-17.8
 30
779.5
 70
192
 0
VERTEX
 8
MESH_265_F0
 10
-293
 20
-17.8
 30
740
 70
192
 0
VERTEX
 8
MESH_265_F0
 10
-293
 20
-21
 30
740
 70
192
 0
VERTEX
 8
MESH_265_F0
 10
-293
 20
-21
 30
779.5
 70
192
 0
VERTEX
 8
MESH_265_F0
 10
0
 20
0
 30
0
 70
128
 71
1
 72
3
 73
2
 74
2
 0
VERTEX
 8
MESH_265_F0
 10
0
 20
0
 30
0
 70
128
 71
4
 72
3
 73
1
 74
1
 0
SEQEND
 0
POLYLINE
 8
MESH_264_F0
 66
1
 10
0.0
 20
0.0
 30
0.0
 70
64
 71
4
 72
2
 0
VERTEX
 8
MESH_264_F0
 10
-293
 20
-21
 30
779.5
 70
192
 0
VERTEX
 8
MESH_264_F0
 10
-293
 20
-21
 30
740
 70
192
 0
VERTEX
 8
MESH_264_F0
 10
-307
 20
-21
 30
740
 70
192
 0
VERTEX
 8
MESH_264_F0
 10
-307
 20
-21
 30
779.5
 70
192
 0
VERTEX
 8
MESH_264_F0
 10
0
 20
0
 30
0
 70
128
 71
4
 72
2
 73
1
 74
1
 0
VERTEX
 8
MESH_264_F0
 10
0
 20
0
 30
0
 70
128
 71
3
 72
2
 73
4
 74
4
 0
SEQEND
 0
POLYLINE
 8
MESH_263_F0
 66
1
 10
0.0
 20
0.0
 30
0.0
 70
64
 71
4
 72
2
 0
VERTEX
 8
MESH_263_F0
 10
-307
 20
-21
 30
740
 70
192
 0
VERTEX
 8
MESH_263_F0
 10
-293
 20
-21
 30
740
 70
192
 0
VERTEX
 8
MESH_263_F0
 10
-293
 20
-17.8
 30
740
 70
192
 0
VERTEX
 8
MESH_263_F0
 10
-307
 20
-17.8
 30
740
 70
192
 0
VERTEX
 8
MESH_263_F0
 10
0
 20
0
 30
0
 70
128
 71
4
 72
2
 73
1
 74
1
 0
VERTEX
 8
MESH_263_F0
 10
0
 20
0
 30
0
 70
128
 71
3
 72
2
 73
4
 74
4
 0
SEQEND
 0
POLYLINE
 8
MESH_262_F0
 66
1
 10
0.0
 20
0.0
 30
0.0
 70
64
 71
92
 72
92
 0
VERTEX
 8
MESH_262_F0
 10
-307
 20
-17.8
 30
68
 70
192
 0
VERTEX
 8
MESH_262_F0
 10
-307
 20
-17.8
 30
740
 70
192
 0
VERTEX
 8
MESH_262_F0
 10
-293
 20
-17.8
 30
740
 70
192
 0
VERTEX
 8
MESH_262_F0
 10
-293
 20
-17.8
 30
779.5
 70
192
 0
VERTEX
 8
MESH_262_F0
 10
293
 20
-17.8
 30
779.5
 70
192
 0
VERTEX
 8
MESH_262_F0
 10
293
 20
-17.8
 30
740
 70
192
 0
VERTEX
 8
MESH_262_F0
 10
307
 20
-17.8
 30
740
 70
192
 0
VERTEX
 8
MESH_262_F0
 10
307
 20
-17.8
 30
68
 70
192
 0
VERTEX
 8
MESH_262_F0
 10
-245
 20
-17.8
 30
708
 70
192
 0
VERTEX
 8
MESH_262_F0
 10
-245
 20
-17.8
 30
370
 70
192
 0
VERTEX
 8
MESH_262_F0
 10
-244.9651
 20
-17.8
 30
369.1974
 70
192
 0
VERTEX
 8
MESH_262_F0
 10
-244.872
 20
-17.8
 30
368.4146
 70
192
 0
VERTEX
 8
MESH_262_F0
 10
-244.7197
 20
-17.8
 30
367.6495
 70
192
 0
VERTEX
 8
MESH_262_F0
 10
-244.5073
 20
-17.8
 30
366.9
 70
192
 0
VERTEX
 8
MESH_262_F0
 10
-244.236
 20
-17.8
 30
366.1689
 70
192
 0
VERTEX
 8
MESH_262_F0
 10
-243.9069
 20
-17.8
 30
365.4574
 70
192
 0
VERTEX
 8
MESH_262_F0
 10
-243.523
 20
-17.8
 30
364.7717
 70
192
 0
VERTEX
 8
MESH_262_F0
 10
-243.087
 20
-17.8
 30
364.1179
 70
192
 0
VERTEX
 8
MESH_262_F0
 10
-242.6024
 20
-17.8
 30
363.5026
 70
192
 0
VERTEX
 8
MESH_262_F0
 10
-242.0715
 20
-17.8
 30
362.9281
 70
192
 0
VERTEX
 8
MESH_262_F0
 10
-241.4969
 20
-17.8
 30
362.3972
 70
192
 0
VERTEX
 8
MESH_262_F0
 10
-240.8816
 20
-17.8
 30
361.9127
 70
192
 0
VERTEX
 8
MESH_262_F0
 10
-240.2278
 20
-17.8
 30
361.4767
 70
192
 0
VERTEX
 8
MESH_262_F0
 10
-239.5421
 20
-17.8
 30
361.0928
 70
192
 0
VERTEX
 8
MESH_262_F0
 10
-238.8307
 20
-17.8
 30
360.7639
 70
192
 0
VERTEX
 8
MESH_262_F0
 10
-238.0997
 20
-17.8
 30
360.4926
 70
192
 0
VERTEX
 8
MESH_262_F0
 10
-237.3502
 20
-17.8
 30
360.2802
 70
192
 0
VERTEX
 8
MESH_262_F0
 10
-236.5852
 20
-17.8
 30
360.1279
 70
192
 0
VERTEX
 8
MESH_262_F0
 10
-235.8025
 20
-17.8
 30
360.0349
 70
192
 0
VERTEX
 8
MESH_262_F0
 10
-235
 20
-17.8
 30
360
 70
192
 0
VERTEX
 8
MESH_262_F0
 10
235
 20
-17.8
 30
360
 70
192
 0
VERTEX
 8
MESH_262_F0
 10
235.8026
 20
-17.8
 30
360.0349
 70
192
 0
VERTEX
 8
MESH_262_F0
 10
236.5854
 20
-17.8
 30
360.128
 70
192
 0
VERTEX
 8
MESH_262_F0
 10
237.3505
 20
-17.8
 30
360.2803
 70
192
 0
VERTEX
 8
MESH_262_F0
 10
238.1
 20
-17.8
 30
360.4927
 70
192
 0
VERTEX
 8
MESH_262_F0
 10
238.8311
 20
-17.8
 30
360.764
 70
192
 0
VERTEX
 8
MESH_262_F0
 10
239.5426
 20
-17.8
 30
361.093
 70
192
 0
VERTEX
 8
MESH_262_F0
 10
240.2283
 20
-17.8
 30
361.477
 70
192
 0
VERTEX
 8
MESH_262_F0
 10
240.8821
 20
-17.8
 30
361.913
 70
192
 0
VERTEX
 8
MESH_262_F0
 10
241.4974
 20
-17.8
 30
362.3976
 70
192
 0
VERTEX
 8
MESH_262_F0
 10
242.0719
 20
-17.8
 30
362.9285
 70
192
 0
VERTEX
 8
MESH_262_F0
 10
242.6028
 20
-17.8
 30
363.5031
 70
192
 0
VERTEX
 8
MESH_262_F0
 10
243.0873
 20
-17.8
 30
364.1184
 70
192
 0
VERTEX
 8
MESH_262_F0
 10
243.5233
 20
-17.8
 30
364.7722
 70
192
 0
VERTEX
 8
MESH_262_F0
 10
243.9072
 20
-17.8
 30
365.4579
 70
192
 0
VERTEX
 8
MESH_262_F0
 10
244.2361
 20
-17.8
 30
366.1693
 70
192
 0
VERTEX
 8
MESH_262_F0
 10
244.5074
 20
-17.8
 30
366.9004
 70
192
 0
VERTEX
 8
MESH_262_F0
 10
244.7198
 20
-17.8
 30
367.6498
 70
192
 0
VERTEX
 8
MESH_262_F0
 10
244.872
 20
-17.8
 30
368.4148
 70
192
 0
VERTEX
 8
MESH_262_F0
 10
244.9651
 20
-17.8
 30
369.1975
 70
192
 0
VERTEX
 8
MESH_262_F0
 10
245
 20
-17.8
 30
370
 70
192
 0
VERTEX
 8
MESH_262_F0
 10
245
 20
-17.8
 30
708
 70
192
 0
VERTEX
 8
MESH_262_F0
 10
244.9651
 20
-17.8
 30
708.8026
 70
192
 0
VERTEX
 8
MESH_262_F0
 10
244.872
 20
-17.8
 30
709.5854
 70
192
 0
VERTEX
 8
MESH_262_F0
 10
244.7197
 20
-17.8
 30
710.3505
 70
192
 0
VERTEX
 8
MESH_262_F0
 10
244.5073
 20
-17.8
 30
711.1
 70
192
 0
VERTEX
 8
MESH_262_F0
 10
244.236
 20
-17.8
 30
711.8311
 70
192
 0
VERTEX
 8
MESH_262_F0
 10
243.9069
 20
-17.8
 30
712.5425
 70
192
 0
VERTEX
 8
MESH_262_F0
 10
243.523
 20
-17.8
 30
713.2283
 70
192
 0
VERTEX
 8
MESH_262_F0
 10
243.087
 20
-17.8
 30
713.882
 70
192
 0
VERTEX
 8
MESH_262_F0
 10
242.6024
 20
-17.8
 30
714.4974
 70
192
 0
VERTEX
 8
MESH_262_F0
 10
242.0715
 20
-17.8
 30
715.0719
 70
192
 0
VERTEX
 8
MESH_262_F0
 10
241.4969
 20
-17.8
 30
715.6028
 70
192
 0
VERTEX
 8
MESH_262_F0
 10
240.8816
 20
-17.8
 30
716.0873
 70
192
 0
VERTEX
 8
MESH_262_F0
 10
240.2278
 20
-17.8
 30
716.5233
 70
192
 0
VERTEX
 8
MESH_262_F0
 10
239.5421
 20
-17.8
 30
716.9072
 70
192
 0
VERTEX
 8
MESH_262_F0
 10
238.8307
 20
-17.8
 30
717.2361
 70
192
 0
VERTEX
 8
MESH_262_F0
 10
238.0997
 20
-17.8
 30
717.5074
 70
192
 0
VERTEX
 8
MESH_262_F0
 10
237.3502
 20
-17.8
 30
717.7198
 70
192
 0
VERTEX
 8
MESH_262_F0
 10
236.5852
 20
-17.8
 30
717.872
 70
192
 0
VERTEX
 8
MESH_262_F0
 10
235.8025
 20
-17.8
 30
717.9651
 70
192
 0
VERTEX
 8
MESH_262_F0
 10
235
 20
-17.8
 30
718
 70
192
 0
VERTEX
 8
MESH_262_F0
 10
-235
 20
-17.8
 30
718
 70
192
 0
VERTEX
 8
MESH_262_F0
 10
-235.8026
 20
-17.8
 30
717.9651
 70
192
 0
VERTEX
 8
MESH_262_F0
 10
-236.5854
 20
-17.8
 30
717.872
 70
192
 0
VERTEX
 8
MESH_262_F0
 10
-237.3505
 20
-17.8
 30
717.7197
 70
192
 0
VERTEX
 8
MESH_262_F0
 10
-238.1
 20
-17.8
 30
717.5073
 70
192
 0
VERTEX
 8
MESH_262_F0
 10
-238.8311
 20
-17.8
 30
717.236
 70
192
 0
VERTEX
 8
MESH_262_F0
 10
-239.5426
 20
-17.8
 30
716.9069
 70
192
 0
VERTEX
 8
MESH_262_F0
 10
-240.2283
 20
-17.8
 30
716.523
 70
192
 0
VERTEX
 8
MESH_262_F0
 10
-240.8821
 20
-17.8
 30
716.087
 70
192
 0
VERTEX
 8
MESH_262_F0
 10
-241.4974
 20
-17.8
 30
715.6024
 70
192
 0
VERTEX
 8
MESH_262_F0
 10
-242.0719
 20
-17.8
 30
715.0715
 70
192
 0
VERTEX
 8
MESH_262_F0
 10
-242.6028
 20
-17.8
 30
714.4969
 70
192
 0
VERTEX
 8
MESH_262_F0
 10
-243.0873
 20
-17.8
 30
713.8816
 70
192
 0
VERTEX
 8
MESH_262_F0
 10
-243.5233
 20
-17.8
 30
713.2278
 70
192
 0
VERTEX
 8
MESH_262_F0
 10
-243.9072
 20
-17.8
 30
712.5421
 70
192
 0
VERTEX
 8
MESH_262_F0
 10
-244.2361
 20
-17.8
 30
711.8307
 70
192
 0
VERTEX
 8
MESH_262_F0
 10
-244.5074
 20
-17.8
 30
711.0997
 70
192
 0
VERTEX
 8
MESH_262_F0
 10
-244.7198
 20
-17.8
 30
710.3502
 70
192
 0
VERTEX
 8
MESH_262_F0
 10
-244.872
 20
-17.8
 30
709.5851
 70
192
 0
VERTEX
 8
MESH_262_F0
 10
-244.9651
 20
-17.8
 30
708.8025
 70
192
 0
VERTEX
 8
MESH_262_F0
 10
0
 20
0
 30
0
 70
128
 71
3
 72
92
 73
91
 74
91
 0
VERTEX
 8
MESH_262_F0
 10
0
 20
0
 30
0
 70
128
 71
89
 72
3
 73
90
 74
90
 0
VERTEX
 8
MESH_262_F0
 10
0
 20
0
 30
0
 70
128
 71
3
 72
91
 73
90
 74
90
 0
VERTEX
 8
MESH_262_F0
 10
0
 20
0
 30
0
 70
128
 71
2
 72
9
 73
3
 74
3
 0
VERTEX
 8
MESH_262_F0
 10
0
 20
0
 30
0
 70
128
 71
9
 72
92
 73
3
 74
3
 0
VERTEX
 8
MESH_262_F0
 10
0
 20
0
 30
0
 70
128
 71
4
 72
77
 73
76
 74
76
 0
VERTEX
 8
MESH_262_F0
 10
0
 20
0
 30
0
 70
128
 71
74
 72
4
 73
75
 74
75
 0
VERTEX
 8
MESH_262_F0
 10
0
 20
0
 30
0
 70
128
 71
4
 72
76
 73
75
 74
75
 0
VERTEX
 8
MESH_262_F0
 10
0
 20
0
 30
0
 70
128
 71
73
 72
4
 73
74
 74
74
 0
VERTEX
 8
MESH_262_F0
 10
0
 20
0
 30
0
 70
128
 71
5
 72
4
 73
73
 74
73
 0
VERTEX
 8
MESH_262_F0
 10
0
 20
0
 30
0
 70
128
 71
71
 72
5
 73
72
 74
72
 0
VERTEX
 8
MESH_262_F0
 10
0
 20
0
 30
0
 70
128
 71
5
 72
73
 73
72
 74
72
 0
VERTEX
 8
MESH_262_F0
 10
0
 20
0
 30
0
 70
128
 71
6
 72
66
 73
65
 74
65
 0
VERTEX
 8
MESH_262_F0
 10
0
 20
0
 30
0
 70
128
 71
63
 72
6
 73
64
 74
64
 0
VERTEX
 8
MESH_262_F0
 10
0
 20
0
 30
0
 70
128
 71
6
 72
65
 73
64
 74
64
 0
VERTEX
 8
MESH_262_F0
 10
0
 20
0
 30
0
 70
128
 71
8
 72
50
 73
49
 74
49
 0
VERTEX
 8
MESH_262_F0
 10
0
 20
0
 30
0
 70
128
 71
47
 72
8
 73
48
 74
48
 0
VERTEX
 8
MESH_262_F0
 10
0
 20
0
 30
0
 70
128
 71
8
 72
49
 73
48
 74
48
 0
VERTEX
 8
MESH_262_F0
 10
0
 20
0
 30
0
 70
128
 71
7
 72
51
 73
8
 74
8
 0
VERTEX
 8
MESH_262_F0
 10
0
 20
0
 30
0
 70
128
 71
51
 72
50
 73
8
 74
8
 0
VERTEX
 8
MESH_262_F0
 10
0
 20
0
 30
0
 70
128
 71
1
 72
30
 73
29
 74
29
 0
VERTEX
 8
MESH_262_F0
 10
0
 20
0
 30
0
 70
128
 71
27
 72
1
 73
28
 74
28
 0
VERTEX
 8
MESH_262_F0
 10
0
 20
0
 30
0
 70
128
 71
1
 72
29
 73
28
 74
28
 0
VERTEX
 8
MESH_262_F0
 10
0
 20
0
 30
0
 70
128
 71
2
 72
10
 73
9
 74
9
 0
VERTEX
 8
MESH_262_F0
 10
0
 20
0
 30
0
 70
128
 71
1
 72
10
 73
2
 74
2
 0
VERTEX
 8
MESH_262_F0
 10
0
 20
0
 30
0
 70
128
 71
11
 72
10
 73
1
 74
1
 0
VERTEX
 8
MESH_262_F0
 10
0
 20
0
 30
0
 70
128
 71
11
 72
1
 73
12
 74
12
 0
VERTEX
 8
MESH_262_F0
 10
0
 20
0
 30
0
 70
128
 71
1
 72
13
 73
12
 74
12
 0
VERTEX
 8
MESH_262_F0
 10
0
 20
0
 30
0
 70
128
 71
14
 72
13
 73
1
 74
1
 0
VERTEX
 8
MESH_262_F0
 10
0
 20
0
 30
0
 70
128
 71
14
 72
1
 73
15
 74
15
 0
VERTEX
 8
MESH_262_F0
 10
0
 20
0
 30
0
 70
128
 71
1
 72
16
 73
15
 74
15
 0
VERTEX
 8
MESH_262_F0
 10
0
 20
0
 30
0
 70
128
 71
17
 72
16
 73
1
 74
1
 0
VERTEX
 8
MESH_262_F0
 10
0
 20
0
 30
0
 70
128
 71
17
 72
1
 73
18
 74
18
 0
VERTEX
 8
MESH_262_F0
 10
0
 20
0
 30
0
 70
128
 71
1
 72
19
 73
18
 74
18
 0
VERTEX
 8
MESH_262_F0
 10
0
 20
0
 30
0
 70
128
 71
20
 72
19
 73
1
 74
1
 0
VERTEX
 8
MESH_262_F0
 10
0
 20
0
 30
0
 70
128
 71
20
 72
1
 73
21
 74
21
 0
VERTEX
 8
MESH_262_F0
 10
0
 20
0
 30
0
 70
128
 71
1
 72
22
 73
21
 74
21
 0
VERTEX
 8
MESH_262_F0
 10
0
 20
0
 30
0
 70
128
 71
23
 72
22
 73
1
 74
1
 0
VERTEX
 8
MESH_262_F0
 10
0
 20
0
 30
0
 70
128
 71
23
 72
1
 73
24
 74
24
 0
VERTEX
 8
MESH_262_F0
 10
0
 20
0
 30
0
 70
128
 71
1
 72
25
 73
24
 74
24
 0
VERTEX
 8
MESH_262_F0
 10
0
 20
0
 30
0
 70
128
 71
26
 72
25
 73
1
 74
1
 0
VERTEX
 8
MESH_262_F0
 10
0
 20
0
 30
0
 70
128
 71
26
 72
1
 73
27
 74
27
 0
VERTEX
 8
MESH_262_F0
 10
0
 20
0
 30
0
 70
128
 71
1
 72
31
 73
30
 74
30
 0
VERTEX
 8
MESH_262_F0
 10
0
 20
0
 30
0
 70
128
 71
8
 72
31
 73
1
 74
1
 0
VERTEX
 8
MESH_262_F0
 10
0
 20
0
 30
0
 70
128
 71
32
 72
31
 73
8
 74
8
 0
VERTEX
 8
MESH_262_F0
 10
0
 20
0
 30
0
 70
128
 71
32
 72
8
 73
33
 74
33
 0
VERTEX
 8
MESH_262_F0
 10
0
 20
0
 30
0
 70
128
 71
8
 72
34
 73
33
 74
33
 0
VERTEX
 8
MESH_262_F0
 10
0
 20
0
 30
0
 70
128
 71
35
 72
34
 73
8
 74
8
 0
VERTEX
 8
MESH_262_F0
 10
0
 20
0
 30
0
 70
128
 71
35
 72
8
 73
36
 74
36
 0
VERTEX
 8
MESH_262_F0
 10
0
 20
0
 30
0
 70
128
 71
8
 72
37
 73
36
 74
36
 0
VERTEX
 8
MESH_262_F0
 10
0
 20
0
 30
0
 70
128
 71
38
 72
37
 73
8
 74
8
 0
VERTEX
 8
MESH_262_F0
 10
0
 20
0
 30
0
 70
128
 71
38
 72
8
 73
39
 74
39
 0
VERTEX
 8
MESH_262_F0
 10
0
 20
0
 30
0
 70
128
 71
8
 72
40
 73
39
 74
39
 0
VERTEX
 8
MESH_262_F0
 10
0
 20
0
 30
0
 70
128
 71
41
 72
40
 73
8
 74
8
 0
VERTEX
 8
MESH_262_F0
 10
0
 20
0
 30
0
 70
128
 71
41
 72
8
 73
42
 74
42
 0
VERTEX
 8
MESH_262_F0
 10
0
 20
0
 30
0
 70
128
 71
8
 72
43
 73
42
 74
42
 0
VERTEX
 8
MESH_262_F0
 10
0
 20
0
 30
0
 70
128
 71
44
 72
43
 73
8
 74
8
 0
VERTEX
 8
MESH_262_F0
 10
0
 20
0
 30
0
 70
128
 71
44
 72
8
 73
45
 74
45
 0
VERTEX
 8
MESH_262_F0
 10
0
 20
0
 30
0
 70
128
 71
8
 72
46
 73
45
 74
45
 0
VERTEX
 8
MESH_262_F0
 10
0
 20
0
 30
0
 70
128
 71
47
 72
46
 73
8
 74
8
 0
VERTEX
 8
MESH_262_F0
 10
0
 20
0
 30
0
 70
128
 71
7
 72
52
 73
51
 74
51
 0
VERTEX
 8
MESH_262_F0
 10
0
 20
0
 30
0
 70
128
 71
6
 72
52
 73
7
 74
7
 0
VERTEX
 8
MESH_262_F0
 10
0
 20
0
 30
0
 70
128
 71
53
 72
52
 73
6
 74
6
 0
VERTEX
 8
MESH_262_F0
 10
0
 20
0
 30
0
 70
128
 71
53
 72
6
 73
54
 74
54
 0
VERTEX
 8
MESH_262_F0
 10
0
 20
0
 30
0
 70
128
 71
6
 72
55
 73
54
 74
54
 0
VERTEX
 8
MESH_262_F0
 10
0
 20
0
 30
0
 70
128
 71
56
 72
55
 73
6
 74
6
 0
VERTEX
 8
MESH_262_F0
 10
0
 20
0
 30
0
 70
128
 71
56
 72
6
 73
57
 74
57
 0
VERTEX
 8
MESH_262_F0
 10
0
 20
0
 30
0
 70
128
 71
6
 72
58
 73
57
 74
57
 0
VERTEX
 8
MESH_262_F0
 10
0
 20
0
 30
0
 70
128
 71
59
 72
58
 73
6
 74
6
 0
VERTEX
 8
MESH_262_F0
 10
0
 20
0
 30
0
 70
128
 71
59
 72
6
 73
60
 74
60
 0
VERTEX
 8
MESH_262_F0
 10
0
 20
0
 30
0
 70
128
 71
6
 72
61
 73
60
 74
60
 0
VERTEX
 8
MESH_262_F0
 10
0
 20
0
 30
0
 70
128
 71
62
 72
61
 73
6
 74
6
 0
VERTEX
 8
MESH_262_F0
 10
0
 20
0
 30
0
 70
128
 71
62
 72
6
 73
63
 74
63
 0
VERTEX
 8
MESH_262_F0
 10
0
 20
0
 30
0
 70
128
 71
6
 72
67
 73
66
 74
66
 0
VERTEX
 8
MESH_262_F0
 10
0
 20
0
 30
0
 70
128
 71
5
 72
67
 73
6
 74
6
 0
VERTEX
 8
MESH_262_F0
 10
0
 20
0
 30
0
 70
128
 71
68
 72
67
 73
5
 74
5
 0
VERTEX
 8
MESH_262_F0
 10
0
 20
0
 30
0
 70
128
 71
68
 72
5
 73
69
 74
69
 0
VERTEX
 8
MESH_262_F0
 10
0
 20
0
 30
0
 70
128
 71
5
 72
70
 73
69
 74
69
 0
VERTEX
 8
MESH_262_F0
 10
0
 20
0
 30
0
 70
128
 71
71
 72
70
 73
5
 74
5
 0
VERTEX
 8
MESH_262_F0
 10
0
 20
0
 30
0
 70
128
 71
4
 72
78
 73
77
 74
77
 0
VERTEX
 8
MESH_262_F0
 10
0
 20
0
 30
0
 70
128
 71
3
 72
78
 73
4
 74
4
 0
VERTEX
 8
MESH_262_F0
 10
0
 20
0
 30
0
 70
128
 71
79
 72
78
 73
3
 74
3
 0
VERTEX
 8
MESH_262_F0
 10
0
 20
0
 30
0
 70
128
 71
79
 72
3
 73
80
 74
80
 0
VERTEX
 8
MESH_262_F0
 10
0
 20
0
 30
0
 70
128
 71
3
 72
81
 73
80
 74
80
 0
VERTEX
 8
MESH_262_F0
 10
0
 20
0
 30
0
 70
128
 71
82
 72
81
 73
3
 74
3
 0
VERTEX
 8
MESH_262_F0
 10
0
 20
0
 30
0
 70
128
 71
82
 72
3
 73
83
 74
83
 0
VERTEX
 8
MESH_262_F0
 10
0
 20
0
 30
0
 70
128
 71
3
 72
84
 73
83
 74
83
 0
VERTEX
 8
MESH_262_F0
 10
0
 20
0
 30
0
 70
128
 71
85
 72
84
 73
3
 74
3
 0
VERTEX
 8
MESH_262_F0
 10
0
 20
0
 30
0
 70
128
 71
85
 72
3
 73
86
 74
86
 0
VERTEX
 8
MESH_262_F0
 10
0
 20
0
 30
0
 70
128
 71
3
 72
87
 73
86
 74
86
 0
VERTEX
 8
MESH_262_F0
 10
0
 20
0
 30
0
 70
128
 71
88
 72
87
 73
3
 74
3
 0
VERTEX
 8
MESH_262_F0
 10
0
 20
0
 30
0
 70
128
 71
88
 72
3
 73
89
 74
89
 0
SEQEND
 0
POLYLINE
 8
MESH_261_F0
 66
1
 10
0.0
 20
0.0
 30
0.0
 70
64
 71
4
 72
2
 0
VERTEX
 8
MESH_261_F0
 10
307
 20
-17.8
 30
740
 70
192
 0
VERTEX
 8
MESH_261_F0
 10
293
 20
-17.8
 30
740
 70
192
 0
VERTEX
 8
MESH_261_F0
 10
293
 20
-21
 30
740
 70
192
 0
VERTEX
 8
MESH_261_F0
 10
307
 20
-21
 30
740
 70
192
 0
VERTEX
 8
MESH_261_F0
 10
0
 20
0
 30
0
 70
128
 71
4
 72
2
 73
1
 74
1
 0
VERTEX
 8
MESH_261_F0
 10
0
 20
0
 30
0
 70
128
 71
3
 72
2
 73
4
 74
4
 0
SEQEND
 0
POLYLINE
 8
MESH_260_F0
 66
1
 10
0.0
 20
0.0
 30
0.0
 70
64
 71
4
 72
2
 0
VERTEX
 8
MESH_260_F0
 10
293
 20
-21
 30
779.5
 70
192
 0
VERTEX
 8
MESH_260_F0
 10
293
 20
-21
 30
740
 70
192
 0
VERTEX
 8
MESH_260_F0
 10
293
 20
-17.8
 30
740
 70
192
 0
VERTEX
 8
MESH_260_F0
 10
293
 20
-17.8
 30
779.5
 70
192
 0
VERTEX
 8
MESH_260_F0
 10
0
 20
0
 30
0
 70
128
 71
1
 72
3
 73
2
 74
2
 0
VERTEX
 8
MESH_260_F0
 10
0
 20
0
 30
0
 70
128
 71
4
 72
3
 73
1
 74
1
 0
SEQEND
 0
POLYLINE
 8
MESH_259_F0
 66
1
 10
0.0
 20
0.0
 30
0.0
 70
64
 71
4
 72
2
 0
VERTEX
 8
MESH_259_F0
 10
293
 20
-21
 30
740
 70
192
 0
VERTEX
 8
MESH_259_F0
 10
293
 20
-21
 30
779.5
 70
192
 0
VERTEX
 8
MESH_259_F0
 10
307
 20
-21
 30
779.5
 70
192
 0
VERTEX
 8
MESH_259_F0
 10
307
 20
-21
 30
740
 70
192
 0
VERTEX
 8
MESH_259_F0
 10
0
 20
0
 30
0
 70
128
 71
4
 72
2
 73
1
 74
1
 0
VERTEX
 8
MESH_259_F0
 10
0
 20
0
 30
0
 70
128
 71
3
 72
2
 73
4
 74
4
 0
SEQEND
 0
POLYLINE
 8
MESH_258_F0
 66
1
 10
0.0
 20
0.0
 30
0.0
 70
64
 71
8
 72
6
 0
VERTEX
 8
MESH_258_F0
 10
307
 20
-21
 30
779.5
 70
192
 0
VERTEX
 8
MESH_258_F0
 10
293
 20
-21
 30
779.5
 70
192
 0
VERTEX
 8
MESH_258_F0
 10
293
 20
-17.8
 30
779.5
 70
192
 0
VERTEX
 8
MESH_258_F0
 10
-293
 20
-17.8
 30
779.5
 70
192
 0
VERTEX
 8
MESH_258_F0
 10
-293
 20
-21
 30
779.5
 70
192
 0
VERTEX
 8
MESH_258_F0
 10
-307
 20
-21
 30
779.5
 70
192
 0
VERTEX
 8
MESH_258_F0
 10
-307
 20
-8.5
 30
779.5
 70
192
 0
VERTEX
 8
MESH_258_F0
 10
307
 20
-8.5
 30
779.5
 70
192
 0
VERTEX
 8
MESH_258_F0
 10
0
 20
0
 30
0
 70
128
 71
1
 72
3
 73
2
 74
2
 0
VERTEX
 8
MESH_258_F0
 10
0
 20
0
 30
0
 70
128
 71
8
 72
3
 73
1
 74
1
 0
VERTEX
 8
MESH_258_F0
 10
0
 20
0
 30
0
 70
128
 71
4
 72
3
 73
8
 74
8
 0
VERTEX
 8
MESH_258_F0
 10
0
 20
0
 30
0
 70
128
 71
6
 72
4
 73
7
 74
7
 0
VERTEX
 8
MESH_258_F0
 10
0
 20
0
 30
0
 70
128
 71
4
 72
8
 73
7
 74
7
 0
VERTEX
 8
MESH_258_F0
 10
0
 20
0
 30
0
 70
128
 71
6
 72
5
 73
4
 74
4
 0
SEQEND
 0
POLYLINE
 8
MESH_257_F0
 66
1
 10
0.0
 20
0.0
 30
0.0
 70
64
 71
4
 72
2
 0
VERTEX
 8
MESH_257_F0
 10
307
 20
-8.5
 30
779.5
 70
192
 0
VERTEX
 8
MESH_257_F0
 10
-307
 20
-8.5
 30
779.5
 70
192
 0
VERTEX
 8
MESH_257_F0
 10
-307
 20
-8.5
 30
819.4999
 70
192
 0
VERTEX
 8
MESH_257_F0
 10
307
 20
-8.5
 30
819.4999
 70
192
 0
VERTEX
 8
MESH_257_F0
 10
0
 20
0
 30
0
 70
128
 71
1
 72
3
 73
2
 74
2
 0
VERTEX
 8
MESH_257_F0
 10
0
 20
0
 30
0
 70
128
 71
4
 72
3
 73
1
 74
1
 0
SEQEND
 0
POLYLINE
 8
MESH_256_F0
 66
1
 10
0.0
 20
0.0
 30
0.0
 70
64
 71
4
 72
2
 0
VERTEX
 8
MESH_256_F0
 10
307
 20
-8.5
 30
819.4999
 70
192
 0
VERTEX
 8
MESH_256_F0
 10
-307
 20
-8.5
 30
819.4999
 70
192
 0
VERTEX
 8
MESH_256_F0
 10
-307
 20
-17.5
 30
819.4999
 70
192
 0
VERTEX
 8
MESH_256_F0
 10
307
 20
-17.5
 30
819.4999
 70
192
 0
VERTEX
 8
MESH_256_F0
 10
0
 20
0
 30
0
 70
128
 71
4
 72
2
 73
1
 74
1
 0
VERTEX
 8
MESH_256_F0
 10
0
 20
0
 30
0
 70
128
 71
3
 72
2
 73
4
 74
4
 0
SEQEND
 0
POLYLINE
 8
MESH_255_F0
 66
1
 10
0.0
 20
0.0
 30
0.0
 70
64
 71
10
 72
8
 0
VERTEX
 8
MESH_255_F0
 10
-307
 20
-17.5
 30
819.4999
 70
192
 0
VERTEX
 8
MESH_255_F0
 10
-307
 20
-8.5
 30
819.4999
 70
192
 0
VERTEX
 8
MESH_255_F0
 10
-307
 20
-8.5
 30
779.5
 70
192
 0
VERTEX
 8
MESH_255_F0
 10
-307
 20
-21
 30
779.5
 70
192
 0
VERTEX
 8
MESH_255_F0
 10
-307
 20
-21
 30
740
 70
192
 0
VERTEX
 8
MESH_255_F0
 10
-307
 20
-17.8
 30
740
 70
192
 0
VERTEX
 8
MESH_255_F0
 10
-307
 20
-17.8
 30
68
 70
192
 0
VERTEX
 8
MESH_255_F0
 10
-307
 20
0
 30
68
 70
192
 0
VERTEX
 8
MESH_255_F0
 10
-307
 20
0
 30
820.0001
 70
192
 0
VERTEX
 8
MESH_255_F0
 10
-307
 20
-17.5
 30
820.0001
 70
192
 0
VERTEX
 8
MESH_255_F0
 10
0
 20
0
 30
0
 70
128
 71
10
 72
2
 73
1
 74
1
 0
VERTEX
 8
MESH_255_F0
 10
0
 20
0
 30
0
 70
128
 71
9
 72
2
 73
10
 74
10
 0
VERTEX
 8
MESH_255_F0
 10
0
 20
0
 30
0
 70
128
 71
3
 72
2
 73
9
 74
9
 0
VERTEX
 8
MESH_255_F0
 10
0
 20
0
 30
0
 70
128
 71
7
 72
3
 73
8
 74
8
 0
VERTEX
 8
MESH_255_F0
 10
0
 20
0
 30
0
 70
128
 71
3
 72
9
 73
8
 74
8
 0
VERTEX
 8
MESH_255_F0
 10
0
 20
0
 30
0
 70
128
 71
6
 72
3
 73
7
 74
7
 0
VERTEX
 8
MESH_255_F0
 10
0
 20
0
 30
0
 70
128
 71
4
 72
3
 73
6
 74
6
 0
VERTEX
 8
MESH_255_F0
 10
0
 20
0
 30
0
 70
128
 71
4
 72
6
 73
5
 74
5
 0
SEQEND
 0
POLYLINE
 8
MESH_254_F0
 66
1
 10
0.0
 20
0.0
 30
0.0
 70
64
 71
16
 72
16
 0
VERTEX
 8
MESH_254_F0
 10
-307
 20
0
 30
820.0001
 70
192
 0
VERTEX
 8
MESH_254_F0
 10
-307
 20
0
 30
68
 70
192
 0
VERTEX
 8
MESH_254_F0
 10
307
 20
0
 30
68
 70
192
 0
VERTEX
 8
MESH_254_F0
 10
307
 20
0
 30
820.0001
 70
192
 0
VERTEX
 8
MESH_254_F0
 10
325
 20
0
 30
820.0001
 70
192
 0
VERTEX
 8
MESH_254_F0
 10
325
 20
0
 30
0
 70
192
 0
VERTEX
 8
MESH_254_F0
 10
307
 20
0
 30
0
 70
192
 0
VERTEX
 8
MESH_254_F0
 10
307
 20
0
 30
50
 70
192
 0
VERTEX
 8
MESH_254_F0
 10
-307
 20
0
 30
50
 70
192
 0
VERTEX
 8
MESH_254_F0
 10
-307
 20
0
 30
0
 70
192
 0
VERTEX
 8
MESH_254_F0
 10
-325
 20
0
 30
0
 70
192
 0
VERTEX
 8
MESH_254_F0
 10
-325
 20
0
 30
820.0001
 70
192
 0
VERTEX
 8
MESH_254_F0
 10
-326
 20
0
 30
820.0001
 70
192
 0
VERTEX
 8
MESH_254_F0
 10
-326
 20
0
 30
844.9999
 70
192
 0
VERTEX
 8
MESH_254_F0
 10
326
 20
0
 30
844.9999
 70
192
 0
VERTEX
 8
MESH_254_F0
 10
326
 20
0
 30
820.0001
 70
192
 0
VERTEX
 8
MESH_254_F0
 10
0
 20
0
 30
0
 70
128
 71
2
 72
11
 73
9
 74
9
 0
VERTEX
 8
MESH_254_F0
 10
0
 20
0
 30
0
 70
128
 71
2
 72
9
 73
3
 74
3
 0
VERTEX
 8
MESH_254_F0
 10
0
 20
0
 30
0
 70
128
 71
9
 72
8
 73
3
 74
3
 0
VERTEX
 8
MESH_254_F0
 10
0
 20
0
 30
0
 70
128
 71
8
 72
6
 73
3
 74
3
 0
VERTEX
 8
MESH_254_F0
 10
0
 20
0
 30
0
 70
128
 71
6
 72
5
 73
3
 74
3
 0
VERTEX
 8
MESH_254_F0
 10
0
 20
0
 30
0
 70
128
 71
5
 72
4
 73
3
 74
3
 0
VERTEX
 8
MESH_254_F0
 10
0
 20
0
 30
0
 70
128
 71
15
 72
4
 73
5
 74
5
 0
VERTEX
 8
MESH_254_F0
 10
0
 20
0
 30
0
 70
128
 71
15
 72
5
 73
16
 74
16
 0
VERTEX
 8
MESH_254_F0
 10
0
 20
0
 30
0
 70
128
 71
15
 72
1
 73
4
 74
4
 0
VERTEX
 8
MESH_254_F0
 10
0
 20
0
 30
0
 70
128
 71
14
 72
1
 73
15
 74
15
 0
VERTEX
 8
MESH_254_F0
 10
0
 20
0
 30
0
 70
128
 71
12
 72
1
 73
14
 74
14
 0
VERTEX
 8
MESH_254_F0
 10
0
 20
0
 30
0
 70
128
 71
12
 72
14
 73
13
 74
13
 0
VERTEX
 8
MESH_254_F0
 10
0
 20
0
 30
0
 70
128
 71
8
 72
7
 73
6
 74
6
 0
VERTEX
 8
MESH_254_F0
 10
0
 20
0
 30
0
 70
128
 71
11
 72
10
 73
9
 74
9
 0
VERTEX
 8
MESH_254_F0
 10
0
 20
0
 30
0
 70
128
 71
2
 72
12
 73
11
 74
11
 0
VERTEX
 8
MESH_254_F0
 10
0
 20
0
 30
0
 70
128
 71
1
 72
12
 73
2
 74
2
 0
SEQEND
 0
POLYLINE
 8
MESH_253_F0
 66
1
 10
0.0
 20
0.0
 30
0.0
 70
64
 71
4
 72
2
 0
VERTEX
 8
MESH_253_F0
 10
-325
 20
0
 30
0
 70
192
 0
VERTEX
 8
MESH_253_F0
 10
-307
 20
0
 30
0
 70
192
 0
VERTEX
 8
MESH_253_F0
 10
-307
 20
-295
 30
0
 70
192
 0
VERTEX
 8
MESH_253_F0
 10
-325
 20
-295
 30
0
 70
192
 0
VERTEX
 8
MESH_253_F0
 10
0
 20
0
 30
0
 70
128
 71
1
 72
3
 73
2
 74
2
 0
VERTEX
 8
MESH_253_F0
 10
0
 20
0
 30
0
 70
128
 71
4
 72
3
 73
1
 74
1
 0
SEQEND
 0
ENDSEC
 0
EOF
