 0
SECTION
 2
HEADER
 9
$ACADVER
 1
AC1009
 0
ENDSEC
 0
SECTION
 2
TABLES
 0
TABLE
 2
LTYPE
 70
1
 0
LTYPE
 2
CONTINUOUS
 70
64
 3
solid line
 72
65
 73
0
 40
0.0
 0
ENDTAB
 0
TABLE
 2
LAYER
 70
6
 0
LAYER
 2
0
 70
0
 62
7
 6
CONTINUOUS
 0
LAYER
 2
MESH_229_F0
 70
64
 62
7
 6
CONTINUOUS
 0
LAYER
 2
MESH_228_F0
 70
64
 62
7
 6
CONTINUOUS
 0
LAYER
 2
MESH_227_F0
 70
64
 62
7
 6
CONTINUOUS
 0
LAYER
 2
MESH_226_F0
 70
64
 62
7
 6
CONTINUOUS
 0
LAYER
 2
MESH_225_F0
 70
64
 62
7
 6
CONTINUOUS
 0
LAYER
 2
MESH_224_F0
 70
64
 62
7
 6
CONTINUOUS
 0
LAYER
 2
MESH_223_F0
 70
64
 62
7
 6
CONTINUOUS
 0
LAYER
 2
MESH_222_F0
 70
64
 62
7
 6
CONTINUOUS
 0
LAYER
 2
MESH_221_F0
 70
64
 62
7
 6
CONTINUOUS
 0
LAYER
 2
MESH_220_F0
 70
64
 62
7
 6
CONTINUOUS
 0
LAYER
 2
MESH_219_F0
 70
64
 62
7
 6
CONTINUOUS
 0
LAYER
 2
MESH_218_F0
 70
64
 62
7
 6
CONTINUOUS
 0
LAYER
 2
MESH_217_F0
 70
64
 62
7
 6
CONTINUOUS
 0
LAYER
 2
MESH_216_F0
 70
64
 62
7
 6
CONTINUOUS
 0
LAYER
 2
MESH_215_F0
 70
64
 62
7
 6
CONTINUOUS
 0
LAYER
 2
MESH_214_F0
 70
64
 62
7
 6
CONTINUOUS
 0
LAYER
 2
MESH_213_F0
 70
64
 62
7
 6
CONTINUOUS
 0
LAYER
 2
MESH_212_F0
 70
64
 62
7
 6
CONTINUOUS
 0
LAYER
 2
MESH_211_F0
 70
64
 62
7
 6
CONTINUOUS
 0
LAYER
 2
MESH_210_F0
 70
64
 62
7
 6
CONTINUOUS
 0
LAYER
 2
MESH_209_F0
 70
64
 62
7
 6
CONTINUOUS
 0
LAYER
 2
MESH_208_F0
 70
64
 62
7
 6
CONTINUOUS
 0
LAYER
 2
MESH_207_F0
 70
64
 62
7
 6
CONTINUOUS
 0
LAYER
 2
MESH_206_F0
 70
64
 62
7
 6
CONTINUOUS
 0
LAYER
 2
MESH_205_F0
 70
64
 62
7
 6
CONTINUOUS
 0
LAYER
 2
MESH_204_F0
 70
64
 62
7
 6
CONTINUOUS
 0
LAYER
 2
MESH_203_F0
 70
64
 62
7
 6
CONTINUOUS
 0
LAYER
 2
MESH_202_F0
 70
64
 62
7
 6
CONTINUOUS
 0
LAYER
 2
MESH_201_F0
 70
64
 62
7
 6
CONTINUOUS
 0
LAYER
 2
MESH_200_F0
 70
64
 62
7
 6
CONTINUOUS
 0
LAYER
 2
MESH_199_F0
 70
64
 62
7
 6
CONTINUOUS
 0
LAYER
 2
MESH_198_F0
 70
64
 62
7
 6
CONTINUOUS
 0
LAYER
 2
MESH_197_F0
 70
64
 62
7
 6
CONTINUOUS
 0
LAYER
 2
MESH_196_F0
 70
64
 62
7
 6
CONTINUOUS
 0
LAYER
 2
MESH_195_F0
 70
64
 62
7
 6
CONTINUOUS
 0
LAYER
 2
MESH_194_F0
 70
64
 62
7
 6
CONTINUOUS
 0
LAYER
 2
MESH_193_F0
 70
64
 62
7
 6
CONTINUOUS
 0
ENDTAB
 0
ENDSEC
 0
SECTION
 2
BLOCKS
 0
ENDSEC
 0
SECTION
 2
ENTITIES
 0
POLYLINE
 8
MESH_229_F0
 66
1
 10
0.0
 20
0.0
 30
0.0
 70
64
 71
4
 72
2
 0
VERTEX
 8
MESH_229_F0
 10
-298.501
 20
-324
 30
647
 70
192
 0
VERTEX
 8
MESH_229_F0
 10
-298.501
 20
-324
 30
1
 70
192
 0
VERTEX
 8
MESH_229_F0
 10
298.501
 20
-324
 30
1
 70
192
 0
VERTEX
 8
MESH_229_F0
 10
298.501
 20
-324
 30
647
 70
192
 0
VERTEX
 8
MESH_229_F0
 10
0
 20
0
 30
0
 70
128
 71
1
 72
3
 73
2
 74
2
 0
VERTEX
 8
MESH_229_F0
 10
0
 20
0
 30
0
 70
128
 71
4
 72
3
 73
1
 74
1
 0
SEQEND
 0
POLYLINE
 8
MESH_228_F0
 66
1
 10
0.0
 20
0.0
 30
0.0
 70
64
 71
4
 72
2
 0
VERTEX
 8
MESH_228_F0
 10
-307
 20
-36
 30
784
 70
192
 0
VERTEX
 8
MESH_228_F0
 10
307
 20
-36
 30
784
 70
192
 0
VERTEX
 8
MESH_228_F0
 10
307
 20
-18
 30
784
 70
192
 0
VERTEX
 8
MESH_228_F0
 10
-307
 20
-18
 30
784
 70
192
 0
VERTEX
 8
MESH_228_F0
 10
0
 20
0
 30
0
 70
128
 71
1
 72
3
 73
2
 74
2
 0
VERTEX
 8
MESH_228_F0
 10
0
 20
0
 30
0
 70
128
 71
4
 72
3
 73
1
 74
1
 0
SEQEND
 0
POLYLINE
 8
MESH_227_F0
 66
1
 10
0.0
 20
0.0
 30
0.0
 70
64
 71
4
 72
2
 0
VERTEX
 8
MESH_227_F0
 10
-307
 20
-18
 30
784
 70
192
 0
VERTEX
 8
MESH_227_F0
 10
307
 20
-18
 30
784
 70
192
 0
VERTEX
 8
MESH_227_F0
 10
307
 20
-18
 30
424
 70
192
 0
VERTEX
 8
MESH_227_F0
 10
-307
 20
-18
 30
424
 70
192
 0
VERTEX
 8
MESH_227_F0
 10
0
 20
0
 30
0
 70
128
 71
4
 72
2
 73
1
 74
1
 0
VERTEX
 8
MESH_227_F0
 10
0
 20
0
 30
0
 70
128
 71
3
 72
2
 73
4
 74
4
 0
SEQEND
 0
POLYLINE
 8
MESH_226_F0
 66
1
 10
0.0
 20
0.0
 30
0.0
 70
64
 71
4
 72
2
 0
VERTEX
 8
MESH_226_F0
 10
-307
 20
-295
 30
424
 70
192
 0
VERTEX
 8
MESH_226_F0
 10
-307
 20
-18
 30
424
 70
192
 0
VERTEX
 8
MESH_226_F0
 10
307
 20
-18
 30
424
 70
192
 0
VERTEX
 8
MESH_226_F0
 10
307
 20
-295
 30
424
 70
192
 0
VERTEX
 8
MESH_226_F0
 10
0
 20
0
 30
0
 70
128
 71
4
 72
2
 73
1
 74
1
 0
VERTEX
 8
MESH_226_F0
 10
0
 20
0
 30
0
 70
128
 71
3
 72
2
 73
4
 74
4
 0
SEQEND
 0
POLYLINE
 8
MESH_225_F0
 66
1
 10
0.0
 20
0.0
 30
0.0
 70
64
 71
4
 72
2
 0
VERTEX
 8
MESH_225_F0
 10
307
 20
-36
 30
820.0001
 70
192
 0
VERTEX
 8
MESH_225_F0
 10
-307
 20
-36
 30
820.0001
 70
192
 0
VERTEX
 8
MESH_225_F0
 10
-307
 20
0
 30
820.0001
 70
192
 0
VERTEX
 8
MESH_225_F0
 10
307
 20
0
 30
820.0001
 70
192
 0
VERTEX
 8
MESH_225_F0
 10
0
 20
0
 30
0
 70
128
 71
1
 72
3
 73
2
 74
2
 0
VERTEX
 8
MESH_225_F0
 10
0
 20
0
 30
0
 70
128
 71
4
 72
3
 73
1
 74
1
 0
SEQEND
 0
POLYLINE
 8
MESH_224_F0
 66
1
 10
0.0
 20
0.0
 30
0.0
 70
64
 71
32
 72
30
 0
VERTEX
 8
MESH_224_F0
 10
-326
 20
-297
 30
844.9999
 70
192
 0
VERTEX
 8
MESH_224_F0
 10
-325.8321
 20
-299.9408
 30
844.9999
 70
192
 0
VERTEX
 8
MESH_224_F0
 10
-325.3417
 20
-302.8135
 30
844.9999
 70
192
 0
VERTEX
 8
MESH_224_F0
 10
-324.532
 20
-305.6102
 30
844.9999
 70
192
 0
VERTEX
 8
MESH_224_F0
 10
-323.4127
 20
-308.3068
 30
844.9999
 70
192
 0
VERTEX
 8
MESH_224_F0
 10
-322.0038
 20
-310.8508
 30
844.9999
 70
192
 0
VERTEX
 8
MESH_224_F0
 10
-320.3204
 20
-313.2197
 30
844.9999
 70
192
 0
VERTEX
 8
MESH_224_F0
 10
-318.3844
 20
-315.3844
 30
844.9999
 70
192
 0
VERTEX
 8
MESH_224_F0
 10
-316.2197
 20
-317.3204
 30
844.9999
 70
192
 0
VERTEX
 8
MESH_224_F0
 10
-313.8508
 20
-319.0038
 30
844.9999
 70
192
 0
VERTEX
 8
MESH_224_F0
 10
-311.3068
 20
-320.4127
 30
844.9999
 70
192
 0
VERTEX
 8
MESH_224_F0
 10
-308.6102
 20
-321.532
 30
844.9999
 70
192
 0
VERTEX
 8
MESH_224_F0
 10
-305.8135
 20
-322.3417
 30
844.9999
 70
192
 0
VERTEX
 8
MESH_224_F0
 10
-302.9408
 20
-322.8321
 30
844.9999
 70
192
 0
VERTEX
 8
MESH_224_F0
 10
-300
 20
-323
 30
844.9999
 70
192
 0
VERTEX
 8
MESH_224_F0
 10
300
 20
-323
 30
844.9999
 70
192
 0
VERTEX
 8
MESH_224_F0
 10
302.9408
 20
-322.8321
 30
844.9999
 70
192
 0
VERTEX
 8
MESH_224_F0
 10
305.8135
 20
-322.3417
 30
844.9999
 70
192
 0
VERTEX
 8
MESH_224_F0
 10
308.6102
 20
-321.532
 30
844.9999
 70
192
 0
VERTEX
 8
MESH_224_F0
 10
311.3068
 20
-320.4127
 30
844.9999
 70
192
 0
VERTEX
 8
MESH_224_F0
 10
313.8508
 20
-319.0038
 30
844.9999
 70
192
 0
VERTEX
 8
MESH_224_F0
 10
316.2197
 20
-317.3204
 30
844.9999
 70
192
 0
VERTEX
 8
MESH_224_F0
 10
318.3844
 20
-315.3844
 30
844.9999
 70
192
 0
VERTEX
 8
MESH_224_F0
 10
320.3204
 20
-313.2197
 30
844.9999
 70
192
 0
VERTEX
 8
MESH_224_F0
 10
322.0038
 20
-310.8508
 30
844.9999
 70
192
 0
VERTEX
 8
MESH_224_F0
 10
323.4127
 20
-308.3068
 30
844.9999
 70
192
 0
VERTEX
 8
MESH_224_F0
 10
324.532
 20
-305.6102
 30
844.9999
 70
192
 0
VERTEX
 8
MESH_224_F0
 10
325.3417
 20
-302.8135
 30
844.9999
 70
192
 0
VERTEX
 8
MESH_224_F0
 10
325.8321
 20
-299.9408
 30
844.9999
 70
192
 0
VERTEX
 8
MESH_224_F0
 10
326
 20
-297
 30
844.9999
 70
192
 0
VERTEX
 8
MESH_224_F0
 10
326
 20
0
 30
844.9999
 70
192
 0
VERTEX
 8
MESH_224_F0
 10
-326
 20
0
 30
844.9999
 70
192
 0
VERTEX
 8
MESH_224_F0
 10
0
 20
0
 30
0
 70
128
 71
32
 72
2
 73
1
 74
1
 0
VERTEX
 8
MESH_224_F0
 10
0
 20
0
 30
0
 70
128
 71
3
 72
2
 73
32
 74
32
 0
VERTEX
 8
MESH_224_F0
 10
0
 20
0
 30
0
 70
128
 71
3
 72
32
 73
4
 74
4
 0
VERTEX
 8
MESH_224_F0
 10
0
 20
0
 30
0
 70
128
 71
32
 72
5
 73
4
 74
4
 0
VERTEX
 8
MESH_224_F0
 10
0
 20
0
 30
0
 70
128
 71
6
 72
5
 73
32
 74
32
 0
VERTEX
 8
MESH_224_F0
 10
0
 20
0
 30
0
 70
128
 71
6
 72
32
 73
7
 74
7
 0
VERTEX
 8
MESH_224_F0
 10
0
 20
0
 30
0
 70
128
 71
32
 72
8
 73
7
 74
7
 0
VERTEX
 8
MESH_224_F0
 10
0
 20
0
 30
0
 70
128
 71
9
 72
8
 73
32
 74
32
 0
VERTEX
 8
MESH_224_F0
 10
0
 20
0
 30
0
 70
128
 71
9
 72
32
 73
10
 74
10
 0
VERTEX
 8
MESH_224_F0
 10
0
 20
0
 30
0
 70
128
 71
32
 72
11
 73
10
 74
10
 0
VERTEX
 8
MESH_224_F0
 10
0
 20
0
 30
0
 70
128
 71
12
 72
11
 73
32
 74
32
 0
VERTEX
 8
MESH_224_F0
 10
0
 20
0
 30
0
 70
128
 71
12
 72
32
 73
13
 74
13
 0
VERTEX
 8
MESH_224_F0
 10
0
 20
0
 30
0
 70
128
 71
32
 72
14
 73
13
 74
13
 0
VERTEX
 8
MESH_224_F0
 10
0
 20
0
 30
0
 70
128
 71
15
 72
14
 73
32
 74
32
 0
VERTEX
 8
MESH_224_F0
 10
0
 20
0
 30
0
 70
128
 71
15
 72
32
 73
16
 74
16
 0
VERTEX
 8
MESH_224_F0
 10
0
 20
0
 30
0
 70
128
 71
32
 72
30
 73
16
 74
16
 0
VERTEX
 8
MESH_224_F0
 10
0
 20
0
 30
0
 70
128
 71
30
 72
29
 73
16
 74
16
 0
VERTEX
 8
MESH_224_F0
 10
0
 20
0
 30
0
 70
128
 71
29
 72
17
 73
16
 74
16
 0
VERTEX
 8
MESH_224_F0
 10
0
 20
0
 30
0
 70
128
 71
28
 72
17
 73
29
 74
29
 0
VERTEX
 8
MESH_224_F0
 10
0
 20
0
 30
0
 70
128
 71
27
 72
17
 73
28
 74
28
 0
VERTEX
 8
MESH_224_F0
 10
0
 20
0
 30
0
 70
128
 71
26
 72
17
 73
27
 74
27
 0
VERTEX
 8
MESH_224_F0
 10
0
 20
0
 30
0
 70
128
 71
25
 72
17
 73
26
 74
26
 0
VERTEX
 8
MESH_224_F0
 10
0
 20
0
 30
0
 70
128
 71
24
 72
17
 73
25
 74
25
 0
VERTEX
 8
MESH_224_F0
 10
0
 20
0
 30
0
 70
128
 71
23
 72
17
 73
24
 74
24
 0
VERTEX
 8
MESH_224_F0
 10
0
 20
0
 30
0
 70
128
 71
22
 72
17
 73
23
 74
23
 0
VERTEX
 8
MESH_224_F0
 10
0
 20
0
 30
0
 70
128
 71
21
 72
17
 73
22
 74
22
 0
VERTEX
 8
MESH_224_F0
 10
0
 20
0
 30
0
 70
128
 71
20
 72
17
 73
21
 74
21
 0
VERTEX
 8
MESH_224_F0
 10
0
 20
0
 30
0
 70
128
 71
19
 72
17
 73
20
 74
20
 0
VERTEX
 8
MESH_224_F0
 10
0
 20
0
 30
0
 70
128
 71
18
 72
17
 73
19
 74
19
 0
VERTEX
 8
MESH_224_F0
 10
0
 20
0
 30
0
 70
128
 71
32
 72
31
 73
30
 74
30
 0
SEQEND
 0
POLYLINE
 8
MESH_223_F0
 66
1
 10
0.0
 20
0.0
 30
0.0
 70
64
 71
4
 72
2
 0
VERTEX
 8
MESH_223_F0
 10
-326
 20
-297
 30
820.0001
 70
192
 0
VERTEX
 8
MESH_223_F0
 10
-326
 20
-297
 30
844.9999
 70
192
 0
VERTEX
 8
MESH_223_F0
 10
-326
 20
0
 30
844.9999
 70
192
 0
VERTEX
 8
MESH_223_F0
 10
-326
 20
0
 30
820.0001
 70
192
 0
VERTEX
 8
MESH_223_F0
 10
0
 20
0
 30
0
 70
128
 71
1
 72
3
 73
2
 74
2
 0
VERTEX
 8
MESH_223_F0
 10
0
 20
0
 30
0
 70
128
 71
4
 72
3
 73
1
 74
1
 0
SEQEND
 0
POLYLINE
 8
MESH_222_F0
 66
1
 10
0.0
 20
0.0
 30
0.0
 70
64
 71
30
 72
28
 0
VERTEX
 8
MESH_222_F0
 10
-326
 20
-297
 30
844.9999
 70
192
 0
VERTEX
 8
MESH_222_F0
 10
-326
 20
-297
 30
820.0001
 70
192
 0
VERTEX
 8
MESH_222_F0
 10
-325.8321
 20
-299.9408
 30
820.0001
 70
192
 0
VERTEX
 8
MESH_222_F0
 10
-325.3417
 20
-302.8135
 30
820.0001
 70
192
 0
VERTEX
 8
MESH_222_F0
 10
-324.532
 20
-305.6102
 30
820.0001
 70
192
 0
VERTEX
 8
MESH_222_F0
 10
-323.4127
 20
-308.3068
 30
820.0001
 70
192
 0
VERTEX
 8
MESH_222_F0
 10
-322.0038
 20
-310.8508
 30
820.0001
 70
192
 0
VERTEX
 8
MESH_222_F0
 10
-320.3204
 20
-313.2197
 30
820.0001
 70
192
 0
VERTEX
 8
MESH_222_F0
 10
-318.3844
 20
-315.3844
 30
820.0001
 70
192
 0
VERTEX
 8
MESH_222_F0
 10
-316.2197
 20
-317.3204
 30
820.0001
 70
192
 0
VERTEX
 8
MESH_222_F0
 10
-313.8508
 20
-319.0038
 30
820.0001
 70
192
 0
VERTEX
 8
MESH_222_F0
 10
-311.3068
 20
-320.4127
 30
820.0001
 70
192
 0
VERTEX
 8
MESH_222_F0
 10
-308.6102
 20
-321.532
 30
820.0001
 70
192
 0
VERTEX
 8
MESH_222_F0
 10
-305.8135
 20
-322.3417
 30
820.0001
 70
192
 0
VERTEX
 8
MESH_222_F0
 10
-302.9408
 20
-322.8321
 30
820.0001
 70
192
 0
VERTEX
 8
MESH_222_F0
 10
-300
 20
-323
 30
820.0001
 70
192
 0
VERTEX
 8
MESH_222_F0
 10
-300
 20
-323
 30
844.9999
 70
192
 0
VERTEX
 8
MESH_222_F0
 10
-302.9408
 20
-322.8321
 30
844.9999
 70
192
 0
VERTEX
 8
MESH_222_F0
 10
-305.8135
 20
-322.3417
 30
844.9999
 70
192
 0
VERTEX
 8
MESH_222_F0
 10
-308.6102
 20
-321.532
 30
844.9999
 70
192
 0
VERTEX
 8
MESH_222_F0
 10
-311.3068
 20
-320.4127
 30
844.9999
 70
192
 0
VERTEX
 8
MESH_222_F0
 10
-313.8508
 20
-319.0038
 30
844.9999
 70
192
 0
VERTEX
 8
MESH_222_F0
 10
-316.2197
 20
-317.3204
 30
844.9999
 70
192
 0
VERTEX
 8
MESH_222_F0
 10
-318.3844
 20
-315.3844
 30
844.9999
 70
192
 0
VERTEX
 8
MESH_222_F0
 10
-320.3204
 20
-313.2197
 30
844.9999
 70
192
 0
VERTEX
 8
MESH_222_F0
 10
-322.0038
 20
-310.8508
 30
844.9999
 70
192
 0
VERTEX
 8
MESH_222_F0
 10
-323.4127
 20
-308.3068
 30
844.9999
 70
192
 0
VERTEX
 8
MESH_222_F0
 10
-324.532
 20
-305.6102
 30
844.9999
 70
192
 0
VERTEX
 8
MESH_222_F0
 10
-325.3417
 20
-302.8135
 30
844.9999
 70
192
 0
VERTEX
 8
MESH_222_F0
 10
-325.8321
 20
-299.9408
 30
844.9999
 70
192
 0
VERTEX
 8
MESH_222_F0
 10
0
 20
0
 30
0
 70
128
 71
30
 72
2
 73
1
 74
1
 0
VERTEX
 8
MESH_222_F0
 10
0
 20
0
 30
0
 70
128
 71
3
 72
2
 73
30
 74
30
 0
VERTEX
 8
MESH_222_F0
 10
0
 20
0
 30
0
 70
128
 71
3
 72
30
 73
4
 74
4
 0
VERTEX
 8
MESH_222_F0
 10
0
 20
0
 30
0
 70
128
 71
30
 72
29
 73
4
 74
4
 0
VERTEX
 8
MESH_222_F0
 10
0
 20
0
 30
0
 70
128
 71
29
 72
5
 73
4
 74
4
 0
VERTEX
 8
MESH_222_F0
 10
0
 20
0
 30
0
 70
128
 71
28
 72
5
 73
29
 74
29
 0
VERTEX
 8
MESH_222_F0
 10
0
 20
0
 30
0
 70
128
 71
6
 72
5
 73
28
 74
28
 0
VERTEX
 8
MESH_222_F0
 10
0
 20
0
 30
0
 70
128
 71
7
 72
6
 73
27
 74
27
 0
VERTEX
 8
MESH_222_F0
 10
0
 20
0
 30
0
 70
128
 71
8
 72
7
 73
26
 74
26
 0
VERTEX
 8
MESH_222_F0
 10
0
 20
0
 30
0
 70
128
 71
9
 72
8
 73
25
 74
25
 0
VERTEX
 8
MESH_222_F0
 10
0
 20
0
 30
0
 70
128
 71
10
 72
9
 73
24
 74
24
 0
VERTEX
 8
MESH_222_F0
 10
0
 20
0
 30
0
 70
128
 71
11
 72
10
 73
23
 74
23
 0
VERTEX
 8
MESH_222_F0
 10
0
 20
0
 30
0
 70
128
 71
12
 72
11
 73
22
 74
22
 0
VERTEX
 8
MESH_222_F0
 10
0
 20
0
 30
0
 70
128
 71
13
 72
12
 73
21
 74
21
 0
VERTEX
 8
MESH_222_F0
 10
0
 20
0
 30
0
 70
128
 71
14
 72
13
 73
20
 74
20
 0
VERTEX
 8
MESH_222_F0
 10
0
 20
0
 30
0
 70
128
 71
15
 72
14
 73
19
 74
19
 0
VERTEX
 8
MESH_222_F0
 10
0
 20
0
 30
0
 70
128
 71
17
 72
15
 73
18
 74
18
 0
VERTEX
 8
MESH_222_F0
 10
0
 20
0
 30
0
 70
128
 71
15
 72
19
 73
18
 74
18
 0
VERTEX
 8
MESH_222_F0
 10
0
 20
0
 30
0
 70
128
 71
17
 72
16
 73
15
 74
15
 0
VERTEX
 8
MESH_222_F0
 10
0
 20
0
 30
0
 70
128
 71
14
 72
20
 73
19
 74
19
 0
VERTEX
 8
MESH_222_F0
 10
0
 20
0
 30
0
 70
128
 71
13
 72
21
 73
20
 74
20
 0
VERTEX
 8
MESH_222_F0
 10
0
 20
0
 30
0
 70
128
 71
12
 72
22
 73
21
 74
21
 0
VERTEX
 8
MESH_222_F0
 10
0
 20
0
 30
0
 70
128
 71
11
 72
23
 73
22
 74
22
 0
VERTEX
 8
MESH_222_F0
 10
0
 20
0
 30
0
 70
128
 71
10
 72
24
 73
23
 74
23
 0
VERTEX
 8
MESH_222_F0
 10
0
 20
0
 30
0
 70
128
 71
9
 72
25
 73
24
 74
24
 0
VERTEX
 8
MESH_222_F0
 10
0
 20
0
 30
0
 70
128
 71
8
 72
26
 73
25
 74
25
 0
VERTEX
 8
MESH_222_F0
 10
0
 20
0
 30
0
 70
128
 71
7
 72
27
 73
26
 74
26
 0
VERTEX
 8
MESH_222_F0
 10
0
 20
0
 30
0
 70
128
 71
6
 72
28
 73
27
 74
27
 0
SEQEND
 0
POLYLINE
 8
MESH_221_F0
 66
1
 10
0.0
 20
0.0
 30
0.0
 70
64
 71
4
 72
2
 0
VERTEX
 8
MESH_221_F0
 10
-300
 20
-323
 30
844.9999
 70
192
 0
VERTEX
 8
MESH_221_F0
 10
-300
 20
-323
 30
820.0001
 70
192
 0
VERTEX
 8
MESH_221_F0
 10
300
 20
-323
 30
820.0001
 70
192
 0
VERTEX
 8
MESH_221_F0
 10
300
 20
-323
 30
844.9999
 70
192
 0
VERTEX
 8
MESH_221_F0
 10
0
 20
0
 30
0
 70
128
 71
1
 72
3
 73
2
 74
2
 0
VERTEX
 8
MESH_221_F0
 10
0
 20
0
 30
0
 70
128
 71
4
 72
3
 73
1
 74
1
 0
SEQEND
 0
POLYLINE
 8
MESH_220_F0
 66
1
 10
0.0
 20
0.0
 30
0.0
 70
64
 71
30
 72
28
 0
VERTEX
 8
MESH_220_F0
 10
300
 20
-323
 30
844.9999
 70
192
 0
VERTEX
 8
MESH_220_F0
 10
300
 20
-323
 30
820.0001
 70
192
 0
VERTEX
 8
MESH_220_F0
 10
302.9408
 20
-322.8321
 30
820.0001
 70
192
 0
VERTEX
 8
MESH_220_F0
 10
305.8135
 20
-322.3417
 30
820.0001
 70
192
 0
VERTEX
 8
MESH_220_F0
 10
308.6102
 20
-321.532
 30
820.0001
 70
192
 0
VERTEX
 8
MESH_220_F0
 10
311.3068
 20
-320.4127
 30
820.0001
 70
192
 0
VERTEX
 8
MESH_220_F0
 10
313.8508
 20
-319.0038
 30
820.0001
 70
192
 0
VERTEX
 8
MESH_220_F0
 10
316.2197
 20
-317.3204
 30
820.0001
 70
192
 0
VERTEX
 8
MESH_220_F0
 10
318.3844
 20
-315.3844
 30
820.0001
 70
192
 0
VERTEX
 8
MESH_220_F0
 10
320.3204
 20
-313.2197
 30
820.0001
 70
192
 0
VERTEX
 8
MESH_220_F0
 10
322.0038
 20
-310.8508
 30
820.0001
 70
192
 0
VERTEX
 8
MESH_220_F0
 10
323.4127
 20
-308.3068
 30
820.0001
 70
192
 0
VERTEX
 8
MESH_220_F0
 10
324.532
 20
-305.6102
 30
820.0001
 70
192
 0
VERTEX
 8
MESH_220_F0
 10
325.3417
 20
-302.8135
 30
820.0001
 70
192
 0
VERTEX
 8
MESH_220_F0
 10
325.8321
 20
-299.9408
 30
820.0001
 70
192
 0
VERTEX
 8
MESH_220_F0
 10
326
 20
-297
 30
820.0001
 70
192
 0
VERTEX
 8
MESH_220_F0
 10
326
 20
-297
 30
844.9999
 70
192
 0
VERTEX
 8
MESH_220_F0
 10
325.8321
 20
-299.9408
 30
844.9999
 70
192
 0
VERTEX
 8
MESH_220_F0
 10
325.3417
 20
-302.8135
 30
844.9999
 70
192
 0
VERTEX
 8
MESH_220_F0
 10
324.532
 20
-305.6102
 30
844.9999
 70
192
 0
VERTEX
 8
MESH_220_F0
 10
323.4127
 20
-308.3068
 30
844.9999
 70
192
 0
VERTEX
 8
MESH_220_F0
 10
322.0038
 20
-310.8508
 30
844.9999
 70
192
 0
VERTEX
 8
MESH_220_F0
 10
320.3204
 20
-313.2197
 30
844.9999
 70
192
 0
VERTEX
 8
MESH_220_F0
 10
318.3844
 20
-315.3844
 30
844.9999
 70
192
 0
VERTEX
 8
MESH_220_F0
 10
316.2197
 20
-317.3204
 30
844.9999
 70
192
 0
VERTEX
 8
MESH_220_F0
 10
313.8508
 20
-319.0038
 30
844.9999
 70
192
 0
VERTEX
 8
MESH_220_F0
 10
311.3068
 20
-320.4127
 30
844.9999
 70
192
 0
VERTEX
 8
MESH_220_F0
 10
308.6102
 20
-321.532
 30
844.9999
 70
192
 0
VERTEX
 8
MESH_220_F0
 10
305.8135
 20
-322.3417
 30
844.9999
 70
192
 0
VERTEX
 8
MESH_220_F0
 10
302.9408
 20
-322.8321
 30
844.9999
 70
192
 0
VERTEX
 8
MESH_220_F0
 10
0
 20
0
 30
0
 70
128
 71
30
 72
2
 73
1
 74
1
 0
VERTEX
 8
MESH_220_F0
 10
0
 20
0
 30
0
 70
128
 71
3
 72
2
 73
30
 74
30
 0
VERTEX
 8
MESH_220_F0
 10
0
 20
0
 30
0
 70
128
 71
3
 72
30
 73
4
 74
4
 0
VERTEX
 8
MESH_220_F0
 10
0
 20
0
 30
0
 70
128
 71
30
 72
29
 73
4
 74
4
 0
VERTEX
 8
MESH_220_F0
 10
0
 20
0
 30
0
 70
128
 71
29
 72
5
 73
4
 74
4
 0
VERTEX
 8
MESH_220_F0
 10
0
 20
0
 30
0
 70
128
 71
28
 72
5
 73
29
 74
29
 0
VERTEX
 8
MESH_220_F0
 10
0
 20
0
 30
0
 70
128
 71
6
 72
5
 73
28
 74
28
 0
VERTEX
 8
MESH_220_F0
 10
0
 20
0
 30
0
 70
128
 71
7
 72
6
 73
27
 74
27
 0
VERTEX
 8
MESH_220_F0
 10
0
 20
0
 30
0
 70
128
 71
8
 72
7
 73
26
 74
26
 0
VERTEX
 8
MESH_220_F0
 10
0
 20
0
 30
0
 70
128
 71
9
 72
8
 73
25
 74
25
 0
VERTEX
 8
MESH_220_F0
 10
0
 20
0
 30
0
 70
128
 71
10
 72
9
 73
24
 74
24
 0
VERTEX
 8
MESH_220_F0
 10
0
 20
0
 30
0
 70
128
 71
11
 72
10
 73
23
 74
23
 0
VERTEX
 8
MESH_220_F0
 10
0
 20
0
 30
0
 70
128
 71
12
 72
11
 73
22
 74
22
 0
VERTEX
 8
MESH_220_F0
 10
0
 20
0
 30
0
 70
128
 71
13
 72
12
 73
21
 74
21
 0
VERTEX
 8
MESH_220_F0
 10
0
 20
0
 30
0
 70
128
 71
14
 72
13
 73
20
 74
20
 0
VERTEX
 8
MESH_220_F0
 10
0
 20
0
 30
0
 70
128
 71
15
 72
14
 73
19
 74
19
 0
VERTEX
 8
MESH_220_F0
 10
0
 20
0
 30
0
 70
128
 71
17
 72
15
 73
18
 74
18
 0
VERTEX
 8
MESH_220_F0
 10
0
 20
0
 30
0
 70
128
 71
15
 72
19
 73
18
 74
18
 0
VERTEX
 8
MESH_220_F0
 10
0
 20
0
 30
0
 70
128
 71
17
 72
16
 73
15
 74
15
 0
VERTEX
 8
MESH_220_F0
 10
0
 20
0
 30
0
 70
128
 71
14
 72
20
 73
19
 74
19
 0
VERTEX
 8
MESH_220_F0
 10
0
 20
0
 30
0
 70
128
 71
13
 72
21
 73
20
 74
20
 0
VERTEX
 8
MESH_220_F0
 10
0
 20
0
 30
0
 70
128
 71
12
 72
22
 73
21
 74
21
 0
VERTEX
 8
MESH_220_F0
 10
0
 20
0
 30
0
 70
128
 71
11
 72
23
 73
22
 74
22
 0
VERTEX
 8
MESH_220_F0
 10
0
 20
0
 30
0
 70
128
 71
10
 72
24
 73
23
 74
23
 0
VERTEX
 8
MESH_220_F0
 10
0
 20
0
 30
0
 70
128
 71
9
 72
25
 73
24
 74
24
 0
VERTEX
 8
MESH_220_F0
 10
0
 20
0
 30
0
 70
128
 71
8
 72
26
 73
25
 74
25
 0
VERTEX
 8
MESH_220_F0
 10
0
 20
0
 30
0
 70
128
 71
7
 72
27
 73
26
 74
26
 0
VERTEX
 8
MESH_220_F0
 10
0
 20
0
 30
0
 70
128
 71
6
 72
28
 73
27
 74
27
 0
SEQEND
 0
POLYLINE
 8
MESH_219_F0
 66
1
 10
0.0
 20
0.0
 30
0.0
 70
64
 71
4
 72
2
 0
VERTEX
 8
MESH_219_F0
 10
326
 20
-297
 30
844.9999
 70
192
 0
VERTEX
 8
MESH_219_F0
 10
326
 20
-297
 30
820.0001
 70
192
 0
VERTEX
 8
MESH_219_F0
 10
326
 20
0
 30
820.0001
 70
192
 0
VERTEX
 8
MESH_219_F0
 10
326
 20
0
 30
844.9999
 70
192
 0
VERTEX
 8
MESH_219_F0
 10
0
 20
0
 30
0
 70
128
 71
1
 72
3
 73
2
 74
2
 0
VERTEX
 8
MESH_219_F0
 10
0
 20
0
 30
0
 70
128
 71
4
 72
3
 73
1
 74
1
 0
SEQEND
 0
POLYLINE
 8
MESH_218_F0
 66
1
 10
0.0
 20
0.0
 30
0.0
 70
64
 71
4
 72
2
 0
VERTEX
 8
MESH_218_F0
 10
307
 20
0
 30
0
 70
192
 0
VERTEX
 8
MESH_218_F0
 10
325
 20
0
 30
0
 70
192
 0
VERTEX
 8
MESH_218_F0
 10
325
 20
-295
 30
0
 70
192
 0
VERTEX
 8
MESH_218_F0
 10
307
 20
-295
 30
0
 70
192
 0
VERTEX
 8
MESH_218_F0
 10
0
 20
0
 30
0
 70
128
 71
1
 72
3
 73
2
 74
2
 0
VERTEX
 8
MESH_218_F0
 10
0
 20
0
 30
0
 70
128
 71
4
 72
3
 73
1
 74
1
 0
SEQEND
 0
POLYLINE
 8
MESH_217_F0
 66
1
 10
0.0
 20
0.0
 30
0.0
 70
64
 71
4
 72
2
 0
VERTEX
 8
MESH_217_F0
 10
325
 20
-295
 30
820.0001
 70
192
 0
VERTEX
 8
MESH_217_F0
 10
325
 20
-295
 30
0
 70
192
 0
VERTEX
 8
MESH_217_F0
 10
325
 20
0
 30
0
 70
192
 0
VERTEX
 8
MESH_217_F0
 10
325
 20
0
 30
820.0001
 70
192
 0
VERTEX
 8
MESH_217_F0
 10
0
 20
0
 30
0
 70
128
 71
1
 72
3
 73
2
 74
2
 0
VERTEX
 8
MESH_217_F0
 10
0
 20
0
 30
0
 70
128
 71
4
 72
3
 73
1
 74
1
 0
SEQEND
 0
POLYLINE
 8
MESH_216_F0
 66
1
 10
0.0
 20
0.0
 30
0.0
 70
64
 71
36
 72
34
 0
VERTEX
 8
MESH_216_F0
 10
325
 20
-295
 30
820.0001
 70
192
 0
VERTEX
 8
MESH_216_F0
 10
325
 20
0
 30
820.0001
 70
192
 0
VERTEX
 8
MESH_216_F0
 10
326
 20
0
 30
820.0001
 70
192
 0
VERTEX
 8
MESH_216_F0
 10
326
 20
-297
 30
820.0001
 70
192
 0
VERTEX
 8
MESH_216_F0
 10
325.8321
 20
-299.9408
 30
820.0001
 70
192
 0
VERTEX
 8
MESH_216_F0
 10
325.3417
 20
-302.8135
 30
820.0001
 70
192
 0
VERTEX
 8
MESH_216_F0
 10
324.532
 20
-305.6102
 30
820.0001
 70
192
 0
VERTEX
 8
MESH_216_F0
 10
323.4127
 20
-308.3068
 30
820.0001
 70
192
 0
VERTEX
 8
MESH_216_F0
 10
322.0038
 20
-310.8508
 30
820.0001
 70
192
 0
VERTEX
 8
MESH_216_F0
 10
320.3204
 20
-313.2197
 30
820.0001
 70
192
 0
VERTEX
 8
MESH_216_F0
 10
318.3844
 20
-315.3844
 30
820.0001
 70
192
 0
VERTEX
 8
MESH_216_F0
 10
316.2197
 20
-317.3204
 30
820.0001
 70
192
 0
VERTEX
 8
MESH_216_F0
 10
313.8508
 20
-319.0038
 30
820.0001
 70
192
 0
VERTEX
 8
MESH_216_F0
 10
311.3068
 20
-320.4127
 30
820.0001
 70
192
 0
VERTEX
 8
MESH_216_F0
 10
308.6102
 20
-321.532
 30
820.0001
 70
192
 0
VERTEX
 8
MESH_216_F0
 10
305.8135
 20
-322.3417
 30
820.0001
 70
192
 0
VERTEX
 8
MESH_216_F0
 10
302.9408
 20
-322.8321
 30
820.0001
 70
192
 0
VERTEX
 8
MESH_216_F0
 10
300
 20
-323
 30
820.0001
 70
192
 0
VERTEX
 8
MESH_216_F0
 10
-300
 20
-323
 30
820.0001
 70
192
 0
VERTEX
 8
MESH_216_F0
 10
-302.9408
 20
-322.8321
 30
820.0001
 70
192
 0
VERTEX
 8
MESH_216_F0
 10
-305.8135
 20
-322.3417
 30
820.0001
 70
192
 0
VERTEX
 8
MESH_216_F0
 10
-308.6102
 20
-321.532
 30
820.0001
 70
192
 0
VERTEX
 8
MESH_216_F0
 10
-311.3068
 20
-320.4127
 30
820.0001
 70
192
 0
VERTEX
 8
MESH_216_F0
 10
-313.8508
 20
-319.0038
 30
820.0001
 70
192
 0
VERTEX
 8
MESH_216_F0
 10
-316.2197
 20
-317.3204
 30
820.0001
 70
192
 0
VERTEX
 8
MESH_216_F0
 10
-318.3844
 20
-315.3844
 30
820.0001
 70
192
 0
VERTEX
 8
MESH_216_F0
 10
-320.3204
 20
-313.2197
 30
820.0001
 70
192
 0
VERTEX
 8
MESH_216_F0
 10
-322.0038
 20
-310.8508
 30
820.0001
 70
192
 0
VERTEX
 8
MESH_216_F0
 10
-323.4127
 20
-308.3068
 30
820.0001
 70
192
 0
VERTEX
 8
MESH_216_F0
 10
-324.532
 20
-305.6102
 30
820.0001
 70
192
 0
VERTEX
 8
MESH_216_F0
 10
-325.3417
 20
-302.8135
 30
820.0001
 70
192
 0
VERTEX
 8
MESH_216_F0
 10
-325.8321
 20
-299.9408
 30
820.0001
 70
192
 0
VERTEX
 8
MESH_216_F0
 10
-326
 20
-297
 30
820.0001
 70
192
 0
VERTEX
 8
MESH_216_F0
 10
-326
 20
0
 30
820.0001
 70
192
 0
VERTEX
 8
MESH_216_F0
 10
-325
 20
0
 30
820.0001
 70
192
 0
VERTEX
 8
MESH_216_F0
 10
-325
 20
-295
 30
820.0001
 70
192
 0
VERTEX
 8
MESH_216_F0
 10
0
 20
0
 30
0
 70
128
 71
1
 72
4
 73
2
 74
2
 0
VERTEX
 8
MESH_216_F0
 10
0
 20
0
 30
0
 70
128
 71
4
 72
3
 73
2
 74
2
 0
VERTEX
 8
MESH_216_F0
 10
0
 20
0
 30
0
 70
128
 71
1
 72
5
 73
4
 74
4
 0
VERTEX
 8
MESH_216_F0
 10
0
 20
0
 30
0
 70
128
 71
6
 72
5
 73
1
 74
1
 0
VERTEX
 8
MESH_216_F0
 10
0
 20
0
 30
0
 70
128
 71
7
 72
6
 73
18
 74
18
 0
VERTEX
 8
MESH_216_F0
 10
0
 20
0
 30
0
 70
128
 71
7
 72
18
 73
8
 74
8
 0
VERTEX
 8
MESH_216_F0
 10
0
 20
0
 30
0
 70
128
 71
18
 72
9
 73
8
 74
8
 0
VERTEX
 8
MESH_216_F0
 10
0
 20
0
 30
0
 70
128
 71
10
 72
9
 73
18
 74
18
 0
VERTEX
 8
MESH_216_F0
 10
0
 20
0
 30
0
 70
128
 71
10
 72
18
 73
11
 74
11
 0
VERTEX
 8
MESH_216_F0
 10
0
 20
0
 30
0
 70
128
 71
18
 72
12
 73
11
 74
11
 0
VERTEX
 8
MESH_216_F0
 10
0
 20
0
 30
0
 70
128
 71
13
 72
12
 73
18
 74
18
 0
VERTEX
 8
MESH_216_F0
 10
0
 20
0
 30
0
 70
128
 71
13
 72
18
 73
14
 74
14
 0
VERTEX
 8
MESH_216_F0
 10
0
 20
0
 30
0
 70
128
 71
18
 72
15
 73
14
 74
14
 0
VERTEX
 8
MESH_216_F0
 10
0
 20
0
 30
0
 70
128
 71
16
 72
15
 73
18
 74
18
 0
VERTEX
 8
MESH_216_F0
 10
0
 20
0
 30
0
 70
128
 71
16
 72
18
 73
17
 74
17
 0
VERTEX
 8
MESH_216_F0
 10
0
 20
0
 30
0
 70
128
 71
18
 72
36
 73
19
 74
19
 0
VERTEX
 8
MESH_216_F0
 10
0
 20
0
 30
0
 70
128
 71
36
 72
20
 73
19
 74
19
 0
VERTEX
 8
MESH_216_F0
 10
0
 20
0
 30
0
 70
128
 71
21
 72
20
 73
36
 74
36
 0
VERTEX
 8
MESH_216_F0
 10
0
 20
0
 30
0
 70
128
 71
21
 72
36
 73
22
 74
22
 0
VERTEX
 8
MESH_216_F0
 10
0
 20
0
 30
0
 70
128
 71
36
 72
23
 73
22
 74
22
 0
VERTEX
 8
MESH_216_F0
 10
0
 20
0
 30
0
 70
128
 71
24
 72
23
 73
36
 74
36
 0
VERTEX
 8
MESH_216_F0
 10
0
 20
0
 30
0
 70
128
 71
24
 72
36
 73
25
 74
25
 0
VERTEX
 8
MESH_216_F0
 10
0
 20
0
 30
0
 70
128
 71
36
 72
26
 73
25
 74
25
 0
VERTEX
 8
MESH_216_F0
 10
0
 20
0
 30
0
 70
128
 71
27
 72
26
 73
36
 74
36
 0
VERTEX
 8
MESH_216_F0
 10
0
 20
0
 30
0
 70
128
 71
27
 72
36
 73
28
 74
28
 0
VERTEX
 8
MESH_216_F0
 10
0
 20
0
 30
0
 70
128
 71
36
 72
29
 73
28
 74
28
 0
VERTEX
 8
MESH_216_F0
 10
0
 20
0
 30
0
 70
128
 71
30
 72
29
 73
36
 74
36
 0
VERTEX
 8
MESH_216_F0
 10
0
 20
0
 30
0
 70
128
 71
30
 72
36
 73
31
 74
31
 0
VERTEX
 8
MESH_216_F0
 10
0
 20
0
 30
0
 70
128
 71
36
 72
32
 73
31
 74
31
 0
VERTEX
 8
MESH_216_F0
 10
0
 20
0
 30
0
 70
128
 71
33
 72
32
 73
36
 74
36
 0
VERTEX
 8
MESH_216_F0
 10
0
 20
0
 30
0
 70
128
 71
33
 72
36
 73
34
 74
34
 0
VERTEX
 8
MESH_216_F0
 10
0
 20
0
 30
0
 70
128
 71
36
 72
35
 73
34
 74
34
 0
VERTEX
 8
MESH_216_F0
 10
0
 20
0
 30
0
 70
128
 71
18
 72
1
 73
36
 74
36
 0
VERTEX
 8
MESH_216_F0
 10
0
 20
0
 30
0
 70
128
 71
6
 72
1
 73
18
 74
18
 0
SEQEND
 0
POLYLINE
 8
MESH_215_F0
 66
1
 10
0.0
 20
0.0
 30
0.0
 70
64
 71
4
 72
2
 0
VERTEX
 8
MESH_215_F0
 10
-325
 20
0
 30
820.0001
 70
192
 0
VERTEX
 8
MESH_215_F0
 10
-325
 20
0
 30
0
 70
192
 0
VERTEX
 8
MESH_215_F0
 10
-325
 20
-295
 30
0
 70
192
 0
VERTEX
 8
MESH_215_F0
 10
-325
 20
-295
 30
820.0001
 70
192
 0
VERTEX
 8
MESH_215_F0
 10
0
 20
0
 30
0
 70
128
 71
1
 72
3
 73
2
 74
2
 0
VERTEX
 8
MESH_215_F0
 10
0
 20
0
 30
0
 70
128
 71
4
 72
3
 73
1
 74
1
 0
SEQEND
 0
POLYLINE
 8
MESH_214_F0
 66
1
 10
0.0
 20
0.0
 30
0.0
 70
64
 71
30
 72
28
 0
VERTEX
 8
MESH_214_F0
 10
-298.5
 20
-324.5
 30
650
 70
192
 0
VERTEX
 8
MESH_214_F0
 10
-298.5
 20
-324.5
 30
654
 70
192
 0
VERTEX
 8
MESH_214_F0
 10
-301.3842
 20
-324.3353
 30
654
 70
192
 0
VERTEX
 8
MESH_214_F0
 10
-304.2017
 20
-323.8544
 30
654
 70
192
 0
VERTEX
 8
MESH_214_F0
 10
-306.9446
 20
-323.0602
 30
654
 70
192
 0
VERTEX
 8
MESH_214_F0
 10
-309.5894
 20
-321.9624
 30
654
 70
192
 0
VERTEX
 8
MESH_214_F0
 10
-312.0845
 20
-320.5807
 30
654
 70
192
 0
VERTEX
 8
MESH_214_F0
 10
-314.4077
 20
-318.9296
 30
654
 70
192
 0
VERTEX
 8
MESH_214_F0
 10
-316.5308
 20
-317.0308
 30
654
 70
192
 0
VERTEX
 8
MESH_214_F0
 10
-318.4296
 20
-314.9077
 30
654
 70
192
 0
VERTEX
 8
MESH_214_F0
 10
-320.0807
 20
-312.5844
 30
654
 70
192
 0
VERTEX
 8
MESH_214_F0
 10
-321.4624
 20
-310.0894
 30
654
 70
192
 0
VERTEX
 8
MESH_214_F0
 10
-322.5602
 20
-307.4446
 30
654
 70
192
 0
VERTEX
 8
MESH_214_F0
 10
-323.3544
 20
-304.7017
 30
654
 70
192
 0
VERTEX
 8
MESH_214_F0
 10
-323.8353
 20
-301.8842
 30
654
 70
192
 0
VERTEX
 8
MESH_214_F0
 10
-324
 20
-299
 30
654
 70
192
 0
VERTEX
 8
MESH_214_F0
 10
-324
 20
-299
 30
650
 70
192
 0
VERTEX
 8
MESH_214_F0
 10
-323.8353
 20
-301.8842
 30
650
 70
192
 0
VERTEX
 8
MESH_214_F0
 10
-323.3544
 20
-304.7017
 30
650
 70
192
 0
VERTEX
 8
MESH_214_F0
 10
-322.5602
 20
-307.4446
 30
650
 70
192
 0
VERTEX
 8
MESH_214_F0
 10
-321.4624
 20
-310.0894
 30
650
 70
192
 0
VERTEX
 8
MESH_214_F0
 10
-320.0807
 20
-312.5844
 30
650
 70
192
 0
VERTEX
 8
MESH_214_F0
 10
-318.4296
 20
-314.9077
 30
650
 70
192
 0
VERTEX
 8
MESH_214_F0
 10
-316.5308
 20
-317.0308
 30
650
 70
192
 0
VERTEX
 8
MESH_214_F0
 10
-314.4077
 20
-318.9296
 30
650
 70
192
 0
VERTEX
 8
MESH_214_F0
 10
-312.0845
 20
-320.5807
 30
650
 70
192
 0
VERTEX
 8
MESH_214_F0
 10
-309.5894
 20
-321.9624
 30
650
 70
192
 0
VERTEX
 8
MESH_214_F0
 10
-306.9446
 20
-323.0602
 30
650
 70
192
 0
VERTEX
 8
MESH_214_F0
 10
-304.2017
 20
-323.8544
 30
650
 70
192
 0
VERTEX
 8
MESH_214_F0
 10
-301.3842
 20
-324.3353
 30
650
 70
192
 0
VERTEX
 8
MESH_214_F0
 10
0
 20
0
 30
0
 70
128
 71
30
 72
2
 73
1
 74
1
 0
VERTEX
 8
MESH_214_F0
 10
0
 20
0
 30
0
 70
128
 71
3
 72
2
 73
30
 74
30
 0
VERTEX
 8
MESH_214_F0
 10
0
 20
0
 30
0
 70
128
 71
3
 72
30
 73
4
 74
4
 0
VERTEX
 8
MESH_214_F0
 10
0
 20
0
 30
0
 70
128
 71
30
 72
29
 73
4
 74
4
 0
VERTEX
 8
MESH_214_F0
 10
0
 20
0
 30
0
 70
128
 71
29
 72
5
 73
4
 74
4
 0
VERTEX
 8
MESH_214_F0
 10
0
 20
0
 30
0
 70
128
 71
28
 72
5
 73
29
 74
29
 0
VERTEX
 8
MESH_214_F0
 10
0
 20
0
 30
0
 70
128
 71
6
 72
5
 73
28
 74
28
 0
VERTEX
 8
MESH_214_F0
 10
0
 20
0
 30
0
 70
128
 71
7
 72
6
 73
27
 74
27
 0
VERTEX
 8
MESH_214_F0
 10
0
 20
0
 30
0
 70
128
 71
8
 72
7
 73
26
 74
26
 0
VERTEX
 8
MESH_214_F0
 10
0
 20
0
 30
0
 70
128
 71
9
 72
8
 73
25
 74
25
 0
VERTEX
 8
MESH_214_F0
 10
0
 20
0
 30
0
 70
128
 71
10
 72
9
 73
24
 74
24
 0
VERTEX
 8
MESH_214_F0
 10
0
 20
0
 30
0
 70
128
 71
11
 72
10
 73
23
 74
23
 0
VERTEX
 8
MESH_214_F0
 10
0
 20
0
 30
0
 70
128
 71
12
 72
11
 73
22
 74
22
 0
VERTEX
 8
MESH_214_F0
 10
0
 20
0
 30
0
 70
128
 71
13
 72
12
 73
21
 74
21
 0
VERTEX
 8
MESH_214_F0
 10
0
 20
0
 30
0
 70
128
 71
14
 72
13
 73
20
 74
20
 0
VERTEX
 8
MESH_214_F0
 10
0
 20
0
 30
0
 70
128
 71
15
 72
14
 73
19
 74
19
 0
VERTEX
 8
MESH_214_F0
 10
0
 20
0
 30
0
 70
128
 71
17
 72
15
 73
18
 74
18
 0
VERTEX
 8
MESH_214_F0
 10
0
 20
0
 30
0
 70
128
 71
15
 72
19
 73
18
 74
18
 0
VERTEX
 8
MESH_214_F0
 10
0
 20
0
 30
0
 70
128
 71
17
 72
16
 73
15
 74
15
 0
VERTEX
 8
MESH_214_F0
 10
0
 20
0
 30
0
 70
128
 71
14
 72
20
 73
19
 74
19
 0
VERTEX
 8
MESH_214_F0
 10
0
 20
0
 30
0
 70
128
 71
13
 72
21
 73
20
 74
20
 0
VERTEX
 8
MESH_214_F0
 10
0
 20
0
 30
0
 70
128
 71
12
 72
22
 73
21
 74
21
 0
VERTEX
 8
MESH_214_F0
 10
0
 20
0
 30
0
 70
128
 71
11
 72
23
 73
22
 74
22
 0
VERTEX
 8
MESH_214_F0
 10
0
 20
0
 30
0
 70
128
 71
10
 72
24
 73
23
 74
23
 0
VERTEX
 8
MESH_214_F0
 10
0
 20
0
 30
0
 70
128
 71
9
 72
25
 73
24
 74
24
 0
VERTEX
 8
MESH_214_F0
 10
0
 20
0
 30
0
 70
128
 71
8
 72
26
 73
25
 74
25
 0
VERTEX
 8
MESH_214_F0
 10
0
 20
0
 30
0
 70
128
 71
7
 72
27
 73
26
 74
26
 0
VERTEX
 8
MESH_214_F0
 10
0
 20
0
 30
0
 70
128
 71
6
 72
28
 73
27
 74
27
 0
SEQEND
 0
POLYLINE
 8
MESH_213_F0
 66
1
 10
0.0
 20
0.0
 30
0.0
 70
64
 71
4
 72
2
 0
VERTEX
 8
MESH_213_F0
 10
-298.5
 20
-324.5
 30
654
 70
192
 0
VERTEX
 8
MESH_213_F0
 10
-298.5
 20
-324.5
 30
650
 70
192
 0
VERTEX
 8
MESH_213_F0
 10
298.5
 20
-324.5
 30
650
 70
192
 0
VERTEX
 8
MESH_213_F0
 10
298.5
 20
-324.5
 30
654
 70
192
 0
VERTEX
 8
MESH_213_F0
 10
0
 20
0
 30
0
 70
128
 71
1
 72
3
 73
2
 74
2
 0
VERTEX
 8
MESH_213_F0
 10
0
 20
0
 30
0
 70
128
 71
4
 72
3
 73
1
 74
1
 0
SEQEND
 0
POLYLINE
 8
MESH_212_F0
 66
1
 10
0.0
 20
0.0
 30
0.0
 70
64
 71
30
 72
28
 0
VERTEX
 8
MESH_212_F0
 10
324
 20
-299
 30
650
 70
192
 0
VERTEX
 8
MESH_212_F0
 10
324
 20
-299
 30
654
 70
192
 0
VERTEX
 8
MESH_212_F0
 10
323.8353
 20
-301.8842
 30
654
 70
192
 0
VERTEX
 8
MESH_212_F0
 10
323.3544
 20
-304.7017
 30
654
 70
192
 0
VERTEX
 8
MESH_212_F0
 10
322.5602
 20
-307.4446
 30
654
 70
192
 0
VERTEX
 8
MESH_212_F0
 10
321.4624
 20
-310.0894
 30
654
 70
192
 0
VERTEX
 8
MESH_212_F0
 10
320.0807
 20
-312.5844
 30
654
 70
192
 0
VERTEX
 8
MESH_212_F0
 10
318.4296
 20
-314.9077
 30
654
 70
192
 0
VERTEX
 8
MESH_212_F0
 10
316.5308
 20
-317.0308
 30
654
 70
192
 0
VERTEX
 8
MESH_212_F0
 10
314.4077
 20
-318.9296
 30
654
 70
192
 0
VERTEX
 8
MESH_212_F0
 10
312.0845
 20
-320.5807
 30
654
 70
192
 0
VERTEX
 8
MESH_212_F0
 10
309.5894
 20
-321.9624
 30
654
 70
192
 0
VERTEX
 8
MESH_212_F0
 10
306.9446
 20
-323.0602
 30
654
 70
192
 0
VERTEX
 8
MESH_212_F0
 10
304.2017
 20
-323.8544
 30
654
 70
192
 0
VERTEX
 8
MESH_212_F0
 10
301.3842
 20
-324.3353
 30
654
 70
192
 0
VERTEX
 8
MESH_212_F0
 10
298.5
 20
-324.5
 30
654
 70
192
 0
VERTEX
 8
MESH_212_F0
 10
298.5
 20
-324.5
 30
650
 70
192
 0
VERTEX
 8
MESH_212_F0
 10
301.3842
 20
-324.3353
 30
650
 70
192
 0
VERTEX
 8
MESH_212_F0
 10
304.2017
 20
-323.8544
 30
650
 70
192
 0
VERTEX
 8
MESH_212_F0
 10
306.9446
 20
-323.0602
 30
650
 70
192
 0
VERTEX
 8
MESH_212_F0
 10
309.5894
 20
-321.9624
 30
650
 70
192
 0
VERTEX
 8
MESH_212_F0
 10
312.0845
 20
-320.5807
 30
650
 70
192
 0
VERTEX
 8
MESH_212_F0
 10
314.4077
 20
-318.9296
 30
650
 70
192
 0
VERTEX
 8
MESH_212_F0
 10
316.5308
 20
-317.0308
 30
650
 70
192
 0
VERTEX
 8
MESH_212_F0
 10
318.4296
 20
-314.9077
 30
650
 70
192
 0
VERTEX
 8
MESH_212_F0
 10
320.0807
 20
-312.5844
 30
650
 70
192
 0
VERTEX
 8
MESH_212_F0
 10
321.4624
 20
-310.0894
 30
650
 70
192
 0
VERTEX
 8
MESH_212_F0
 10
322.5602
 20
-307.4446
 30
650
 70
192
 0
VERTEX
 8
MESH_212_F0
 10
323.3544
 20
-304.7017
 30
650
 70
192
 0
VERTEX
 8
MESH_212_F0
 10
323.8353
 20
-301.8842
 30
650
 70
192
 0
VERTEX
 8
MESH_212_F0
 10
0
 20
0
 30
0
 70
128
 71
30
 72
2
 73
1
 74
1
 0
VERTEX
 8
MESH_212_F0
 10
0
 20
0
 30
0
 70
128
 71
3
 72
2
 73
30
 74
30
 0
VERTEX
 8
MESH_212_F0
 10
0
 20
0
 30
0
 70
128
 71
3
 72
30
 73
4
 74
4
 0
VERTEX
 8
MESH_212_F0
 10
0
 20
0
 30
0
 70
128
 71
30
 72
29
 73
4
 74
4
 0
VERTEX
 8
MESH_212_F0
 10
0
 20
0
 30
0
 70
128
 71
29
 72
5
 73
4
 74
4
 0
VERTEX
 8
MESH_212_F0
 10
0
 20
0
 30
0
 70
128
 71
28
 72
5
 73
29
 74
29
 0
VERTEX
 8
MESH_212_F0
 10
0
 20
0
 30
0
 70
128
 71
6
 72
5
 73
28
 74
28
 0
VERTEX
 8
MESH_212_F0
 10
0
 20
0
 30
0
 70
128
 71
7
 72
6
 73
27
 74
27
 0
VERTEX
 8
MESH_212_F0
 10
0
 20
0
 30
0
 70
128
 71
8
 72
7
 73
26
 74
26
 0
VERTEX
 8
MESH_212_F0
 10
0
 20
0
 30
0
 70
128
 71
9
 72
8
 73
25
 74
25
 0
VERTEX
 8
MESH_212_F0
 10
0
 20
0
 30
0
 70
128
 71
10
 72
9
 73
24
 74
24
 0
VERTEX
 8
MESH_212_F0
 10
0
 20
0
 30
0
 70
128
 71
11
 72
10
 73
23
 74
23
 0
VERTEX
 8
MESH_212_F0
 10
0
 20
0
 30
0
 70
128
 71
12
 72
11
 73
22
 74
22
 0
VERTEX
 8
MESH_212_F0
 10
0
 20
0
 30
0
 70
128
 71
13
 72
12
 73
21
 74
21
 0
VERTEX
 8
MESH_212_F0
 10
0
 20
0
 30
0
 70
128
 71
14
 72
13
 73
20
 74
20
 0
VERTEX
 8
MESH_212_F0
 10
0
 20
0
 30
0
 70
128
 71
15
 72
14
 73
19
 74
19
 0
VERTEX
 8
MESH_212_F0
 10
0
 20
0
 30
0
 70
128
 71
17
 72
15
 73
18
 74
18
 0
VERTEX
 8
MESH_212_F0
 10
0
 20
0
 30
0
 70
128
 71
15
 72
19
 73
18
 74
18
 0
VERTEX
 8
MESH_212_F0
 10
0
 20
0
 30
0
 70
128
 71
17
 72
16
 73
15
 74
15
 0
VERTEX
 8
MESH_212_F0
 10
0
 20
0
 30
0
 70
128
 71
14
 72
20
 73
19
 74
19
 0
VERTEX
 8
MESH_212_F0
 10
0
 20
0
 30
0
 70
128
 71
13
 72
21
 73
20
 74
20
 0
VERTEX
 8
MESH_212_F0
 10
0
 20
0
 30
0
 70
128
 71
12
 72
22
 73
21
 74
21
 0
VERTEX
 8
MESH_212_F0
 10
0
 20
0
 30
0
 70
128
 71
11
 72
23
 73
22
 74
22
 0
VERTEX
 8
MESH_212_F0
 10
0
 20
0
 30
0
 70
128
 71
10
 72
24
 73
23
 74
23
 0
VERTEX
 8
MESH_212_F0
 10
0
 20
0
 30
0
 70
128
 71
9
 72
25
 73
24
 74
24
 0
VERTEX
 8
MESH_212_F0
 10
0
 20
0
 30
0
 70
128
 71
8
 72
26
 73
25
 74
25
 0
VERTEX
 8
MESH_212_F0
 10
0
 20
0
 30
0
 70
128
 71
7
 72
27
 73
26
 74
26
 0
VERTEX
 8
MESH_212_F0
 10
0
 20
0
 30
0
 70
128
 71
6
 72
28
 73
27
 74
27
 0
SEQEND
 0
POLYLINE
 8
MESH_211_F0
 66
1
 10
0.0
 20
0.0
 30
0.0
 70
64
 71
4
 72
2
 0
VERTEX
 8
MESH_211_F0
 10
324
 20
-295
 30
654
 70
192
 0
VERTEX
 8
MESH_211_F0
 10
324
 20
-299
 30
654
 70
192
 0
VERTEX
 8
MESH_211_F0
 10
324
 20
-299
 30
650
 70
192
 0
VERTEX
 8
MESH_211_F0
 10
324
 20
-295
 30
650
 70
192
 0
VERTEX
 8
MESH_211_F0
 10
0
 20
0
 30
0
 70
128
 71
4
 72
2
 73
1
 74
1
 0
VERTEX
 8
MESH_211_F0
 10
0
 20
0
 30
0
 70
128
 71
3
 72
2
 73
4
 74
4
 0
SEQEND
 0
POLYLINE
 8
MESH_210_F0
 66
1
 10
0.0
 20
0.0
 30
0.0
 70
64
 71
32
 72
30
 0
VERTEX
 8
MESH_210_F0
 10
324
 20
-295
 30
650
 70
192
 0
VERTEX
 8
MESH_210_F0
 10
324
 20
-299
 30
650
 70
192
 0
VERTEX
 8
MESH_210_F0
 10
323.8353
 20
-301.8842
 30
650
 70
192
 0
VERTEX
 8
MESH_210_F0
 10
323.3544
 20
-304.7017
 30
650
 70
192
 0
VERTEX
 8
MESH_210_F0
 10
322.5602
 20
-307.4446
 30
650
 70
192
 0
VERTEX
 8
MESH_210_F0
 10
321.4624
 20
-310.0894
 30
650
 70
192
 0
VERTEX
 8
MESH_210_F0
 10
320.0807
 20
-312.5844
 30
650
 70
192
 0
VERTEX
 8
MESH_210_F0
 10
318.4296
 20
-314.9077
 30
650
 70
192
 0
VERTEX
 8
MESH_210_F0
 10
316.5308
 20
-317.0308
 30
650
 70
192
 0
VERTEX
 8
MESH_210_F0
 10
314.4077
 20
-318.9296
 30
650
 70
192
 0
VERTEX
 8
MESH_210_F0
 10
312.0845
 20
-320.5807
 30
650
 70
192
 0
VERTEX
 8
MESH_210_F0
 10
309.5894
 20
-321.9624
 30
650
 70
192
 0
VERTEX
 8
MESH_210_F0
 10
306.9446
 20
-323.0602
 30
650
 70
192
 0
VERTEX
 8
MESH_210_F0
 10
304.2017
 20
-323.8544
 30
650
 70
192
 0
VERTEX
 8
MESH_210_F0
 10
301.3842
 20
-324.3353
 30
650
 70
192
 0
VERTEX
 8
MESH_210_F0
 10
298.5
 20
-324.5
 30
650
 70
192
 0
VERTEX
 8
MESH_210_F0
 10
-298.5
 20
-324.5
 30
650
 70
192
 0
VERTEX
 8
MESH_210_F0
 10
-301.3842
 20
-324.3353
 30
650
 70
192
 0
VERTEX
 8
MESH_210_F0
 10
-304.2017
 20
-323.8544
 30
650
 70
192
 0
VERTEX
 8
MESH_210_F0
 10
-306.9446
 20
-323.0602
 30
650
 70
192
 0
VERTEX
 8
MESH_210_F0
 10
-309.5894
 20
-321.9624
 30
650
 70
192
 0
VERTEX
 8
MESH_210_F0
 10
-312.0845
 20
-320.5807
 30
650
 70
192
 0
VERTEX
 8
MESH_210_F0
 10
-314.4077
 20
-318.9296
 30
650
 70
192
 0
VERTEX
 8
MESH_210_F0
 10
-316.5308
 20
-317.0308
 30
650
 70
192
 0
VERTEX
 8
MESH_210_F0
 10
-318.4296
 20
-314.9077
 30
650
 70
192
 0
VERTEX
 8
MESH_210_F0
 10
-320.0807
 20
-312.5844
 30
650
 70
192
 0
VERTEX
 8
MESH_210_F0
 10
-321.4624
 20
-310.0894
 30
650
 70
192
 0
VERTEX
 8
MESH_210_F0
 10
-322.5602
 20
-307.4446
 30
650
 70
192
 0
VERTEX
 8
MESH_210_F0
 10
-323.3544
 20
-304.7017
 30
650
 70
192
 0
VERTEX
 8
MESH_210_F0
 10
-323.8353
 20
-301.8842
 30
650
 70
192
 0
VERTEX
 8
MESH_210_F0
 10
-324
 20
-299
 30
650
 70
192
 0
VERTEX
 8
MESH_210_F0
 10
-324
 20
-295
 30
650
 70
192
 0
VERTEX
 8
MESH_210_F0
 10
0
 20
0
 30
0
 70
128
 71
1
 72
30
 73
2
 74
2
 0
VERTEX
 8
MESH_210_F0
 10
0
 20
0
 30
0
 70
128
 71
30
 72
3
 73
2
 74
2
 0
VERTEX
 8
MESH_210_F0
 10
0
 20
0
 30
0
 70
128
 71
4
 72
3
 73
30
 74
30
 0
VERTEX
 8
MESH_210_F0
 10
0
 20
0
 30
0
 70
128
 71
4
 72
30
 73
5
 74
5
 0
VERTEX
 8
MESH_210_F0
 10
0
 20
0
 30
0
 70
128
 71
30
 72
29
 73
5
 74
5
 0
VERTEX
 8
MESH_210_F0
 10
0
 20
0
 30
0
 70
128
 71
29
 72
6
 73
5
 74
5
 0
VERTEX
 8
MESH_210_F0
 10
0
 20
0
 30
0
 70
128
 71
7
 72
6
 73
29
 74
29
 0
VERTEX
 8
MESH_210_F0
 10
0
 20
0
 30
0
 70
128
 71
8
 72
7
 73
28
 74
28
 0
VERTEX
 8
MESH_210_F0
 10
0
 20
0
 30
0
 70
128
 71
8
 72
28
 73
9
 74
9
 0
VERTEX
 8
MESH_210_F0
 10
0
 20
0
 30
0
 70
128
 71
28
 72
27
 73
9
 74
9
 0
VERTEX
 8
MESH_210_F0
 10
0
 20
0
 30
0
 70
128
 71
27
 72
10
 73
9
 74
9
 0
VERTEX
 8
MESH_210_F0
 10
0
 20
0
 30
0
 70
128
 71
11
 72
10
 73
27
 74
27
 0
VERTEX
 8
MESH_210_F0
 10
0
 20
0
 30
0
 70
128
 71
11
 72
27
 73
12
 74
12
 0
VERTEX
 8
MESH_210_F0
 10
0
 20
0
 30
0
 70
128
 71
27
 72
26
 73
12
 74
12
 0
VERTEX
 8
MESH_210_F0
 10
0
 20
0
 30
0
 70
128
 71
26
 72
16
 73
12
 74
12
 0
VERTEX
 8
MESH_210_F0
 10
0
 20
0
 30
0
 70
128
 71
16
 72
13
 73
12
 74
12
 0
VERTEX
 8
MESH_210_F0
 10
0
 20
0
 30
0
 70
128
 71
14
 72
13
 73
16
 74
16
 0
VERTEX
 8
MESH_210_F0
 10
0
 20
0
 30
0
 70
128
 71
14
 72
16
 73
15
 74
15
 0
VERTEX
 8
MESH_210_F0
 10
0
 20
0
 30
0
 70
128
 71
17
 72
20
 73
19
 74
19
 0
VERTEX
 8
MESH_210_F0
 10
0
 20
0
 30
0
 70
128
 71
17
 72
19
 73
18
 74
18
 0
VERTEX
 8
MESH_210_F0
 10
0
 20
0
 30
0
 70
128
 71
17
 72
21
 73
20
 74
20
 0
VERTEX
 8
MESH_210_F0
 10
0
 20
0
 30
0
 70
128
 71
16
 72
21
 73
17
 74
17
 0
VERTEX
 8
MESH_210_F0
 10
0
 20
0
 30
0
 70
128
 71
22
 72
21
 73
16
 74
16
 0
VERTEX
 8
MESH_210_F0
 10
0
 20
0
 30
0
 70
128
 71
22
 72
16
 73
23
 74
23
 0
VERTEX
 8
MESH_210_F0
 10
0
 20
0
 30
0
 70
128
 71
16
 72
24
 73
23
 74
23
 0
VERTEX
 8
MESH_210_F0
 10
0
 20
0
 30
0
 70
128
 71
25
 72
24
 73
16
 74
16
 0
VERTEX
 8
MESH_210_F0
 10
0
 20
0
 30
0
 70
128
 71
25
 72
16
 73
26
 74
26
 0
VERTEX
 8
MESH_210_F0
 10
0
 20
0
 30
0
 70
128
 71
7
 72
29
 73
28
 74
28
 0
VERTEX
 8
MESH_210_F0
 10
0
 20
0
 30
0
 70
128
 71
1
 72
31
 73
30
 74
30
 0
VERTEX
 8
MESH_210_F0
 10
0
 20
0
 30
0
 70
128
 71
32
 72
31
 73
1
 74
1
 0
SEQEND
 0
POLYLINE
 8
MESH_209_F0
 66
1
 10
0.0
 20
0.0
 30
0.0
 70
64
 71
4
 72
2
 0
VERTEX
 8
MESH_209_F0
 10
-324
 20
-295
 30
650
 70
192
 0
VERTEX
 8
MESH_209_F0
 10
-324
 20
-299
 30
650
 70
192
 0
VERTEX
 8
MESH_209_F0
 10
-324
 20
-299
 30
654
 70
192
 0
VERTEX
 8
MESH_209_F0
 10
-324
 20
-295
 30
654
 70
192
 0
VERTEX
 8
MESH_209_F0
 10
0
 20
0
 30
0
 70
128
 71
4
 72
2
 73
1
 74
1
 0
VERTEX
 8
MESH_209_F0
 10
0
 20
0
 30
0
 70
128
 71
3
 72
2
 73
4
 74
4
 0
SEQEND
 0
POLYLINE
 8
MESH_208_F0
 66
1
 10
0.0
 20
0.0
 30
0.0
 70
64
 71
4
 72
2
 0
VERTEX
 8
MESH_208_F0
 10
298.501
 20
-324
 30
654
 70
192
 0
VERTEX
 8
MESH_208_F0
 10
298.501
 20
-324
 30
819
 70
192
 0
VERTEX
 8
MESH_208_F0
 10
-298.501
 20
-324
 30
819
 70
192
 0
VERTEX
 8
MESH_208_F0
 10
-298.501
 20
-324
 30
654
 70
192
 0
VERTEX
 8
MESH_208_F0
 10
0
 20
0
 30
0
 70
128
 71
1
 72
3
 73
2
 74
2
 0
VERTEX
 8
MESH_208_F0
 10
0
 20
0
 30
0
 70
128
 71
4
 72
3
 73
1
 74
1
 0
SEQEND
 0
POLYLINE
 8
MESH_207_F0
 66
1
 10
0.0
 20
0.0
 30
0.0
 70
64
 71
32
 72
30
 0
VERTEX
 8
MESH_207_F0
 10
323.1777
 20
-295
 30
819
 70
192
 0
VERTEX
 8
MESH_207_F0
 10
323.4743
 20
-297.8689
 30
819
 70
192
 0
VERTEX
 8
MESH_207_F0
 10
323.4385
 20
-300.7528
 30
819
 70
192
 0
VERTEX
 8
MESH_207_F0
 10
323.0708
 20
-303.6135
 30
819
 70
192
 0
VERTEX
 8
MESH_207_F0
 10
322.376
 20
-306.4127
 30
819
 70
192
 0
VERTEX
 8
MESH_207_F0
 10
321.3634
 20
-309.1133
 30
819
 70
192
 0
VERTEX
 8
MESH_207_F0
 10
320.0466
 20
-311.6793
 30
819
 70
192
 0
VERTEX
 8
MESH_207_F0
 10
318.4429
 20
-314.0765
 30
819
 70
192
 0
VERTEX
 8
MESH_207_F0
 10
316.5738
 20
-316.2731
 30
819
 70
192
 0
VERTEX
 8
MESH_207_F0
 10
314.4641
 20
-318.2397
 30
819
 70
192
 0
VERTEX
 8
MESH_207_F0
 10
312.142
 20
-319.9503
 30
819
 70
192
 0
VERTEX
 8
MESH_207_F0
 10
309.6383
 20
-321.382
 30
819
 70
192
 0
VERTEX
 8
MESH_207_F0
 10
306.9863
 20
-322.5159
 30
819
 70
192
 0
VERTEX
 8
MESH_207_F0
 10
304.2214
 20
-323.3367
 30
819
 70
192
 0
VERTEX
 8
MESH_207_F0
 10
301.3804
 20
-323.8336
 30
819
 70
192
 0
VERTEX
 8
MESH_207_F0
 10
298.501
 20
-324
 30
819
 70
192
 0
VERTEX
 8
MESH_207_F0
 10
298.501
 20
-324
 30
654
 70
192
 0
VERTEX
 8
MESH_207_F0
 10
301.3804
 20
-323.8336
 30
654
 70
192
 0
VERTEX
 8
MESH_207_F0
 10
304.2214
 20
-323.3367
 30
654
 70
192
 0
VERTEX
 8
MESH_207_F0
 10
306.9863
 20
-322.5159
 30
654
 70
192
 0
VERTEX
 8
MESH_207_F0
 10
309.6383
 20
-321.382
 30
654
 70
192
 0
VERTEX
 8
MESH_207_F0
 10
312.142
 20
-319.9503
 30
654
 70
192
 0
VERTEX
 8
MESH_207_F0
 10
314.4641
 20
-318.2397
 30
654
 70
192
 0
VERTEX
 8
MESH_207_F0
 10
316.5738
 20
-316.2731
 30
654
 70
192
 0
VERTEX
 8
MESH_207_F0
 10
318.4429
 20
-314.0765
 30
654
 70
192
 0
VERTEX
 8
MESH_207_F0
 10
320.0466
 20
-311.6793
 30
654
 70
192
 0
VERTEX
 8
MESH_207_F0
 10
321.3634
 20
-309.1133
 30
654
 70
192
 0
VERTEX
 8
MESH_207_F0
 10
322.376
 20
-306.4127
 30
654
 70
192
 0
VERTEX
 8
MESH_207_F0
 10
323.0708
 20
-303.6135
 30
654
 70
192
 0
VERTEX
 8
MESH_207_F0
 10
323.4385
 20
-300.7528
 30
654
 70
192
 0
VERTEX
 8
MESH_207_F0
 10
323.4743
 20
-297.8689
 30
654
 70
192
 0
VERTEX
 8
MESH_207_F0
 10
323.1777
 20
-295
 30
654
 70
192
 0
VERTEX
 8
MESH_207_F0
 10
0
 20
0
 30
0
 70
128
 71
31
 72
1
 73
32
 74
32
 0
VERTEX
 8
MESH_207_F0
 10
0
 20
0
 30
0
 70
128
 71
2
 72
1
 73
31
 74
31
 0
VERTEX
 8
MESH_207_F0
 10
0
 20
0
 30
0
 70
128
 71
3
 72
2
 73
30
 74
30
 0
VERTEX
 8
MESH_207_F0
 10
0
 20
0
 30
0
 70
128
 71
4
 72
3
 73
29
 74
29
 0
VERTEX
 8
MESH_207_F0
 10
0
 20
0
 30
0
 70
128
 71
5
 72
4
 73
28
 74
28
 0
VERTEX
 8
MESH_207_F0
 10
0
 20
0
 30
0
 70
128
 71
6
 72
5
 73
27
 74
27
 0
VERTEX
 8
MESH_207_F0
 10
0
 20
0
 30
0
 70
128
 71
7
 72
6
 73
26
 74
26
 0
VERTEX
 8
MESH_207_F0
 10
0
 20
0
 30
0
 70
128
 71
8
 72
7
 73
25
 74
25
 0
VERTEX
 8
MESH_207_F0
 10
0
 20
0
 30
0
 70
128
 71
9
 72
8
 73
24
 74
24
 0
VERTEX
 8
MESH_207_F0
 10
0
 20
0
 30
0
 70
128
 71
10
 72
9
 73
23
 74
23
 0
VERTEX
 8
MESH_207_F0
 10
0
 20
0
 30
0
 70
128
 71
11
 72
10
 73
22
 74
22
 0
VERTEX
 8
MESH_207_F0
 10
0
 20
0
 30
0
 70
128
 71
12
 72
11
 73
21
 74
21
 0
VERTEX
 8
MESH_207_F0
 10
0
 20
0
 30
0
 70
128
 71
13
 72
12
 73
20
 74
20
 0
VERTEX
 8
MESH_207_F0
 10
0
 20
0
 30
0
 70
128
 71
14
 72
13
 73
19
 74
19
 0
VERTEX
 8
MESH_207_F0
 10
0
 20
0
 30
0
 70
128
 71
15
 72
14
 73
18
 74
18
 0
VERTEX
 8
MESH_207_F0
 10
0
 20
0
 30
0
 70
128
 71
16
 72
15
 73
17
 74
17
 0
VERTEX
 8
MESH_207_F0
 10
0
 20
0
 30
0
 70
128
 71
15
 72
18
 73
17
 74
17
 0
VERTEX
 8
MESH_207_F0
 10
0
 20
0
 30
0
 70
128
 71
14
 72
19
 73
18
 74
18
 0
VERTEX
 8
MESH_207_F0
 10
0
 20
0
 30
0
 70
128
 71
13
 72
20
 73
19
 74
19
 0
VERTEX
 8
MESH_207_F0
 10
0
 20
0
 30
0
 70
128
 71
12
 72
21
 73
20
 74
20
 0
VERTEX
 8
MESH_207_F0
 10
0
 20
0
 30
0
 70
128
 71
11
 72
22
 73
21
 74
21
 0
VERTEX
 8
MESH_207_F0
 10
0
 20
0
 30
0
 70
128
 71
10
 72
23
 73
22
 74
22
 0
VERTEX
 8
MESH_207_F0
 10
0
 20
0
 30
0
 70
128
 71
9
 72
24
 73
23
 74
23
 0
VERTEX
 8
MESH_207_F0
 10
0
 20
0
 30
0
 70
128
 71
8
 72
25
 73
24
 74
24
 0
VERTEX
 8
MESH_207_F0
 10
0
 20
0
 30
0
 70
128
 71
7
 72
26
 73
25
 74
25
 0
VERTEX
 8
MESH_207_F0
 10
0
 20
0
 30
0
 70
128
 71
6
 72
27
 73
26
 74
26
 0
VERTEX
 8
MESH_207_F0
 10
0
 20
0
 30
0
 70
128
 71
5
 72
28
 73
27
 74
27
 0
VERTEX
 8
MESH_207_F0
 10
0
 20
0
 30
0
 70
128
 71
4
 72
29
 73
28
 74
28
 0
VERTEX
 8
MESH_207_F0
 10
0
 20
0
 30
0
 70
128
 71
3
 72
30
 73
29
 74
29
 0
VERTEX
 8
MESH_207_F0
 10
0
 20
0
 30
0
 70
128
 71
2
 72
31
 73
30
 74
30
 0
SEQEND
 0
POLYLINE
 8
MESH_206_F0
 66
1
 10
0.0
 20
0.0
 30
0.0
 70
64
 71
64
 72
62
 0
VERTEX
 8
MESH_206_F0
 10
323.1777
 20
-295
 30
654
 70
192
 0
VERTEX
 8
MESH_206_F0
 10
323.4743
 20
-297.8689
 30
654
 70
192
 0
VERTEX
 8
MESH_206_F0
 10
323.4385
 20
-300.7528
 30
654
 70
192
 0
VERTEX
 8
MESH_206_F0
 10
323.0708
 20
-303.6135
 30
654
 70
192
 0
VERTEX
 8
MESH_206_F0
 10
322.376
 20
-306.4127
 30
654
 70
192
 0
VERTEX
 8
MESH_206_F0
 10
321.3634
 20
-309.1133
 30
654
 70
192
 0
VERTEX
 8
MESH_206_F0
 10
320.0466
 20
-311.6793
 30
654
 70
192
 0
VERTEX
 8
MESH_206_F0
 10
318.4429
 20
-314.0765
 30
654
 70
192
 0
VERTEX
 8
MESH_206_F0
 10
316.5738
 20
-316.2731
 30
654
 70
192
 0
VERTEX
 8
MESH_206_F0
 10
314.4641
 20
-318.2397
 30
654
 70
192
 0
VERTEX
 8
MESH_206_F0
 10
312.142
 20
-319.9503
 30
654
 70
192
 0
VERTEX
 8
MESH_206_F0
 10
309.6383
 20
-321.382
 30
654
 70
192
 0
VERTEX
 8
MESH_206_F0
 10
306.9863
 20
-322.5159
 30
654
 70
192
 0
VERTEX
 8
MESH_206_F0
 10
304.2214
 20
-323.3367
 30
654
 70
192
 0
VERTEX
 8
MESH_206_F0
 10
301.3804
 20
-323.8336
 30
654
 70
192
 0
VERTEX
 8
MESH_206_F0
 10
298.501
 20
-324
 30
654
 70
192
 0
VERTEX
 8
MESH_206_F0
 10
-298.501
 20
-324
 30
654
 70
192
 0
VERTEX
 8
MESH_206_F0
 10
-301.3804
 20
-323.8336
 30
654
 70
192
 0
VERTEX
 8
MESH_206_F0
 10
-304.2214
 20
-323.3367
 30
654
 70
192
 0
VERTEX
 8
MESH_206_F0
 10
-306.9863
 20
-322.5159
 30
654
 70
192
 0
VERTEX
 8
MESH_206_F0
 10
-309.6383
 20
-321.382
 30
654
 70
192
 0
VERTEX
 8
MESH_206_F0
 10
-312.142
 20
-319.9503
 30
654
 70
192
 0
VERTEX
 8
MESH_206_F0
 10
-314.4641
 20
-318.2397
 30
654
 70
192
 0
VERTEX
 8
MESH_206_F0
 10
-316.5738
 20
-316.2731
 30
654
 70
192
 0
VERTEX
 8
MESH_206_F0
 10
-318.4429
 20
-314.0765
 30
654
 70
192
 0
VERTEX
 8
MESH_206_F0
 10
-320.0466
 20
-311.6793
 30
654
 70
192
 0
VERTEX
 8
MESH_206_F0
 10
-321.3634
 20
-309.1133
 30
654
 70
192
 0
VERTEX
 8
MESH_206_F0
 10
-322.376
 20
-306.4127
 30
654
 70
192
 0
VERTEX
 8
MESH_206_F0
 10
-323.0708
 20
-303.6135
 30
654
 70
192
 0
VERTEX
 8
MESH_206_F0
 10
-323.4385
 20
-300.7528
 30
654
 70
192
 0
VERTEX
 8
MESH_206_F0
 10
-323.4743
 20
-297.8689
 30
654
 70
192
 0
VERTEX
 8
MESH_206_F0
 10
-323.1777
 20
-295
 30
654
 70
192
 0
VERTEX
 8
MESH_206_F0
 10
-324
 20
-295
 30
654
 70
192
 0
VERTEX
 8
MESH_206_F0
 10
-324
 20
-299
 30
654
 70
192
 0
VERTEX
 8
MESH_206_F0
 10
-323.8353
 20
-301.8842
 30
654
 70
192
 0
VERTEX
 8
MESH_206_F0
 10
-323.3544
 20
-304.7017
 30
654
 70
192
 0
VERTEX
 8
MESH_206_F0
 10
-322.5602
 20
-307.4446
 30
654
 70
192
 0
VERTEX
 8
MESH_206_F0
 10
-321.4624
 20
-310.0894
 30
654
 70
192
 0
VERTEX
 8
MESH_206_F0
 10
-320.0807
 20
-312.5844
 30
654
 70
192
 0
VERTEX
 8
MESH_206_F0
 10
-318.4296
 20
-314.9077
 30
654
 70
192
 0
VERTEX
 8
MESH_206_F0
 10
-316.5308
 20
-317.0308
 30
654
 70
192
 0
VERTEX
 8
MESH_206_F0
 10
-314.4077
 20
-318.9296
 30
654
 70
192
 0
VERTEX
 8
MESH_206_F0
 10
-312.0845
 20
-320.5807
 30
654
 70
192
 0
VERTEX
 8
MESH_206_F0
 10
-309.5894
 20
-321.9624
 30
654
 70
192
 0
VERTEX
 8
MESH_206_F0
 10
-306.9446
 20
-323.0602
 30
654
 70
192
 0
VERTEX
 8
MESH_206_F0
 10
-304.2017
 20
-323.8544
 30
654
 70
192
 0
VERTEX
 8
MESH_206_F0
 10
-301.3842
 20
-324.3353
 30
654
 70
192
 0
VERTEX
 8
MESH_206_F0
 10
-298.5
 20
-324.5
 30
654
 70
192
 0
VERTEX
 8
MESH_206_F0
 10
298.5
 20
-324.5
 30
654
 70
192
 0
VERTEX
 8
MESH_206_F0
 10
301.3842
 20
-324.3353
 30
654
 70
192
 0
VERTEX
 8
MESH_206_F0
 10
304.2017
 20
-323.8544
 30
654
 70
192
 0
VERTEX
 8
MESH_206_F0
 10
306.9446
 20
-323.0602
 30
654
 70
192
 0
VERTEX
 8
MESH_206_F0
 10
309.5894
 20
-321.9624
 30
654
 70
192
 0
VERTEX
 8
MESH_206_F0
 10
312.0845
 20
-320.5807
 30
654
 70
192
 0
VERTEX
 8
MESH_206_F0
 10
314.4077
 20
-318.9296
 30
654
 70
192
 0
VERTEX
 8
MESH_206_F0
 10
316.5308
 20
-317.0308
 30
654
 70
192
 0
VERTEX
 8
MESH_206_F0
 10
318.4296
 20
-314.9077
 30
654
 70
192
 0
VERTEX
 8
MESH_206_F0
 10
320.0807
 20
-312.5844
 30
654
 70
192
 0
VERTEX
 8
MESH_206_F0
 10
321.4624
 20
-310.0894
 30
654
 70
192
 0
VERTEX
 8
MESH_206_F0
 10
322.5602
 20
-307.4446
 30
654
 70
192
 0
VERTEX
 8
MESH_206_F0
 10
323.3544
 20
-304.7017
 30
654
 70
192
 0
VERTEX
 8
MESH_206_F0
 10
323.8353
 20
-301.8842
 30
654
 70
192
 0
VERTEX
 8
MESH_206_F0
 10
324
 20
-299
 30
654
 70
192
 0
VERTEX
 8
MESH_206_F0
 10
324
 20
-295
 30
654
 70
192
 0
VERTEX
 8
MESH_206_F0
 10
0
 20
0
 30
0
 70
128
 71
64
 72
2
 73
1
 74
1
 0
VERTEX
 8
MESH_206_F0
 10
0
 20
0
 30
0
 70
128
 71
63
 72
2
 73
64
 74
64
 0
VERTEX
 8
MESH_206_F0
 10
0
 20
0
 30
0
 70
128
 71
3
 72
2
 73
63
 74
63
 0
VERTEX
 8
MESH_206_F0
 10
0
 20
0
 30
0
 70
128
 71
4
 72
3
 73
62
 74
62
 0
VERTEX
 8
MESH_206_F0
 10
0
 20
0
 30
0
 70
128
 71
5
 72
4
 73
61
 74
61
 0
VERTEX
 8
MESH_206_F0
 10
0
 20
0
 30
0
 70
128
 71
6
 72
5
 73
60
 74
60
 0
VERTEX
 8
MESH_206_F0
 10
0
 20
0
 30
0
 70
128
 71
7
 72
6
 73
59
 74
59
 0
VERTEX
 8
MESH_206_F0
 10
0
 20
0
 30
0
 70
128
 71
8
 72
7
 73
58
 74
58
 0
VERTEX
 8
MESH_206_F0
 10
0
 20
0
 30
0
 70
128
 71
9
 72
8
 73
57
 74
57
 0
VERTEX
 8
MESH_206_F0
 10
0
 20
0
 30
0
 70
128
 71
10
 72
9
 73
56
 74
56
 0
VERTEX
 8
MESH_206_F0
 10
0
 20
0
 30
0
 70
128
 71
11
 72
10
 73
55
 74
55
 0
VERTEX
 8
MESH_206_F0
 10
0
 20
0
 30
0
 70
128
 71
12
 72
11
 73
54
 74
54
 0
VERTEX
 8
MESH_206_F0
 10
0
 20
0
 30
0
 70
128
 71
13
 72
12
 73
53
 74
53
 0
VERTEX
 8
MESH_206_F0
 10
0
 20
0
 30
0
 70
128
 71
14
 72
13
 73
52
 74
52
 0
VERTEX
 8
MESH_206_F0
 10
0
 20
0
 30
0
 70
128
 71
15
 72
14
 73
51
 74
51
 0
VERTEX
 8
MESH_206_F0
 10
0
 20
0
 30
0
 70
128
 71
15
 72
51
 73
16
 74
16
 0
VERTEX
 8
MESH_206_F0
 10
0
 20
0
 30
0
 70
128
 71
51
 72
50
 73
16
 74
16
 0
VERTEX
 8
MESH_206_F0
 10
0
 20
0
 30
0
 70
128
 71
50
 72
49
 73
16
 74
16
 0
VERTEX
 8
MESH_206_F0
 10
0
 20
0
 30
0
 70
128
 71
49
 72
48
 73
16
 74
16
 0
VERTEX
 8
MESH_206_F0
 10
0
 20
0
 30
0
 70
128
 71
48
 72
17
 73
16
 74
16
 0
VERTEX
 8
MESH_206_F0
 10
0
 20
0
 30
0
 70
128
 71
47
 72
17
 73
48
 74
48
 0
VERTEX
 8
MESH_206_F0
 10
0
 20
0
 30
0
 70
128
 71
46
 72
17
 73
47
 74
47
 0
VERTEX
 8
MESH_206_F0
 10
0
 20
0
 30
0
 70
128
 71
18
 72
17
 73
46
 74
46
 0
VERTEX
 8
MESH_206_F0
 10
0
 20
0
 30
0
 70
128
 71
18
 72
46
 73
19
 74
19
 0
VERTEX
 8
MESH_206_F0
 10
0
 20
0
 30
0
 70
128
 71
46
 72
45
 73
19
 74
19
 0
VERTEX
 8
MESH_206_F0
 10
0
 20
0
 30
0
 70
128
 71
45
 72
20
 73
19
 74
19
 0
VERTEX
 8
MESH_206_F0
 10
0
 20
0
 30
0
 70
128
 71
44
 72
20
 73
45
 74
45
 0
VERTEX
 8
MESH_206_F0
 10
0
 20
0
 30
0
 70
128
 71
21
 72
20
 73
44
 74
44
 0
VERTEX
 8
MESH_206_F0
 10
0
 20
0
 30
0
 70
128
 71
22
 72
21
 73
43
 74
43
 0
VERTEX
 8
MESH_206_F0
 10
0
 20
0
 30
0
 70
128
 71
23
 72
22
 73
42
 74
42
 0
VERTEX
 8
MESH_206_F0
 10
0
 20
0
 30
0
 70
128
 71
24
 72
23
 73
41
 74
41
 0
VERTEX
 8
MESH_206_F0
 10
0
 20
0
 30
0
 70
128
 71
25
 72
24
 73
40
 74
40
 0
VERTEX
 8
MESH_206_F0
 10
0
 20
0
 30
0
 70
128
 71
26
 72
25
 73
39
 74
39
 0
VERTEX
 8
MESH_206_F0
 10
0
 20
0
 30
0
 70
128
 71
27
 72
26
 73
38
 74
38
 0
VERTEX
 8
MESH_206_F0
 10
0
 20
0
 30
0
 70
128
 71
28
 72
27
 73
37
 74
37
 0
VERTEX
 8
MESH_206_F0
 10
0
 20
0
 30
0
 70
128
 71
29
 72
28
 73
36
 74
36
 0
VERTEX
 8
MESH_206_F0
 10
0
 20
0
 30
0
 70
128
 71
30
 72
29
 73
35
 74
35
 0
VERTEX
 8
MESH_206_F0
 10
0
 20
0
 30
0
 70
128
 71
31
 72
30
 73
34
 74
34
 0
VERTEX
 8
MESH_206_F0
 10
0
 20
0
 30
0
 70
128
 71
32
 72
31
 73
33
 74
33
 0
VERTEX
 8
MESH_206_F0
 10
0
 20
0
 30
0
 70
128
 71
31
 72
34
 73
33
 74
33
 0
VERTEX
 8
MESH_206_F0
 10
0
 20
0
 30
0
 70
128
 71
30
 72
35
 73
34
 74
34
 0
VERTEX
 8
MESH_206_F0
 10
0
 20
0
 30
0
 70
128
 71
29
 72
36
 73
35
 74
35
 0
VERTEX
 8
MESH_206_F0
 10
0
 20
0
 30
0
 70
128
 71
28
 72
37
 73
36
 74
36
 0
VERTEX
 8
MESH_206_F0
 10
0
 20
0
 30
0
 70
128
 71
27
 72
38
 73
37
 74
37
 0
VERTEX
 8
MESH_206_F0
 10
0
 20
0
 30
0
 70
128
 71
26
 72
39
 73
38
 74
38
 0
VERTEX
 8
MESH_206_F0
 10
0
 20
0
 30
0
 70
128
 71
25
 72
40
 73
39
 74
39
 0
VERTEX
 8
MESH_206_F0
 10
0
 20
0
 30
0
 70
128
 71
24
 72
41
 73
40
 74
40
 0
VERTEX
 8
MESH_206_F0
 10
0
 20
0
 30
0
 70
128
 71
23
 72
42
 73
41
 74
41
 0
VERTEX
 8
MESH_206_F0
 10
0
 20
0
 30
0
 70
128
 71
22
 72
43
 73
42
 74
42
 0
VERTEX
 8
MESH_206_F0
 10
0
 20
0
 30
0
 70
128
 71
21
 72
44
 73
43
 74
43
 0
VERTEX
 8
MESH_206_F0
 10
0
 20
0
 30
0
 70
128
 71
14
 72
52
 73
51
 74
51
 0
VERTEX
 8
MESH_206_F0
 10
0
 20
0
 30
0
 70
128
 71
13
 72
53
 73
52
 74
52
 0
VERTEX
 8
MESH_206_F0
 10
0
 20
0
 30
0
 70
128
 71
12
 72
54
 73
53
 74
53
 0
VERTEX
 8
MESH_206_F0
 10
0
 20
0
 30
0
 70
128
 71
11
 72
55
 73
54
 74
54
 0
VERTEX
 8
MESH_206_F0
 10
0
 20
0
 30
0
 70
128
 71
10
 72
56
 73
55
 74
55
 0
VERTEX
 8
MESH_206_F0
 10
0
 20
0
 30
0
 70
128
 71
9
 72
57
 73
56
 74
56
 0
VERTEX
 8
MESH_206_F0
 10
0
 20
0
 30
0
 70
128
 71
8
 72
58
 73
57
 74
57
 0
VERTEX
 8
MESH_206_F0
 10
0
 20
0
 30
0
 70
128
 71
7
 72
59
 73
58
 74
58
 0
VERTEX
 8
MESH_206_F0
 10
0
 20
0
 30
0
 70
128
 71
6
 72
60
 73
59
 74
59
 0
VERTEX
 8
MESH_206_F0
 10
0
 20
0
 30
0
 70
128
 71
5
 72
61
 73
60
 74
60
 0
VERTEX
 8
MESH_206_F0
 10
0
 20
0
 30
0
 70
128
 71
4
 72
62
 73
61
 74
61
 0
VERTEX
 8
MESH_206_F0
 10
0
 20
0
 30
0
 70
128
 71
3
 72
63
 73
62
 74
62
 0
SEQEND
 0
POLYLINE
 8
MESH_205_F0
 66
1
 10
0.0
 20
0.0
 30
0.0
 70
64
 71
32
 72
30
 0
VERTEX
 8
MESH_205_F0
 10
-323.1777
 20
-295
 30
654
 70
192
 0
VERTEX
 8
MESH_205_F0
 10
-323.4743
 20
-297.8689
 30
654
 70
192
 0
VERTEX
 8
MESH_205_F0
 10
-323.4385
 20
-300.7528
 30
654
 70
192
 0
VERTEX
 8
MESH_205_F0
 10
-323.0708
 20
-303.6135
 30
654
 70
192
 0
VERTEX
 8
MESH_205_F0
 10
-322.376
 20
-306.4127
 30
654
 70
192
 0
VERTEX
 8
MESH_205_F0
 10
-321.3634
 20
-309.1133
 30
654
 70
192
 0
VERTEX
 8
MESH_205_F0
 10
-320.0466
 20
-311.6793
 30
654
 70
192
 0
VERTEX
 8
MESH_205_F0
 10
-318.4429
 20
-314.0765
 30
654
 70
192
 0
VERTEX
 8
MESH_205_F0
 10
-316.5738
 20
-316.2731
 30
654
 70
192
 0
VERTEX
 8
MESH_205_F0
 10
-314.4641
 20
-318.2397
 30
654
 70
192
 0
VERTEX
 8
MESH_205_F0
 10
-312.142
 20
-319.9503
 30
654
 70
192
 0
VERTEX
 8
MESH_205_F0
 10
-309.6383
 20
-321.382
 30
654
 70
192
 0
VERTEX
 8
MESH_205_F0
 10
-306.9863
 20
-322.5159
 30
654
 70
192
 0
VERTEX
 8
MESH_205_F0
 10
-304.2214
 20
-323.3367
 30
654
 70
192
 0
VERTEX
 8
MESH_205_F0
 10
-301.3804
 20
-323.8336
 30
654
 70
192
 0
VERTEX
 8
MESH_205_F0
 10
-298.501
 20
-324
 30
654
 70
192
 0
VERTEX
 8
MESH_205_F0
 10
-298.501
 20
-324
 30
819
 70
192
 0
VERTEX
 8
MESH_205_F0
 10
-301.3804
 20
-323.8336
 30
819
 70
192
 0
VERTEX
 8
MESH_205_F0
 10
-304.2214
 20
-323.3367
 30
819
 70
192
 0
VERTEX
 8
MESH_205_F0
 10
-306.9863
 20
-322.5159
 30
819
 70
192
 0
VERTEX
 8
MESH_205_F0
 10
-309.6383
 20
-321.382
 30
819
 70
192
 0
VERTEX
 8
MESH_205_F0
 10
-312.142
 20
-319.9503
 30
819
 70
192
 0
VERTEX
 8
MESH_205_F0
 10
-314.4641
 20
-318.2397
 30
819
 70
192
 0
VERTEX
 8
MESH_205_F0
 10
-316.5738
 20
-316.2731
 30
819
 70
192
 0
VERTEX
 8
MESH_205_F0
 10
-318.4429
 20
-314.0765
 30
819
 70
192
 0
VERTEX
 8
MESH_205_F0
 10
-320.0466
 20
-311.6793
 30
819
 70
192
 0
VERTEX
 8
MESH_205_F0
 10
-321.3634
 20
-309.1133
 30
819
 70
192
 0
VERTEX
 8
MESH_205_F0
 10
-322.376
 20
-306.4127
 30
819
 70
192
 0
VERTEX
 8
MESH_205_F0
 10
-323.0708
 20
-303.6135
 30
819
 70
192
 0
VERTEX
 8
MESH_205_F0
 10
-323.4385
 20
-300.7528
 30
819
 70
192
 0
VERTEX
 8
MESH_205_F0
 10
-323.4743
 20
-297.8689
 30
819
 70
192
 0
VERTEX
 8
MESH_205_F0
 10
-323.1777
 20
-295
 30
819
 70
192
 0
VERTEX
 8
MESH_205_F0
 10
0
 20
0
 30
0
 70
128
 71
31
 72
1
 73
32
 74
32
 0
VERTEX
 8
MESH_205_F0
 10
0
 20
0
 30
0
 70
128
 71
2
 72
1
 73
31
 74
31
 0
VERTEX
 8
MESH_205_F0
 10
0
 20
0
 30
0
 70
128
 71
3
 72
2
 73
30
 74
30
 0
VERTEX
 8
MESH_205_F0
 10
0
 20
0
 30
0
 70
128
 71
4
 72
3
 73
29
 74
29
 0
VERTEX
 8
MESH_205_F0
 10
0
 20
0
 30
0
 70
128
 71
5
 72
4
 73
28
 74
28
 0
VERTEX
 8
MESH_205_F0
 10
0
 20
0
 30
0
 70
128
 71
6
 72
5
 73
27
 74
27
 0
VERTEX
 8
MESH_205_F0
 10
0
 20
0
 30
0
 70
128
 71
7
 72
6
 73
26
 74
26
 0
VERTEX
 8
MESH_205_F0
 10
0
 20
0
 30
0
 70
128
 71
8
 72
7
 73
25
 74
25
 0
VERTEX
 8
MESH_205_F0
 10
0
 20
0
 30
0
 70
128
 71
9
 72
8
 73
24
 74
24
 0
VERTEX
 8
MESH_205_F0
 10
0
 20
0
 30
0
 70
128
 71
10
 72
9
 73
23
 74
23
 0
VERTEX
 8
MESH_205_F0
 10
0
 20
0
 30
0
 70
128
 71
11
 72
10
 73
22
 74
22
 0
VERTEX
 8
MESH_205_F0
 10
0
 20
0
 30
0
 70
128
 71
12
 72
11
 73
21
 74
21
 0
VERTEX
 8
MESH_205_F0
 10
0
 20
0
 30
0
 70
128
 71
13
 72
12
 73
20
 74
20
 0
VERTEX
 8
MESH_205_F0
 10
0
 20
0
 30
0
 70
128
 71
14
 72
13
 73
19
 74
19
 0
VERTEX
 8
MESH_205_F0
 10
0
 20
0
 30
0
 70
128
 71
15
 72
14
 73
18
 74
18
 0
VERTEX
 8
MESH_205_F0
 10
0
 20
0
 30
0
 70
128
 71
16
 72
15
 73
17
 74
17
 0
VERTEX
 8
MESH_205_F0
 10
0
 20
0
 30
0
 70
128
 71
15
 72
18
 73
17
 74
17
 0
VERTEX
 8
MESH_205_F0
 10
0
 20
0
 30
0
 70
128
 71
14
 72
19
 73
18
 74
18
 0
VERTEX
 8
MESH_205_F0
 10
0
 20
0
 30
0
 70
128
 71
13
 72
20
 73
19
 74
19
 0
VERTEX
 8
MESH_205_F0
 10
0
 20
0
 30
0
 70
128
 71
12
 72
21
 73
20
 74
20
 0
VERTEX
 8
MESH_205_F0
 10
0
 20
0
 30
0
 70
128
 71
11
 72
22
 73
21
 74
21
 0
VERTEX
 8
MESH_205_F0
 10
0
 20
0
 30
0
 70
128
 71
10
 72
23
 73
22
 74
22
 0
VERTEX
 8
MESH_205_F0
 10
0
 20
0
 30
0
 70
128
 71
9
 72
24
 73
23
 74
23
 0
VERTEX
 8
MESH_205_F0
 10
0
 20
0
 30
0
 70
128
 71
8
 72
25
 73
24
 74
24
 0
VERTEX
 8
MESH_205_F0
 10
0
 20
0
 30
0
 70
128
 71
7
 72
26
 73
25
 74
25
 0
VERTEX
 8
MESH_205_F0
 10
0
 20
0
 30
0
 70
128
 71
6
 72
27
 73
26
 74
26
 0
VERTEX
 8
MESH_205_F0
 10
0
 20
0
 30
0
 70
128
 71
5
 72
28
 73
27
 74
27
 0
VERTEX
 8
MESH_205_F0
 10
0
 20
0
 30
0
 70
128
 71
4
 72
29
 73
28
 74
28
 0
VERTEX
 8
MESH_205_F0
 10
0
 20
0
 30
0
 70
128
 71
3
 72
30
 73
29
 74
29
 0
VERTEX
 8
MESH_205_F0
 10
0
 20
0
 30
0
 70
128
 71
2
 72
31
 73
30
 74
30
 0
SEQEND
 0
POLYLINE
 8
MESH_204_F0
 66
1
 10
0.0
 20
0.0
 30
0.0
 70
64
 71
32
 72
30
 0
VERTEX
 8
MESH_204_F0
 10
-323.1777
 20
-295
 30
819
 70
192
 0
VERTEX
 8
MESH_204_F0
 10
-323.4743
 20
-297.8689
 30
819
 70
192
 0
VERTEX
 8
MESH_204_F0
 10
-323.4385
 20
-300.7528
 30
819
 70
192
 0
VERTEX
 8
MESH_204_F0
 10
-323.0708
 20
-303.6135
 30
819
 70
192
 0
VERTEX
 8
MESH_204_F0
 10
-322.376
 20
-306.4127
 30
819
 70
192
 0
VERTEX
 8
MESH_204_F0
 10
-321.3634
 20
-309.1133
 30
819
 70
192
 0
VERTEX
 8
MESH_204_F0
 10
-320.0466
 20
-311.6793
 30
819
 70
192
 0
VERTEX
 8
MESH_204_F0
 10
-318.4429
 20
-314.0765
 30
819
 70
192
 0
VERTEX
 8
MESH_204_F0
 10
-316.5738
 20
-316.2731
 30
819
 70
192
 0
VERTEX
 8
MESH_204_F0
 10
-314.4641
 20
-318.2397
 30
819
 70
192
 0
VERTEX
 8
MESH_204_F0
 10
-312.142
 20
-319.9503
 30
819
 70
192
 0
VERTEX
 8
MESH_204_F0
 10
-309.6383
 20
-321.382
 30
819
 70
192
 0
VERTEX
 8
MESH_204_F0
 10
-306.9863
 20
-322.5159
 30
819
 70
192
 0
VERTEX
 8
MESH_204_F0
 10
-304.2214
 20
-323.3367
 30
819
 70
192
 0
VERTEX
 8
MESH_204_F0
 10
-301.3804
 20
-323.8336
 30
819
 70
192
 0
VERTEX
 8
MESH_204_F0
 10
-298.501
 20
-324
 30
819
 70
192
 0
VERTEX
 8
MESH_204_F0
 10
298.501
 20
-324
 30
819
 70
192
 0
VERTEX
 8
MESH_204_F0
 10
301.3804
 20
-323.8336
 30
819
 70
192
 0
VERTEX
 8
MESH_204_F0
 10
304.2214
 20
-323.3367
 30
819
 70
192
 0
VERTEX
 8
MESH_204_F0
 10
306.9863
 20
-322.5159
 30
819
 70
192
 0
VERTEX
 8
MESH_204_F0
 10
309.6383
 20
-321.382
 30
819
 70
192
 0
VERTEX
 8
MESH_204_F0
 10
312.142
 20
-319.9503
 30
819
 70
192
 0
VERTEX
 8
MESH_204_F0
 10
314.4641
 20
-318.2397
 30
819
 70
192
 0
VERTEX
 8
MESH_204_F0
 10
316.5738
 20
-316.2731
 30
819
 70
192
 0
VERTEX
 8
MESH_204_F0
 10
318.4429
 20
-314.0765
 30
819
 70
192
 0
VERTEX
 8
MESH_204_F0
 10
320.0466
 20
-311.6793
 30
819
 70
192
 0
VERTEX
 8
MESH_204_F0
 10
321.3634
 20
-309.1133
 30
819
 70
192
 0
VERTEX
 8
MESH_204_F0
 10
322.376
 20
-306.4127
 30
819
 70
192
 0
VERTEX
 8
MESH_204_F0
 10
323.0708
 20
-303.6135
 30
819
 70
192
 0
VERTEX
 8
MESH_204_F0
 10
323.4385
 20
-300.7528
 30
819
 70
192
 0
VERTEX
 8
MESH_204_F0
 10
323.4743
 20
-297.8689
 30
819
 70
192
 0
VERTEX
 8
MESH_204_F0
 10
323.1777
 20
-295
 30
819
 70
192
 0
VERTEX
 8
MESH_204_F0
 10
0
 20
0
 30
0
 70
128
 71
1
 72
30
 73
2
 74
2
 0
VERTEX
 8
MESH_204_F0
 10
0
 20
0
 30
0
 70
128
 71
30
 72
3
 73
2
 74
2
 0
VERTEX
 8
MESH_204_F0
 10
0
 20
0
 30
0
 70
128
 71
4
 72
3
 73
30
 74
30
 0
VERTEX
 8
MESH_204_F0
 10
0
 20
0
 30
0
 70
128
 71
5
 72
4
 73
29
 74
29
 0
VERTEX
 8
MESH_204_F0
 10
0
 20
0
 30
0
 70
128
 71
5
 72
29
 73
6
 74
6
 0
VERTEX
 8
MESH_204_F0
 10
0
 20
0
 30
0
 70
128
 71
29
 72
7
 73
6
 74
6
 0
VERTEX
 8
MESH_204_F0
 10
0
 20
0
 30
0
 70
128
 71
28
 72
7
 73
29
 74
29
 0
VERTEX
 8
MESH_204_F0
 10
0
 20
0
 30
0
 70
128
 71
8
 72
7
 73
28
 74
28
 0
VERTEX
 8
MESH_204_F0
 10
0
 20
0
 30
0
 70
128
 71
8
 72
28
 73
9
 74
9
 0
VERTEX
 8
MESH_204_F0
 10
0
 20
0
 30
0
 70
128
 71
28
 72
27
 73
9
 74
9
 0
VERTEX
 8
MESH_204_F0
 10
0
 20
0
 30
0
 70
128
 71
27
 72
10
 73
9
 74
9
 0
VERTEX
 8
MESH_204_F0
 10
0
 20
0
 30
0
 70
128
 71
11
 72
10
 73
27
 74
27
 0
VERTEX
 8
MESH_204_F0
 10
0
 20
0
 30
0
 70
128
 71
12
 72
11
 73
26
 74
26
 0
VERTEX
 8
MESH_204_F0
 10
0
 20
0
 30
0
 70
128
 71
13
 72
12
 73
16
 74
16
 0
VERTEX
 8
MESH_204_F0
 10
0
 20
0
 30
0
 70
128
 71
13
 72
16
 73
14
 74
14
 0
VERTEX
 8
MESH_204_F0
 10
0
 20
0
 30
0
 70
128
 71
16
 72
15
 73
14
 74
14
 0
VERTEX
 8
MESH_204_F0
 10
0
 20
0
 30
0
 70
128
 71
17
 72
20
 73
19
 74
19
 0
VERTEX
 8
MESH_204_F0
 10
0
 20
0
 30
0
 70
128
 71
17
 72
19
 73
18
 74
18
 0
VERTEX
 8
MESH_204_F0
 10
0
 20
0
 30
0
 70
128
 71
17
 72
21
 73
20
 74
20
 0
VERTEX
 8
MESH_204_F0
 10
0
 20
0
 30
0
 70
128
 71
16
 72
21
 73
17
 74
17
 0
VERTEX
 8
MESH_204_F0
 10
0
 20
0
 30
0
 70
128
 71
22
 72
21
 73
16
 74
16
 0
VERTEX
 8
MESH_204_F0
 10
0
 20
0
 30
0
 70
128
 71
22
 72
16
 73
23
 74
23
 0
VERTEX
 8
MESH_204_F0
 10
0
 20
0
 30
0
 70
128
 71
16
 72
24
 73
23
 74
23
 0
VERTEX
 8
MESH_204_F0
 10
0
 20
0
 30
0
 70
128
 71
25
 72
24
 73
16
 74
16
 0
VERTEX
 8
MESH_204_F0
 10
0
 20
0
 30
0
 70
128
 71
25
 72
16
 73
26
 74
26
 0
VERTEX
 8
MESH_204_F0
 10
0
 20
0
 30
0
 70
128
 71
16
 72
12
 73
26
 74
26
 0
VERTEX
 8
MESH_204_F0
 10
0
 20
0
 30
0
 70
128
 71
11
 72
27
 73
26
 74
26
 0
VERTEX
 8
MESH_204_F0
 10
0
 20
0
 30
0
 70
128
 71
4
 72
30
 73
29
 74
29
 0
VERTEX
 8
MESH_204_F0
 10
0
 20
0
 30
0
 70
128
 71
1
 72
31
 73
30
 74
30
 0
VERTEX
 8
MESH_204_F0
 10
0
 20
0
 30
0
 70
128
 71
32
 72
31
 73
1
 74
1
 0
SEQEND
 0
POLYLINE
 8
MESH_203_F0
 66
1
 10
0.0
 20
0.0
 30
0.0
 70
64
 71
20
 72
20
 0
VERTEX
 8
MESH_203_F0
 10
-323.1777
 20
-295
 30
819
 70
192
 0
VERTEX
 8
MESH_203_F0
 10
323.1777
 20
-295
 30
819
 70
192
 0
VERTEX
 8
MESH_203_F0
 10
323.1777
 20
-295
 30
654
 70
192
 0
VERTEX
 8
MESH_203_F0
 10
324
 20
-295
 30
654
 70
192
 0
VERTEX
 8
MESH_203_F0
 10
324
 20
-295
 30
650
 70
192
 0
VERTEX
 8
MESH_203_F0
 10
-324
 20
-295
 30
650
 70
192
 0
VERTEX
 8
MESH_203_F0
 10
-324
 20
-295
 30
654
 70
192
 0
VERTEX
 8
MESH_203_F0
 10
-323.1777
 20
-295
 30
654
 70
192
 0
VERTEX
 8
MESH_203_F0
 10
-325
 20
-295
 30
820.0001
 70
192
 0
VERTEX
 8
MESH_203_F0
 10
-325
 20
-295
 30
0
 70
192
 0
VERTEX
 8
MESH_203_F0
 10
-307
 20
-295
 30
0
 70
192
 0
VERTEX
 8
MESH_203_F0
 10
-307
 20
-295
 30
1
 70
192
 0
VERTEX
 8
MESH_203_F0
 10
-323.1777
 20
-295
 30
1
 70
192
 0
VERTEX
 8
MESH_203_F0
 10
-323.1777
 20
-295
 30
647
 70
192
 0
VERTEX
 8
MESH_203_F0
 10
323.1777
 20
-295
 30
647
 70
192
 0
VERTEX
 8
MESH_203_F0
 10
323.1777
 20
-295
 30
1
 70
192
 0
VERTEX
 8
MESH_203_F0
 10
307
 20
-295
 30
1
 70
192
 0
VERTEX
 8
MESH_203_F0
 10
307
 20
-295
 30
0
 70
192
 0
VERTEX
 8
MESH_203_F0
 10
325
 20
-295
 30
0
 70
192
 0
VERTEX
 8
MESH_203_F0
 10
325
 20
-295
 30
820.0001
 70
192
 0
VERTEX
 8
MESH_203_F0
 10
0
 20
0
 30
0
 70
128
 71
2
 72
20
 73
4
 74
4
 0
VERTEX
 8
MESH_203_F0
 10
0
 20
0
 30
0
 70
128
 71
2
 72
4
 73
3
 74
3
 0
VERTEX
 8
MESH_203_F0
 10
0
 20
0
 30
0
 70
128
 71
20
 72
5
 73
4
 74
4
 0
VERTEX
 8
MESH_203_F0
 10
0
 20
0
 30
0
 70
128
 71
19
 72
5
 73
20
 74
20
 0
VERTEX
 8
MESH_203_F0
 10
0
 20
0
 30
0
 70
128
 71
15
 72
5
 73
19
 74
19
 0
VERTEX
 8
MESH_203_F0
 10
0
 20
0
 30
0
 70
128
 71
15
 72
19
 73
16
 74
16
 0
VERTEX
 8
MESH_203_F0
 10
0
 20
0
 30
0
 70
128
 71
19
 72
18
 73
16
 74
16
 0
VERTEX
 8
MESH_203_F0
 10
0
 20
0
 30
0
 70
128
 71
18
 72
17
 73
16
 74
16
 0
VERTEX
 8
MESH_203_F0
 10
0
 20
0
 30
0
 70
128
 71
15
 72
6
 73
5
 74
5
 0
VERTEX
 8
MESH_203_F0
 10
0
 20
0
 30
0
 70
128
 71
14
 72
6
 73
15
 74
15
 0
VERTEX
 8
MESH_203_F0
 10
0
 20
0
 30
0
 70
128
 71
10
 72
6
 73
14
 74
14
 0
VERTEX
 8
MESH_203_F0
 10
0
 20
0
 30
0
 70
128
 71
11
 72
10
 73
13
 74
13
 0
VERTEX
 8
MESH_203_F0
 10
0
 20
0
 30
0
 70
128
 71
11
 72
13
 73
12
 74
12
 0
VERTEX
 8
MESH_203_F0
 10
0
 20
0
 30
0
 70
128
 71
9
 72
6
 73
10
 74
10
 0
VERTEX
 8
MESH_203_F0
 10
0
 20
0
 30
0
 70
128
 71
7
 72
6
 73
9
 74
9
 0
VERTEX
 8
MESH_203_F0
 10
0
 20
0
 30
0
 70
128
 71
8
 72
7
 73
1
 74
1
 0
VERTEX
 8
MESH_203_F0
 10
0
 20
0
 30
0
 70
128
 71
7
 72
9
 73
1
 74
1
 0
VERTEX
 8
MESH_203_F0
 10
0
 20
0
 30
0
 70
128
 71
9
 72
2
 73
1
 74
1
 0
VERTEX
 8
MESH_203_F0
 10
0
 20
0
 30
0
 70
128
 71
20
 72
2
 73
9
 74
9
 0
VERTEX
 8
MESH_203_F0
 10
0
 20
0
 30
0
 70
128
 71
10
 72
14
 73
13
 74
13
 0
SEQEND
 0
POLYLINE
 8
MESH_202_F0
 66
1
 10
0.0
 20
0.0
 30
0.0
 70
64
 71
4
 72
2
 0
VERTEX
 8
MESH_202_F0
 10
-325
 20
0
 30
0
 70
192
 0
VERTEX
 8
MESH_202_F0
 10
-307
 20
0
 30
0
 70
192
 0
VERTEX
 8
MESH_202_F0
 10
-307
 20
-295
 30
0
 70
192
 0
VERTEX
 8
MESH_202_F0
 10
-325
 20
-295
 30
0
 70
192
 0
VERTEX
 8
MESH_202_F0
 10
0
 20
0
 30
0
 70
128
 71
1
 72
3
 73
2
 74
2
 0
VERTEX
 8
MESH_202_F0
 10
0
 20
0
 30
0
 70
128
 71
4
 72
3
 73
1
 74
1
 0
SEQEND
 0
POLYLINE
 8
MESH_201_F0
 66
1
 10
0.0
 20
0.0
 30
0.0
 70
64
 71
12
 72
10
 0
VERTEX
 8
MESH_201_F0
 10
-307
 20
0
 30
820.0001
 70
192
 0
VERTEX
 8
MESH_201_F0
 10
-307
 20
0
 30
0
 70
192
 0
VERTEX
 8
MESH_201_F0
 10
-325
 20
0
 30
0
 70
192
 0
VERTEX
 8
MESH_201_F0
 10
-325
 20
0
 30
820.0001
 70
192
 0
VERTEX
 8
MESH_201_F0
 10
-326
 20
0
 30
820.0001
 70
192
 0
VERTEX
 8
MESH_201_F0
 10
-326
 20
0
 30
844.9999
 70
192
 0
VERTEX
 8
MESH_201_F0
 10
326
 20
0
 30
844.9999
 70
192
 0
VERTEX
 8
MESH_201_F0
 10
326
 20
0
 30
820.0001
 70
192
 0
VERTEX
 8
MESH_201_F0
 10
325
 20
0
 30
820.0001
 70
192
 0
VERTEX
 8
MESH_201_F0
 10
325
 20
0
 30
0
 70
192
 0
VERTEX
 8
MESH_201_F0
 10
307
 20
0
 30
0
 70
192
 0
VERTEX
 8
MESH_201_F0
 10
307
 20
0
 30
820.0001
 70
192
 0
VERTEX
 8
MESH_201_F0
 10
0
 20
0
 30
0
 70
128
 71
1
 72
3
 73
2
 74
2
 0
VERTEX
 8
MESH_201_F0
 10
0
 20
0
 30
0
 70
128
 71
4
 72
3
 73
1
 74
1
 0
VERTEX
 8
MESH_201_F0
 10
0
 20
0
 30
0
 70
128
 71
5
 72
4
 73
6
 74
6
 0
VERTEX
 8
MESH_201_F0
 10
0
 20
0
 30
0
 70
128
 71
4
 72
1
 73
6
 74
6
 0
VERTEX
 8
MESH_201_F0
 10
0
 20
0
 30
0
 70
128
 71
1
 72
7
 73
6
 74
6
 0
VERTEX
 8
MESH_201_F0
 10
0
 20
0
 30
0
 70
128
 71
12
 72
7
 73
1
 74
1
 0
VERTEX
 8
MESH_201_F0
 10
0
 20
0
 30
0
 70
128
 71
9
 72
7
 73
12
 74
12
 0
VERTEX
 8
MESH_201_F0
 10
0
 20
0
 30
0
 70
128
 71
10
 72
9
 73
11
 74
11
 0
VERTEX
 8
MESH_201_F0
 10
0
 20
0
 30
0
 70
128
 71
9
 72
12
 73
11
 74
11
 0
VERTEX
 8
MESH_201_F0
 10
0
 20
0
 30
0
 70
128
 71
9
 72
8
 73
7
 74
7
 0
SEQEND
 0
POLYLINE
 8
MESH_200_F0
 66
1
 10
0.0
 20
0.0
 30
0.0
 70
64
 71
9
 72
7
 0
VERTEX
 8
MESH_200_F0
 10
307
 20
0
 30
820.0001
 70
192
 0
VERTEX
 8
MESH_200_F0
 10
307
 20
0
 30
0
 70
192
 0
VERTEX
 8
MESH_200_F0
 10
307
 20
-295
 30
0
 70
192
 0
VERTEX
 8
MESH_200_F0
 10
307
 20
-295
 30
1
 70
192
 0
VERTEX
 8
MESH_200_F0
 10
307
 20
-295
 30
424
 70
192
 0
VERTEX
 8
MESH_200_F0
 10
307
 20
-18
 30
424
 70
192
 0
VERTEX
 8
MESH_200_F0
 10
307
 20
-18
 30
784
 70
192
 0
VERTEX
 8
MESH_200_F0
 10
307
 20
-36
 30
784
 70
192
 0
VERTEX
 8
MESH_200_F0
 10
307
 20
-36
 30
820.0001
 70
192
 0
VERTEX
 8
MESH_200_F0
 10
0
 20
0
 30
0
 70
128
 71
2
 72
4
 73
3
 74
3
 0
VERTEX
 8
MESH_200_F0
 10
0
 20
0
 30
0
 70
128
 71
6
 72
4
 73
2
 74
2
 0
VERTEX
 8
MESH_200_F0
 10
0
 20
0
 30
0
 70
128
 71
7
 72
6
 73
1
 74
1
 0
VERTEX
 8
MESH_200_F0
 10
0
 20
0
 30
0
 70
128
 71
8
 72
7
 73
9
 74
9
 0
VERTEX
 8
MESH_200_F0
 10
0
 20
0
 30
0
 70
128
 71
7
 72
1
 73
9
 74
9
 0
VERTEX
 8
MESH_200_F0
 10
0
 20
0
 30
0
 70
128
 71
6
 72
5
 73
4
 74
4
 0
VERTEX
 8
MESH_200_F0
 10
0
 20
0
 30
0
 70
128
 71
1
 72
6
 73
2
 74
2
 0
SEQEND
 0
POLYLINE
 8
MESH_199_F0
 66
1
 10
0.0
 20
0.0
 30
0.0
 70
64
 71
4
 72
2
 0
VERTEX
 8
MESH_199_F0
 10
307
 20
-36
 30
820.0001
 70
192
 0
VERTEX
 8
MESH_199_F0
 10
307
 20
-36
 30
784
 70
192
 0
VERTEX
 8
MESH_199_F0
 10
-307
 20
-36
 30
784
 70
192
 0
VERTEX
 8
MESH_199_F0
 10
-307
 20
-36
 30
820.0001
 70
192
 0
VERTEX
 8
MESH_199_F0
 10
0
 20
0
 30
0
 70
128
 71
4
 72
2
 73
1
 74
1
 0
VERTEX
 8
MESH_199_F0
 10
0
 20
0
 30
0
 70
128
 71
3
 72
2
 73
4
 74
4
 0
SEQEND
 0
POLYLINE
 8
MESH_198_F0
 66
1
 10
0.0
 20
0.0
 30
0.0
 70
64
 71
9
 72
7
 0
VERTEX
 8
MESH_198_F0
 10
-307
 20
-36
 30
820.0001
 70
192
 0
VERTEX
 8
MESH_198_F0
 10
-307
 20
-36
 30
784
 70
192
 0
VERTEX
 8
MESH_198_F0
 10
-307
 20
-18
 30
784
 70
192
 0
VERTEX
 8
MESH_198_F0
 10
-307
 20
-18
 30
424
 70
192
 0
VERTEX
 8
MESH_198_F0
 10
-307
 20
-295
 30
424
 70
192
 0
VERTEX
 8
MESH_198_F0
 10
-307
 20
-295
 30
1
 70
192
 0
VERTEX
 8
MESH_198_F0
 10
-307
 20
-295
 30
0
 70
192
 0
VERTEX
 8
MESH_198_F0
 10
-307
 20
0
 30
0
 70
192
 0
VERTEX
 8
MESH_198_F0
 10
-307
 20
0
 30
820.0001
 70
192
 0
VERTEX
 8
MESH_198_F0
 10
0
 20
0
 30
0
 70
128
 71
1
 72
3
 73
2
 74
2
 0
VERTEX
 8
MESH_198_F0
 10
0
 20
0
 30
0
 70
128
 71
9
 72
3
 73
1
 74
1
 0
VERTEX
 8
MESH_198_F0
 10
0
 20
0
 30
0
 70
128
 71
4
 72
3
 73
9
 74
9
 0
VERTEX
 8
MESH_198_F0
 10
0
 20
0
 30
0
 70
128
 71
6
 72
4
 73
8
 74
8
 0
VERTEX
 8
MESH_198_F0
 10
0
 20
0
 30
0
 70
128
 71
6
 72
8
 73
7
 74
7
 0
VERTEX
 8
MESH_198_F0
 10
0
 20
0
 30
0
 70
128
 71
6
 72
5
 73
4
 74
4
 0
VERTEX
 8
MESH_198_F0
 10
0
 20
0
 30
0
 70
128
 71
4
 72
9
 73
8
 74
8
 0
SEQEND
 0
POLYLINE
 8
MESH_197_F0
 66
1
 10
0.0
 20
0.0
 30
0.0
 70
64
 71
4
 72
2
 0
VERTEX
 8
MESH_197_F0
 10
307
 20
-295
 30
1
 70
192
 0
VERTEX
 8
MESH_197_F0
 10
-307
 20
-295
 30
1
 70
192
 0
VERTEX
 8
MESH_197_F0
 10
-307
 20
-295
 30
424
 70
192
 0
VERTEX
 8
MESH_197_F0
 10
307
 20
-295
 30
424
 70
192
 0
VERTEX
 8
MESH_197_F0
 10
0
 20
0
 30
0
 70
128
 71
1
 72
3
 73
2
 74
2
 0
VERTEX
 8
MESH_197_F0
 10
0
 20
0
 30
0
 70
128
 71
4
 72
3
 73
1
 74
1
 0
SEQEND
 0
POLYLINE
 8
MESH_196_F0
 66
1
 10
0.0
 20
0.0
 30
0.0
 70
64
 71
34
 72
32
 0
VERTEX
 8
MESH_196_F0
 10
-307
 20
-295
 30
1
 70
192
 0
VERTEX
 8
MESH_196_F0
 10
307
 20
-295
 30
1
 70
192
 0
VERTEX
 8
MESH_196_F0
 10
323.1777
 20
-295
 30
1
 70
192
 0
VERTEX
 8
MESH_196_F0
 10
323.4743
 20
-297.8689
 30
1
 70
192
 0
VERTEX
 8
MESH_196_F0
 10
323.4385
 20
-300.7528
 30
1
 70
192
 0
VERTEX
 8
MESH_196_F0
 10
323.0708
 20
-303.6135
 30
1
 70
192
 0
VERTEX
 8
MESH_196_F0
 10
322.376
 20
-306.4127
 30
1
 70
192
 0
VERTEX
 8
MESH_196_F0
 10
321.3634
 20
-309.1133
 30
1
 70
192
 0
VERTEX
 8
MESH_196_F0
 10
320.0466
 20
-311.6793
 30
1
 70
192
 0
VERTEX
 8
MESH_196_F0
 10
318.4429
 20
-314.0765
 30
1
 70
192
 0
VERTEX
 8
MESH_196_F0
 10
316.5738
 20
-316.2731
 30
1
 70
192
 0
VERTEX
 8
MESH_196_F0
 10
314.4641
 20
-318.2397
 30
1
 70
192
 0
VERTEX
 8
MESH_196_F0
 10
312.142
 20
-319.9503
 30
1
 70
192
 0
VERTEX
 8
MESH_196_F0
 10
309.6383
 20
-321.382
 30
1
 70
192
 0
VERTEX
 8
MESH_196_F0
 10
306.9863
 20
-322.5159
 30
1
 70
192
 0
VERTEX
 8
MESH_196_F0
 10
304.2214
 20
-323.3367
 30
1
 70
192
 0
VERTEX
 8
MESH_196_F0
 10
301.3804
 20
-323.8336
 30
1
 70
192
 0
VERTEX
 8
MESH_196_F0
 10
298.501
 20
-324
 30
1
 70
192
 0
VERTEX
 8
MESH_196_F0
 10
-298.501
 20
-324
 30
1
 70
192
 0
VERTEX
 8
MESH_196_F0
 10
-301.3804
 20
-323.8336
 30
1
 70
192
 0
VERTEX
 8
MESH_196_F0
 10
-304.2214
 20
-323.3367
 30
1
 70
192
 0
VERTEX
 8
MESH_196_F0
 10
-306.9863
 20
-322.5159
 30
1
 70
192
 0
VERTEX
 8
MESH_196_F0
 10
-309.6383
 20
-321.382
 30
1
 70
192
 0
VERTEX
 8
MESH_196_F0
 10
-312.142
 20
-319.9503
 30
1
 70
192
 0
VERTEX
 8
MESH_196_F0
 10
-314.4641
 20
-318.2397
 30
1
 70
192
 0
VERTEX
 8
MESH_196_F0
 10
-316.5738
 20
-316.2731
 30
1
 70
192
 0
VERTEX
 8
MESH_196_F0
 10
-318.4429
 20
-314.0765
 30
1
 70
192
 0
VERTEX
 8
MESH_196_F0
 10
-320.0466
 20
-311.6793
 30
1
 70
192
 0
VERTEX
 8
MESH_196_F0
 10
-321.3634
 20
-309.1133
 30
1
 70
192
 0
VERTEX
 8
MESH_196_F0
 10
-322.376
 20
-306.4127
 30
1
 70
192
 0
VERTEX
 8
MESH_196_F0
 10
-323.0708
 20
-303.6135
 30
1
 70
192
 0
VERTEX
 8
MESH_196_F0
 10
-323.4385
 20
-300.7528
 30
1
 70
192
 0
VERTEX
 8
MESH_196_F0
 10
-323.4743
 20
-297.8689
 30
1
 70
192
 0
VERTEX
 8
MESH_196_F0
 10
-323.1777
 20
-295
 30
1
 70
192
 0
VERTEX
 8
MESH_196_F0
 10
0
 20
0
 30
0
 70
128
 71
1
 72
4
 73
2
 74
2
 0
VERTEX
 8
MESH_196_F0
 10
0
 20
0
 30
0
 70
128
 71
4
 72
3
 73
2
 74
2
 0
VERTEX
 8
MESH_196_F0
 10
0
 20
0
 30
0
 70
128
 71
1
 72
5
 73
4
 74
4
 0
VERTEX
 8
MESH_196_F0
 10
0
 20
0
 30
0
 70
128
 71
6
 72
5
 73
1
 74
1
 0
VERTEX
 8
MESH_196_F0
 10
0
 20
0
 30
0
 70
128
 71
6
 72
1
 73
7
 74
7
 0
VERTEX
 8
MESH_196_F0
 10
0
 20
0
 30
0
 70
128
 71
1
 72
27
 73
7
 74
7
 0
VERTEX
 8
MESH_196_F0
 10
0
 20
0
 30
0
 70
128
 71
27
 72
26
 73
7
 74
7
 0
VERTEX
 8
MESH_196_F0
 10
0
 20
0
 30
0
 70
128
 71
26
 72
8
 73
7
 74
7
 0
VERTEX
 8
MESH_196_F0
 10
0
 20
0
 30
0
 70
128
 71
25
 72
8
 73
26
 74
26
 0
VERTEX
 8
MESH_196_F0
 10
0
 20
0
 30
0
 70
128
 71
24
 72
8
 73
25
 74
25
 0
VERTEX
 8
MESH_196_F0
 10
0
 20
0
 30
0
 70
128
 71
9
 72
8
 73
24
 74
24
 0
VERTEX
 8
MESH_196_F0
 10
0
 20
0
 30
0
 70
128
 71
19
 72
9
 73
23
 74
23
 0
VERTEX
 8
MESH_196_F0
 10
0
 20
0
 30
0
 70
128
 71
21
 72
19
 73
22
 74
22
 0
VERTEX
 8
MESH_196_F0
 10
0
 20
0
 30
0
 70
128
 71
19
 72
23
 73
22
 74
22
 0
VERTEX
 8
MESH_196_F0
 10
0
 20
0
 30
0
 70
128
 71
19
 72
10
 73
9
 74
9
 0
VERTEX
 8
MESH_196_F0
 10
0
 20
0
 30
0
 70
128
 71
11
 72
10
 73
19
 74
19
 0
VERTEX
 8
MESH_196_F0
 10
0
 20
0
 30
0
 70
128
 71
11
 72
19
 73
12
 74
12
 0
VERTEX
 8
MESH_196_F0
 10
0
 20
0
 30
0
 70
128
 71
19
 72
13
 73
12
 74
12
 0
VERTEX
 8
MESH_196_F0
 10
0
 20
0
 30
0
 70
128
 71
14
 72
13
 73
19
 74
19
 0
VERTEX
 8
MESH_196_F0
 10
0
 20
0
 30
0
 70
128
 71
15
 72
14
 73
18
 74
18
 0
VERTEX
 8
MESH_196_F0
 10
0
 20
0
 30
0
 70
128
 71
15
 72
18
 73
16
 74
16
 0
VERTEX
 8
MESH_196_F0
 10
0
 20
0
 30
0
 70
128
 71
18
 72
17
 73
16
 74
16
 0
VERTEX
 8
MESH_196_F0
 10
0
 20
0
 30
0
 70
128
 71
14
 72
19
 73
18
 74
18
 0
VERTEX
 8
MESH_196_F0
 10
0
 20
0
 30
0
 70
128
 71
21
 72
20
 73
19
 74
19
 0
VERTEX
 8
MESH_196_F0
 10
0
 20
0
 30
0
 70
128
 71
9
 72
24
 73
23
 74
23
 0
VERTEX
 8
MESH_196_F0
 10
0
 20
0
 30
0
 70
128
 71
1
 72
28
 73
27
 74
27
 0
VERTEX
 8
MESH_196_F0
 10
0
 20
0
 30
0
 70
128
 71
34
 72
28
 73
1
 74
1
 0
VERTEX
 8
MESH_196_F0
 10
0
 20
0
 30
0
 70
128
 71
29
 72
28
 73
34
 74
34
 0
VERTEX
 8
MESH_196_F0
 10
0
 20
0
 30
0
 70
128
 71
29
 72
34
 73
30
 74
30
 0
VERTEX
 8
MESH_196_F0
 10
0
 20
0
 30
0
 70
128
 71
34
 72
31
 73
30
 74
30
 0
VERTEX
 8
MESH_196_F0
 10
0
 20
0
 30
0
 70
128
 71
32
 72
31
 73
34
 74
34
 0
VERTEX
 8
MESH_196_F0
 10
0
 20
0
 30
0
 70
128
 71
32
 72
34
 73
33
 74
33
 0
SEQEND
 0
POLYLINE
 8
MESH_195_F0
 66
1
 10
0.0
 20
0.0
 30
0.0
 70
64
 71
32
 72
30
 0
VERTEX
 8
MESH_195_F0
 10
-323.1777
 20
-295
 30
1
 70
192
 0
VERTEX
 8
MESH_195_F0
 10
-323.4743
 20
-297.8689
 30
1
 70
192
 0
VERTEX
 8
MESH_195_F0
 10
-323.4385
 20
-300.7528
 30
1
 70
192
 0
VERTEX
 8
MESH_195_F0
 10
-323.0708
 20
-303.6135
 30
1
 70
192
 0
VERTEX
 8
MESH_195_F0
 10
-322.376
 20
-306.4127
 30
1
 70
192
 0
VERTEX
 8
MESH_195_F0
 10
-321.3634
 20
-309.1133
 30
1
 70
192
 0
VERTEX
 8
MESH_195_F0
 10
-320.0466
 20
-311.6793
 30
1
 70
192
 0
VERTEX
 8
MESH_195_F0
 10
-318.4429
 20
-314.0765
 30
1
 70
192
 0
VERTEX
 8
MESH_195_F0
 10
-316.5738
 20
-316.2731
 30
1
 70
192
 0
VERTEX
 8
MESH_195_F0
 10
-314.4641
 20
-318.2397
 30
1
 70
192
 0
VERTEX
 8
MESH_195_F0
 10
-312.142
 20
-319.9503
 30
1
 70
192
 0
VERTEX
 8
MESH_195_F0
 10
-309.6383
 20
-321.382
 30
1
 70
192
 0
VERTEX
 8
MESH_195_F0
 10
-306.9863
 20
-322.5159
 30
1
 70
192
 0
VERTEX
 8
MESH_195_F0
 10
-304.2214
 20
-323.3367
 30
1
 70
192
 0
VERTEX
 8
MESH_195_F0
 10
-301.3804
 20
-323.8336
 30
1
 70
192
 0
VERTEX
 8
MESH_195_F0
 10
-298.501
 20
-324
 30
1
 70
192
 0
VERTEX
 8
MESH_195_F0
 10
-298.501
 20
-324
 30
647
 70
192
 0
VERTEX
 8
MESH_195_F0
 10
-301.3804
 20
-323.8336
 30
647
 70
192
 0
VERTEX
 8
MESH_195_F0
 10
-304.2214
 20
-323.3367
 30
647
 70
192
 0
VERTEX
 8
MESH_195_F0
 10
-306.9863
 20
-322.5159
 30
647
 70
192
 0
VERTEX
 8
MESH_195_F0
 10
-309.6383
 20
-321.382
 30
647
 70
192
 0
VERTEX
 8
MESH_195_F0
 10
-312.142
 20
-319.9503
 30
647
 70
192
 0
VERTEX
 8
MESH_195_F0
 10
-314.4641
 20
-318.2397
 30
647
 70
192
 0
VERTEX
 8
MESH_195_F0
 10
-316.5738
 20
-316.2731
 30
647
 70
192
 0
VERTEX
 8
MESH_195_F0
 10
-318.4429
 20
-314.0765
 30
647
 70
192
 0
VERTEX
 8
MESH_195_F0
 10
-320.0466
 20
-311.6793
 30
647
 70
192
 0
VERTEX
 8
MESH_195_F0
 10
-321.3634
 20
-309.1133
 30
647
 70
192
 0
VERTEX
 8
MESH_195_F0
 10
-322.376
 20
-306.4127
 30
647
 70
192
 0
VERTEX
 8
MESH_195_F0
 10
-323.0708
 20
-303.6135
 30
647
 70
192
 0
VERTEX
 8
MESH_195_F0
 10
-323.4385
 20
-300.7528
 30
647
 70
192
 0
VERTEX
 8
MESH_195_F0
 10
-323.4743
 20
-297.8689
 30
647
 70
192
 0
VERTEX
 8
MESH_195_F0
 10
-323.1777
 20
-295
 30
647
 70
192
 0
VERTEX
 8
MESH_195_F0
 10
0
 20
0
 30
0
 70
128
 71
31
 72
1
 73
32
 74
32
 0
VERTEX
 8
MESH_195_F0
 10
0
 20
0
 30
0
 70
128
 71
2
 72
1
 73
31
 74
31
 0
VERTEX
 8
MESH_195_F0
 10
0
 20
0
 30
0
 70
128
 71
3
 72
2
 73
30
 74
30
 0
VERTEX
 8
MESH_195_F0
 10
0
 20
0
 30
0
 70
128
 71
4
 72
3
 73
29
 74
29
 0
VERTEX
 8
MESH_195_F0
 10
0
 20
0
 30
0
 70
128
 71
5
 72
4
 73
28
 74
28
 0
VERTEX
 8
MESH_195_F0
 10
0
 20
0
 30
0
 70
128
 71
6
 72
5
 73
27
 74
27
 0
VERTEX
 8
MESH_195_F0
 10
0
 20
0
 30
0
 70
128
 71
7
 72
6
 73
26
 74
26
 0
VERTEX
 8
MESH_195_F0
 10
0
 20
0
 30
0
 70
128
 71
8
 72
7
 73
25
 74
25
 0
VERTEX
 8
MESH_195_F0
 10
0
 20
0
 30
0
 70
128
 71
9
 72
8
 73
24
 74
24
 0
VERTEX
 8
MESH_195_F0
 10
0
 20
0
 30
0
 70
128
 71
10
 72
9
 73
23
 74
23
 0
VERTEX
 8
MESH_195_F0
 10
0
 20
0
 30
0
 70
128
 71
11
 72
10
 73
22
 74
22
 0
VERTEX
 8
MESH_195_F0
 10
0
 20
0
 30
0
 70
128
 71
12
 72
11
 73
21
 74
21
 0
VERTEX
 8
MESH_195_F0
 10
0
 20
0
 30
0
 70
128
 71
13
 72
12
 73
20
 74
20
 0
VERTEX
 8
MESH_195_F0
 10
0
 20
0
 30
0
 70
128
 71
14
 72
13
 73
19
 74
19
 0
VERTEX
 8
MESH_195_F0
 10
0
 20
0
 30
0
 70
128
 71
15
 72
14
 73
18
 74
18
 0
VERTEX
 8
MESH_195_F0
 10
0
 20
0
 30
0
 70
128
 71
16
 72
15
 73
17
 74
17
 0
VERTEX
 8
MESH_195_F0
 10
0
 20
0
 30
0
 70
128
 71
15
 72
18
 73
17
 74
17
 0
VERTEX
 8
MESH_195_F0
 10
0
 20
0
 30
0
 70
128
 71
14
 72
19
 73
18
 74
18
 0
VERTEX
 8
MESH_195_F0
 10
0
 20
0
 30
0
 70
128
 71
13
 72
20
 73
19
 74
19
 0
VERTEX
 8
MESH_195_F0
 10
0
 20
0
 30
0
 70
128
 71
12
 72
21
 73
20
 74
20
 0
VERTEX
 8
MESH_195_F0
 10
0
 20
0
 30
0
 70
128
 71
11
 72
22
 73
21
 74
21
 0
VERTEX
 8
MESH_195_F0
 10
0
 20
0
 30
0
 70
128
 71
10
 72
23
 73
22
 74
22
 0
VERTEX
 8
MESH_195_F0
 10
0
 20
0
 30
0
 70
128
 71
9
 72
24
 73
23
 74
23
 0
VERTEX
 8
MESH_195_F0
 10
0
 20
0
 30
0
 70
128
 71
8
 72
25
 73
24
 74
24
 0
VERTEX
 8
MESH_195_F0
 10
0
 20
0
 30
0
 70
128
 71
7
 72
26
 73
25
 74
25
 0
VERTEX
 8
MESH_195_F0
 10
0
 20
0
 30
0
 70
128
 71
6
 72
27
 73
26
 74
26
 0
VERTEX
 8
MESH_195_F0
 10
0
 20
0
 30
0
 70
128
 71
5
 72
28
 73
27
 74
27
 0
VERTEX
 8
MESH_195_F0
 10
0
 20
0
 30
0
 70
128
 71
4
 72
29
 73
28
 74
28
 0
VERTEX
 8
MESH_195_F0
 10
0
 20
0
 30
0
 70
128
 71
3
 72
30
 73
29
 74
29
 0
VERTEX
 8
MESH_195_F0
 10
0
 20
0
 30
0
 70
128
 71
2
 72
31
 73
30
 74
30
 0
SEQEND
 0
POLYLINE
 8
MESH_194_F0
 66
1
 10
0.0
 20
0.0
 30
0.0
 70
64
 71
32
 72
30
 0
VERTEX
 8
MESH_194_F0
 10
-323.1777
 20
-295
 30
647
 70
192
 0
VERTEX
 8
MESH_194_F0
 10
-323.4743
 20
-297.8689
 30
647
 70
192
 0
VERTEX
 8
MESH_194_F0
 10
-323.4385
 20
-300.7528
 30
647
 70
192
 0
VERTEX
 8
MESH_194_F0
 10
-323.0708
 20
-303.6135
 30
647
 70
192
 0
VERTEX
 8
MESH_194_F0
 10
-322.376
 20
-306.4127
 30
647
 70
192
 0
VERTEX
 8
MESH_194_F0
 10
-321.3634
 20
-309.1133
 30
647
 70
192
 0
VERTEX
 8
MESH_194_F0
 10
-320.0466
 20
-311.6793
 30
647
 70
192
 0
VERTEX
 8
MESH_194_F0
 10
-318.4429
 20
-314.0765
 30
647
 70
192
 0
VERTEX
 8
MESH_194_F0
 10
-316.5738
 20
-316.2731
 30
647
 70
192
 0
VERTEX
 8
MESH_194_F0
 10
-314.4641
 20
-318.2397
 30
647
 70
192
 0
VERTEX
 8
MESH_194_F0
 10
-312.142
 20
-319.9503
 30
647
 70
192
 0
VERTEX
 8
MESH_194_F0
 10
-309.6383
 20
-321.382
 30
647
 70
192
 0
VERTEX
 8
MESH_194_F0
 10
-306.9863
 20
-322.5159
 30
647
 70
192
 0
VERTEX
 8
MESH_194_F0
 10
-304.2214
 20
-323.3367
 30
647
 70
192
 0
VERTEX
 8
MESH_194_F0
 10
-301.3804
 20
-323.8336
 30
647
 70
192
 0
VERTEX
 8
MESH_194_F0
 10
-298.501
 20
-324
 30
647
 70
192
 0
VERTEX
 8
MESH_194_F0
 10
298.501
 20
-324
 30
647
 70
192
 0
VERTEX
 8
MESH_194_F0
 10
301.3804
 20
-323.8336
 30
647
 70
192
 0
VERTEX
 8
MESH_194_F0
 10
304.2214
 20
-323.3367
 30
647
 70
192
 0
VERTEX
 8
MESH_194_F0
 10
306.9863
 20
-322.5159
 30
647
 70
192
 0
VERTEX
 8
MESH_194_F0
 10
309.6383
 20
-321.382
 30
647
 70
192
 0
VERTEX
 8
MESH_194_F0
 10
312.142
 20
-319.9503
 30
647
 70
192
 0
VERTEX
 8
MESH_194_F0
 10
314.4641
 20
-318.2397
 30
647
 70
192
 0
VERTEX
 8
MESH_194_F0
 10
316.5738
 20
-316.2731
 30
647
 70
192
 0
VERTEX
 8
MESH_194_F0
 10
318.4429
 20
-314.0765
 30
647
 70
192
 0
VERTEX
 8
MESH_194_F0
 10
320.0466
 20
-311.6793
 30
647
 70
192
 0
VERTEX
 8
MESH_194_F0
 10
321.3634
 20
-309.1133
 30
647
 70
192
 0
VERTEX
 8
MESH_194_F0
 10
322.376
 20
-306.4127
 30
647
 70
192
 0
VERTEX
 8
MESH_194_F0
 10
323.0708
 20
-303.6135
 30
647
 70
192
 0
VERTEX
 8
MESH_194_F0
 10
323.4385
 20
-300.7528
 30
647
 70
192
 0
VERTEX
 8
MESH_194_F0
 10
323.4743
 20
-297.8689
 30
647
 70
192
 0
VERTEX
 8
MESH_194_F0
 10
323.1777
 20
-295
 30
647
 70
192
 0
VERTEX
 8
MESH_194_F0
 10
0
 20
0
 30
0
 70
128
 71
1
 72
30
 73
2
 74
2
 0
VERTEX
 8
MESH_194_F0
 10
0
 20
0
 30
0
 70
128
 71
30
 72
3
 73
2
 74
2
 0
VERTEX
 8
MESH_194_F0
 10
0
 20
0
 30
0
 70
128
 71
4
 72
3
 73
30
 74
30
 0
VERTEX
 8
MESH_194_F0
 10
0
 20
0
 30
0
 70
128
 71
5
 72
4
 73
29
 74
29
 0
VERTEX
 8
MESH_194_F0
 10
0
 20
0
 30
0
 70
128
 71
5
 72
29
 73
6
 74
6
 0
VERTEX
 8
MESH_194_F0
 10
0
 20
0
 30
0
 70
128
 71
29
 72
7
 73
6
 74
6
 0
VERTEX
 8
MESH_194_F0
 10
0
 20
0
 30
0
 70
128
 71
28
 72
7
 73
29
 74
29
 0
VERTEX
 8
MESH_194_F0
 10
0
 20
0
 30
0
 70
128
 71
8
 72
7
 73
28
 74
28
 0
VERTEX
 8
MESH_194_F0
 10
0
 20
0
 30
0
 70
128
 71
8
 72
28
 73
9
 74
9
 0
VERTEX
 8
MESH_194_F0
 10
0
 20
0
 30
0
 70
128
 71
28
 72
27
 73
9
 74
9
 0
VERTEX
 8
MESH_194_F0
 10
0
 20
0
 30
0
 70
128
 71
27
 72
10
 73
9
 74
9
 0
VERTEX
 8
MESH_194_F0
 10
0
 20
0
 30
0
 70
128
 71
11
 72
10
 73
27
 74
27
 0
VERTEX
 8
MESH_194_F0
 10
0
 20
0
 30
0
 70
128
 71
12
 72
11
 73
26
 74
26
 0
VERTEX
 8
MESH_194_F0
 10
0
 20
0
 30
0
 70
128
 71
13
 72
12
 73
16
 74
16
 0
VERTEX
 8
MESH_194_F0
 10
0
 20
0
 30
0
 70
128
 71
13
 72
16
 73
14
 74
14
 0
VERTEX
 8
MESH_194_F0
 10
0
 20
0
 30
0
 70
128
 71
16
 72
15
 73
14
 74
14
 0
VERTEX
 8
MESH_194_F0
 10
0
 20
0
 30
0
 70
128
 71
17
 72
20
 73
19
 74
19
 0
VERTEX
 8
MESH_194_F0
 10
0
 20
0
 30
0
 70
128
 71
17
 72
19
 73
18
 74
18
 0
VERTEX
 8
MESH_194_F0
 10
0
 20
0
 30
0
 70
128
 71
17
 72
21
 73
20
 74
20
 0
VERTEX
 8
MESH_194_F0
 10
0
 20
0
 30
0
 70
128
 71
16
 72
21
 73
17
 74
17
 0
VERTEX
 8
MESH_194_F0
 10
0
 20
0
 30
0
 70
128
 71
22
 72
21
 73
16
 74
16
 0
VERTEX
 8
MESH_194_F0
 10
0
 20
0
 30
0
 70
128
 71
22
 72
16
 73
23
 74
23
 0
VERTEX
 8
MESH_194_F0
 10
0
 20
0
 30
0
 70
128
 71
16
 72
24
 73
23
 74
23
 0
VERTEX
 8
MESH_194_F0
 10
0
 20
0
 30
0
 70
128
 71
25
 72
24
 73
16
 74
16
 0
VERTEX
 8
MESH_194_F0
 10
0
 20
0
 30
0
 70
128
 71
25
 72
16
 73
26
 74
26
 0
VERTEX
 8
MESH_194_F0
 10
0
 20
0
 30
0
 70
128
 71
16
 72
12
 73
26
 74
26
 0
VERTEX
 8
MESH_194_F0
 10
0
 20
0
 30
0
 70
128
 71
11
 72
27
 73
26
 74
26
 0
VERTEX
 8
MESH_194_F0
 10
0
 20
0
 30
0
 70
128
 71
4
 72
30
 73
29
 74
29
 0
VERTEX
 8
MESH_194_F0
 10
0
 20
0
 30
0
 70
128
 71
1
 72
31
 73
30
 74
30
 0
VERTEX
 8
MESH_194_F0
 10
0
 20
0
 30
0
 70
128
 71
32
 72
31
 73
1
 74
1
 0
SEQEND
 0
POLYLINE
 8
MESH_193_F0
 66
1
 10
0.0
 20
0.0
 30
0.0
 70
64
 71
32
 72
30
 0
VERTEX
 8
MESH_193_F0
 10
323.1777
 20
-295
 30
647
 70
192
 0
VERTEX
 8
MESH_193_F0
 10
323.4743
 20
-297.8689
 30
647
 70
192
 0
VERTEX
 8
MESH_193_F0
 10
323.4385
 20
-300.7528
 30
647
 70
192
 0
VERTEX
 8
MESH_193_F0
 10
323.0708
 20
-303.6135
 30
647
 70
192
 0
VERTEX
 8
MESH_193_F0
 10
322.376
 20
-306.4127
 30
647
 70
192
 0
VERTEX
 8
MESH_193_F0
 10
321.3634
 20
-309.1133
 30
647
 70
192
 0
VERTEX
 8
MESH_193_F0
 10
320.0466
 20
-311.6793
 30
647
 70
192
 0
VERTEX
 8
MESH_193_F0
 10
318.4429
 20
-314.0765
 30
647
 70
192
 0
VERTEX
 8
MESH_193_F0
 10
316.5738
 20
-316.2731
 30
647
 70
192
 0
VERTEX
 8
MESH_193_F0
 10
314.4641
 20
-318.2397
 30
647
 70
192
 0
VERTEX
 8
MESH_193_F0
 10
312.142
 20
-319.9503
 30
647
 70
192
 0
VERTEX
 8
MESH_193_F0
 10
309.6383
 20
-321.382
 30
647
 70
192
 0
VERTEX
 8
MESH_193_F0
 10
306.9863
 20
-322.5159
 30
647
 70
192
 0
VERTEX
 8
MESH_193_F0
 10
304.2214
 20
-323.3367
 30
647
 70
192
 0
VERTEX
 8
MESH_193_F0
 10
301.3804
 20
-323.8336
 30
647
 70
192
 0
VERTEX
 8
MESH_193_F0
 10
298.501
 20
-324
 30
647
 70
192
 0
VERTEX
 8
MESH_193_F0
 10
298.501
 20
-324
 30
1
 70
192
 0
VERTEX
 8
MESH_193_F0
 10
301.3804
 20
-323.8336
 30
1
 70
192
 0
VERTEX
 8
MESH_193_F0
 10
304.2214
 20
-323.3367
 30
1
 70
192
 0
VERTEX
 8
MESH_193_F0
 10
306.9863
 20
-322.5159
 30
1
 70
192
 0
VERTEX
 8
MESH_193_F0
 10
309.6383
 20
-321.382
 30
1
 70
192
 0
VERTEX
 8
MESH_193_F0
 10
312.142
 20
-319.9503
 30
1
 70
192
 0
VERTEX
 8
MESH_193_F0
 10
314.4641
 20
-318.2397
 30
1
 70
192
 0
VERTEX
 8
MESH_193_F0
 10
316.5738
 20
-316.2731
 30
1
 70
192
 0
VERTEX
 8
MESH_193_F0
 10
318.4429
 20
-314.0765
 30
1
 70
192
 0
VERTEX
 8
MESH_193_F0
 10
320.0466
 20
-311.6793
 30
1
 70
192
 0
VERTEX
 8
MESH_193_F0
 10
321.3634
 20
-309.1133
 30
1
 70
192
 0
VERTEX
 8
MESH_193_F0
 10
322.376
 20
-306.4127
 30
1
 70
192
 0
VERTEX
 8
MESH_193_F0
 10
323.0708
 20
-303.6135
 30
1
 70
192
 0
VERTEX
 8
MESH_193_F0
 10
323.4385
 20
-300.7528
 30
1
 70
192
 0
VERTEX
 8
MESH_193_F0
 10
323.4743
 20
-297.8689
 30
1
 70
192
 0
VERTEX
 8
MESH_193_F0
 10
323.1777
 20
-295
 30
1
 70
192
 0
VERTEX
 8
MESH_193_F0
 10
0
 20
0
 30
0
 70
128
 71
31
 72
1
 73
32
 74
32
 0
VERTEX
 8
MESH_193_F0
 10
0
 20
0
 30
0
 70
128
 71
2
 72
1
 73
31
 74
31
 0
VERTEX
 8
MESH_193_F0
 10
0
 20
0
 30
0
 70
128
 71
3
 72
2
 73
30
 74
30
 0
VERTEX
 8
MESH_193_F0
 10
0
 20
0
 30
0
 70
128
 71
4
 72
3
 73
29
 74
29
 0
VERTEX
 8
MESH_193_F0
 10
0
 20
0
 30
0
 70
128
 71
5
 72
4
 73
28
 74
28
 0
VERTEX
 8
MESH_193_F0
 10
0
 20
0
 30
0
 70
128
 71
6
 72
5
 73
27
 74
27
 0
VERTEX
 8
MESH_193_F0
 10
0
 20
0
 30
0
 70
128
 71
7
 72
6
 73
26
 74
26
 0
VERTEX
 8
MESH_193_F0
 10
0
 20
0
 30
0
 70
128
 71
8
 72
7
 73
25
 74
25
 0
VERTEX
 8
MESH_193_F0
 10
0
 20
0
 30
0
 70
128
 71
9
 72
8
 73
24
 74
24
 0
VERTEX
 8
MESH_193_F0
 10
0
 20
0
 30
0
 70
128
 71
10
 72
9
 73
23
 74
23
 0
VERTEX
 8
MESH_193_F0
 10
0
 20
0
 30
0
 70
128
 71
11
 72
10
 73
22
 74
22
 0
VERTEX
 8
MESH_193_F0
 10
0
 20
0
 30
0
 70
128
 71
12
 72
11
 73
21
 74
21
 0
VERTEX
 8
MESH_193_F0
 10
0
 20
0
 30
0
 70
128
 71
13
 72
12
 73
20
 74
20
 0
VERTEX
 8
MESH_193_F0
 10
0
 20
0
 30
0
 70
128
 71
14
 72
13
 73
19
 74
19
 0
VERTEX
 8
MESH_193_F0
 10
0
 20
0
 30
0
 70
128
 71
15
 72
14
 73
18
 74
18
 0
VERTEX
 8
MESH_193_F0
 10
0
 20
0
 30
0
 70
128
 71
16
 72
15
 73
17
 74
17
 0
VERTEX
 8
MESH_193_F0
 10
0
 20
0
 30
0
 70
128
 71
15
 72
18
 73
17
 74
17
 0
VERTEX
 8
MESH_193_F0
 10
0
 20
0
 30
0
 70
128
 71
14
 72
19
 73
18
 74
18
 0
VERTEX
 8
MESH_193_F0
 10
0
 20
0
 30
0
 70
128
 71
13
 72
20
 73
19
 74
19
 0
VERTEX
 8
MESH_193_F0
 10
0
 20
0
 30
0
 70
128
 71
12
 72
21
 73
20
 74
20
 0
VERTEX
 8
MESH_193_F0
 10
0
 20
0
 30
0
 70
128
 71
11
 72
22
 73
21
 74
21
 0
VERTEX
 8
MESH_193_F0
 10
0
 20
0
 30
0
 70
128
 71
10
 72
23
 73
22
 74
22
 0
VERTEX
 8
MESH_193_F0
 10
0
 20
0
 30
0
 70
128
 71
9
 72
24
 73
23
 74
23
 0
VERTEX
 8
MESH_193_F0
 10
0
 20
0
 30
0
 70
128
 71
8
 72
25
 73
24
 74
24
 0
VERTEX
 8
MESH_193_F0
 10
0
 20
0
 30
0
 70
128
 71
7
 72
26
 73
25
 74
25
 0
VERTEX
 8
MESH_193_F0
 10
0
 20
0
 30
0
 70
128
 71
6
 72
27
 73
26
 74
26
 0
VERTEX
 8
MESH_193_F0
 10
0
 20
0
 30
0
 70
128
 71
5
 72
28
 73
27
 74
27
 0
VERTEX
 8
MESH_193_F0
 10
0
 20
0
 30
0
 70
128
 71
4
 72
29
 73
28
 74
28
 0
VERTEX
 8
MESH_193_F0
 10
0
 20
0
 30
0
 70
128
 71
3
 72
30
 73
29
 74
29
 0
VERTEX
 8
MESH_193_F0
 10
0
 20
0
 30
0
 70
128
 71
2
 72
31
 73
30
 74
30
 0
SEQEND
 0
ENDSEC
 0
EOF
