 0
SECTION
 2
HEADER
 9
$ACADVER
 1
AC1009
 0
ENDSEC
 0
SECTION
 2
TABLES
 0
TABLE
 2
LTYPE
 70
1
 0
LTYPE
 2
CONTINUOUS
 70
64
 3
solid line
 72
65
 73
0
 40
0.0
 0
ENDTAB
 0
TABLE
 2
LAYER
 70
6
 0
LAYER
 2
0
 70
0
 62
7
 6
CONTINUOUS
 0
LAYER
 2
MESH_168_F0
 70
64
 62
7
 6
CONTINUOUS
 0
LAYER
 2
MESH_167_F0
 70
64
 62
7
 6
CONTINUOUS
 0
LAYER
 2
MESH_166_F0
 70
64
 62
7
 6
CONTINUOUS
 0
LAYER
 2
MESH_165_F0
 70
64
 62
7
 6
CONTINUOUS
 0
LAYER
 2
MESH_164_F0
 70
64
 62
7
 6
CONTINUOUS
 0
LAYER
 2
MESH_163_F0
 70
64
 62
7
 6
CONTINUOUS
 0
LAYER
 2
MESH_162_F0
 70
64
 62
7
 6
CONTINUOUS
 0
LAYER
 2
MESH_161_F0
 70
64
 62
7
 6
CONTINUOUS
 0
LAYER
 2
MESH_160_F0
 70
64
 62
7
 6
CONTINUOUS
 0
LAYER
 2
MESH_159_F0
 70
64
 62
7
 6
CONTINUOUS
 0
LAYER
 2
MESH_158_F0
 70
64
 62
7
 6
CONTINUOUS
 0
LAYER
 2
MESH_157_F0
 70
64
 62
7
 6
CONTINUOUS
 0
LAYER
 2
MESH_156_F0
 70
64
 62
7
 6
CONTINUOUS
 0
LAYER
 2
MESH_155_F0
 70
64
 62
7
 6
CONTINUOUS
 0
LAYER
 2
MESH_154_F0
 70
64
 62
7
 6
CONTINUOUS
 0
LAYER
 2
MESH_153_F0
 70
64
 62
7
 6
CONTINUOUS
 0
LAYER
 2
MESH_152_F0
 70
64
 62
7
 6
CONTINUOUS
 0
LAYER
 2
MESH_151_F0
 70
64
 62
7
 6
CONTINUOUS
 0
LAYER
 2
MESH_150_F0
 70
64
 62
7
 6
CONTINUOUS
 0
LAYER
 2
MESH_149_F0
 70
64
 62
7
 6
CONTINUOUS
 0
LAYER
 2
MESH_148_F0
 70
64
 62
7
 6
CONTINUOUS
 0
LAYER
 2
MESH_147_F0
 70
64
 62
7
 6
CONTINUOUS
 0
LAYER
 2
MESH_146_F0
 70
64
 62
7
 6
CONTINUOUS
 0
LAYER
 2
MESH_145_F0
 70
64
 62
7
 6
CONTINUOUS
 0
LAYER
 2
MESH_144_F0
 70
64
 62
7
 6
CONTINUOUS
 0
LAYER
 2
MESH_143_F0
 70
64
 62
7
 6
CONTINUOUS
 0
LAYER
 2
MESH_142_F0
 70
64
 62
7
 6
CONTINUOUS
 0
LAYER
 2
MESH_141_F0
 70
64
 62
7
 6
CONTINUOUS
 0
LAYER
 2
T7824_3DPL_F0
 70
64
 62
7
 6
CONTINUOUS
 0
ENDTAB
 0
ENDSEC
 0
SECTION
 2
BLOCKS
 0
ENDSEC
 0
SECTION
 2
ENTITIES
 0
POLYLINE
 8
MESH_168_F0
 66
1
 10
0.0
 20
0.0
 30
0.0
 70
64
 71
56
 72
54
 0
VERTEX
 8
MESH_168_F0
 10
25
 20
-20
 30
120
 70
192
 0
VERTEX
 8
MESH_168_F0
 10
-25
 20
-20
 30
120
 70
192
 0
VERTEX
 8
MESH_168_F0
 10
-34.6429
 20
-20
 30
120.5833
 70
192
 0
VERTEX
 8
MESH_168_F0
 10
-44.1453
 20
-20
 30
122.3247
 70
192
 0
VERTEX
 8
MESH_168_F0
 10
-53.3684
 20
-20
 30
125.1987
 70
192
 0
VERTEX
 8
MESH_168_F0
 10
-62.1779
 20
-20
 30
129.1635
 70
192
 0
VERTEX
 8
MESH_168_F0
 10
-70.4452
 20
-20
 30
134.1613
 70
192
 0
VERTEX
 8
MESH_168_F0
 10
-78.0498
 20
-20
 30
140.1191
 70
192
 0
VERTEX
 8
MESH_168_F0
 10
-84.8809
 20
-20
 30
146.9502
 70
192
 0
VERTEX
 8
MESH_168_F0
 10
-90.8387
 20
-20
 30
154.5548
 70
192
 0
VERTEX
 8
MESH_168_F0
 10
-95.8365
 20
-20
 30
162.8221
 70
192
 0
VERTEX
 8
MESH_168_F0
 10
-99.8013
 20
-20
 30
171.6316
 70
192
 0
VERTEX
 8
MESH_168_F0
 10
-102.6753
 20
-20
 30
180.8547
 70
192
 0
VERTEX
 8
MESH_168_F0
 10
-104.4167
 20
-20
 30
190.3571
 70
192
 0
VERTEX
 8
MESH_168_F0
 10
-105
 20
-20
 30
200
 70
192
 0
VERTEX
 8
MESH_168_F0
 10
-105
 20
-20
 30
500
 70
192
 0
VERTEX
 8
MESH_168_F0
 10
-104.4167
 20
-20
 30
509.6429
 70
192
 0
VERTEX
 8
MESH_168_F0
 10
-102.6753
 20
-20
 30
519.1453
 70
192
 0
VERTEX
 8
MESH_168_F0
 10
-99.8013
 20
-20
 30
528.3683
 70
192
 0
VERTEX
 8
MESH_168_F0
 10
-95.8365
 20
-20
 30
537.1779
 70
192
 0
VERTEX
 8
MESH_168_F0
 10
-90.8387
 20
-20
 30
545.4452
 70
192
 0
VERTEX
 8
MESH_168_F0
 10
-84.8809
 20
-20
 30
553.0498
 70
192
 0
VERTEX
 8
MESH_168_F0
 10
-78.0498
 20
-20
 30
559.8809
 70
192
 0
VERTEX
 8
MESH_168_F0
 10
-70.4452
 20
-20
 30
565.8387
 70
192
 0
VERTEX
 8
MESH_168_F0
 10
-62.1779
 20
-20
 30
570.8365
 70
192
 0
VERTEX
 8
MESH_168_F0
 10
-53.3684
 20
-20
 30
574.8013
 70
192
 0
VERTEX
 8
MESH_168_F0
 10
-44.1453
 20
-20
 30
577.6754
 70
192
 0
VERTEX
 8
MESH_168_F0
 10
-34.6429
 20
-20
 30
579.4167
 70
192
 0
VERTEX
 8
MESH_168_F0
 10
-25
 20
-20
 30
580
 70
192
 0
VERTEX
 8
MESH_168_F0
 10
25
 20
-20
 30
580
 70
192
 0
VERTEX
 8
MESH_168_F0
 10
34.6429
 20
-20
 30
579.4167
 70
192
 0
VERTEX
 8
MESH_168_F0
 10
44.1453
 20
-20
 30
577.6754
 70
192
 0
VERTEX
 8
MESH_168_F0
 10
53.3684
 20
-20
 30
574.8013
 70
192
 0
VERTEX
 8
MESH_168_F0
 10
62.1779
 20
-20
 30
570.8365
 70
192
 0
VERTEX
 8
MESH_168_F0
 10
70.4452
 20
-20
 30
565.8387
 70
192
 0
VERTEX
 8
MESH_168_F0
 10
78.0498
 20
-20
 30
559.8809
 70
192
 0
VERTEX
 8
MESH_168_F0
 10
84.8809
 20
-20
 30
553.0498
 70
192
 0
VERTEX
 8
MESH_168_F0
 10
90.8387
 20
-20
 30
545.4452
 70
192
 0
VERTEX
 8
MESH_168_F0
 10
95.8365
 20
-20
 30
537.1779
 70
192
 0
VERTEX
 8
MESH_168_F0
 10
99.8013
 20
-20
 30
528.3683
 70
192
 0
VERTEX
 8
MESH_168_F0
 10
102.6753
 20
-20
 30
519.1453
 70
192
 0
VERTEX
 8
MESH_168_F0
 10
104.4167
 20
-20
 30
509.6429
 70
192
 0
VERTEX
 8
MESH_168_F0
 10
105
 20
-20
 30
500
 70
192
 0
VERTEX
 8
MESH_168_F0
 10
105
 20
-20
 30
200
 70
192
 0
VERTEX
 8
MESH_168_F0
 10
104.4167
 20
-20
 30
190.3571
 70
192
 0
VERTEX
 8
MESH_168_F0
 10
102.6753
 20
-20
 30
180.8547
 70
192
 0
VERTEX
 8
MESH_168_F0
 10
99.8013
 20
-20
 30
171.6316
 70
192
 0
VERTEX
 8
MESH_168_F0
 10
95.8365
 20
-20
 30
162.8221
 70
192
 0
VERTEX
 8
MESH_168_F0
 10
90.8387
 20
-20
 30
154.5548
 70
192
 0
VERTEX
 8
MESH_168_F0
 10
84.8809
 20
-20
 30
146.9502
 70
192
 0
VERTEX
 8
MESH_168_F0
 10
78.0498
 20
-20
 30
140.1191
 70
192
 0
VERTEX
 8
MESH_168_F0
 10
70.4452
 20
-20
 30
134.1613
 70
192
 0
VERTEX
 8
MESH_168_F0
 10
62.1779
 20
-20
 30
129.1635
 70
192
 0
VERTEX
 8
MESH_168_F0
 10
53.3684
 20
-20
 30
125.1987
 70
192
 0
VERTEX
 8
MESH_168_F0
 10
44.1453
 20
-20
 30
122.3247
 70
192
 0
VERTEX
 8
MESH_168_F0
 10
34.6429
 20
-20
 30
120.5833
 70
192
 0
VERTEX
 8
MESH_168_F0
 10
0
 20
0
 30
0
 70
128
 71
56
 72
2
 73
1
 74
1
 0
VERTEX
 8
MESH_168_F0
 10
0
 20
0
 30
0
 70
128
 71
3
 72
2
 73
56
 74
56
 0
VERTEX
 8
MESH_168_F0
 10
0
 20
0
 30
0
 70
128
 71
4
 72
3
 73
55
 74
55
 0
VERTEX
 8
MESH_168_F0
 10
0
 20
0
 30
0
 70
128
 71
5
 72
4
 73
54
 74
54
 0
VERTEX
 8
MESH_168_F0
 10
0
 20
0
 30
0
 70
128
 71
6
 72
5
 73
53
 74
53
 0
VERTEX
 8
MESH_168_F0
 10
0
 20
0
 30
0
 70
128
 71
7
 72
6
 73
52
 74
52
 0
VERTEX
 8
MESH_168_F0
 10
0
 20
0
 30
0
 70
128
 71
8
 72
7
 73
51
 74
51
 0
VERTEX
 8
MESH_168_F0
 10
0
 20
0
 30
0
 70
128
 71
9
 72
8
 73
50
 74
50
 0
VERTEX
 8
MESH_168_F0
 10
0
 20
0
 30
0
 70
128
 71
10
 72
9
 73
49
 74
49
 0
VERTEX
 8
MESH_168_F0
 10
0
 20
0
 30
0
 70
128
 71
11
 72
10
 73
48
 74
48
 0
VERTEX
 8
MESH_168_F0
 10
0
 20
0
 30
0
 70
128
 71
12
 72
11
 73
47
 74
47
 0
VERTEX
 8
MESH_168_F0
 10
0
 20
0
 30
0
 70
128
 71
13
 72
12
 73
46
 74
46
 0
VERTEX
 8
MESH_168_F0
 10
0
 20
0
 30
0
 70
128
 71
14
 72
13
 73
45
 74
45
 0
VERTEX
 8
MESH_168_F0
 10
0
 20
0
 30
0
 70
128
 71
15
 72
14
 73
44
 74
44
 0
VERTEX
 8
MESH_168_F0
 10
0
 20
0
 30
0
 70
128
 71
16
 72
15
 73
43
 74
43
 0
VERTEX
 8
MESH_168_F0
 10
0
 20
0
 30
0
 70
128
 71
17
 72
16
 73
42
 74
42
 0
VERTEX
 8
MESH_168_F0
 10
0
 20
0
 30
0
 70
128
 71
30
 72
17
 73
41
 74
41
 0
VERTEX
 8
MESH_168_F0
 10
0
 20
0
 30
0
 70
128
 71
30
 72
41
 73
31
 74
31
 0
VERTEX
 8
MESH_168_F0
 10
0
 20
0
 30
0
 70
128
 71
41
 72
32
 73
31
 74
31
 0
VERTEX
 8
MESH_168_F0
 10
0
 20
0
 30
0
 70
128
 71
33
 72
32
 73
41
 74
41
 0
VERTEX
 8
MESH_168_F0
 10
0
 20
0
 30
0
 70
128
 71
33
 72
41
 73
34
 74
34
 0
VERTEX
 8
MESH_168_F0
 10
0
 20
0
 30
0
 70
128
 71
41
 72
35
 73
34
 74
34
 0
VERTEX
 8
MESH_168_F0
 10
0
 20
0
 30
0
 70
128
 71
36
 72
35
 73
41
 74
41
 0
VERTEX
 8
MESH_168_F0
 10
0
 20
0
 30
0
 70
128
 71
36
 72
41
 73
37
 74
37
 0
VERTEX
 8
MESH_168_F0
 10
0
 20
0
 30
0
 70
128
 71
41
 72
38
 73
37
 74
37
 0
VERTEX
 8
MESH_168_F0
 10
0
 20
0
 30
0
 70
128
 71
39
 72
38
 73
41
 74
41
 0
VERTEX
 8
MESH_168_F0
 10
0
 20
0
 30
0
 70
128
 71
39
 72
41
 73
40
 74
40
 0
VERTEX
 8
MESH_168_F0
 10
0
 20
0
 30
0
 70
128
 71
17
 72
19
 73
18
 74
18
 0
VERTEX
 8
MESH_168_F0
 10
0
 20
0
 30
0
 70
128
 71
20
 72
19
 73
17
 74
17
 0
VERTEX
 8
MESH_168_F0
 10
0
 20
0
 30
0
 70
128
 71
20
 72
17
 73
21
 74
21
 0
VERTEX
 8
MESH_168_F0
 10
0
 20
0
 30
0
 70
128
 71
17
 72
22
 73
21
 74
21
 0
VERTEX
 8
MESH_168_F0
 10
0
 20
0
 30
0
 70
128
 71
23
 72
22
 73
17
 74
17
 0
VERTEX
 8
MESH_168_F0
 10
0
 20
0
 30
0
 70
128
 71
23
 72
17
 73
24
 74
24
 0
VERTEX
 8
MESH_168_F0
 10
0
 20
0
 30
0
 70
128
 71
17
 72
25
 73
24
 74
24
 0
VERTEX
 8
MESH_168_F0
 10
0
 20
0
 30
0
 70
128
 71
26
 72
25
 73
17
 74
17
 0
VERTEX
 8
MESH_168_F0
 10
0
 20
0
 30
0
 70
128
 71
26
 72
17
 73
27
 74
27
 0
VERTEX
 8
MESH_168_F0
 10
0
 20
0
 30
0
 70
128
 71
17
 72
28
 73
27
 74
27
 0
VERTEX
 8
MESH_168_F0
 10
0
 20
0
 30
0
 70
128
 71
29
 72
28
 73
17
 74
17
 0
VERTEX
 8
MESH_168_F0
 10
0
 20
0
 30
0
 70
128
 71
29
 72
17
 73
30
 74
30
 0
VERTEX
 8
MESH_168_F0
 10
0
 20
0
 30
0
 70
128
 71
17
 72
42
 73
41
 74
41
 0
VERTEX
 8
MESH_168_F0
 10
0
 20
0
 30
0
 70
128
 71
16
 72
43
 73
42
 74
42
 0
VERTEX
 8
MESH_168_F0
 10
0
 20
0
 30
0
 70
128
 71
15
 72
44
 73
43
 74
43
 0
VERTEX
 8
MESH_168_F0
 10
0
 20
0
 30
0
 70
128
 71
14
 72
45
 73
44
 74
44
 0
VERTEX
 8
MESH_168_F0
 10
0
 20
0
 30
0
 70
128
 71
13
 72
46
 73
45
 74
45
 0
VERTEX
 8
MESH_168_F0
 10
0
 20
0
 30
0
 70
128
 71
12
 72
47
 73
46
 74
46
 0
VERTEX
 8
MESH_168_F0
 10
0
 20
0
 30
0
 70
128
 71
11
 72
48
 73
47
 74
47
 0
VERTEX
 8
MESH_168_F0
 10
0
 20
0
 30
0
 70
128
 71
10
 72
49
 73
48
 74
48
 0
VERTEX
 8
MESH_168_F0
 10
0
 20
0
 30
0
 70
128
 71
9
 72
50
 73
49
 74
49
 0
VERTEX
 8
MESH_168_F0
 10
0
 20
0
 30
0
 70
128
 71
8
 72
51
 73
50
 74
50
 0
VERTEX
 8
MESH_168_F0
 10
0
 20
0
 30
0
 70
128
 71
7
 72
52
 73
51
 74
51
 0
VERTEX
 8
MESH_168_F0
 10
0
 20
0
 30
0
 70
128
 71
6
 72
53
 73
52
 74
52
 0
VERTEX
 8
MESH_168_F0
 10
0
 20
0
 30
0
 70
128
 71
5
 72
54
 73
53
 74
53
 0
VERTEX
 8
MESH_168_F0
 10
0
 20
0
 30
0
 70
128
 71
4
 72
55
 73
54
 74
54
 0
VERTEX
 8
MESH_168_F0
 10
0
 20
0
 30
0
 70
128
 71
3
 72
56
 73
55
 74
55
 0
SEQEND
 0
POLYLINE
 8
MESH_167_F0
 66
1
 10
0.0
 20
0.0
 30
0.0
 70
64
 71
34
 72
32
 0
VERTEX
 8
MESH_167_F0
 10
-25
 20
-20
 30
120
 70
192
 0
VERTEX
 8
MESH_167_F0
 10
-25
 20
0
 30
120
 70
192
 0
VERTEX
 8
MESH_167_F0
 10
-32.2437
 20
0
 30
120.3302
 70
192
 0
VERTEX
 8
MESH_167_F0
 10
-39.3785
 20
0
 30
121.3028
 70
192
 0
VERTEX
 8
MESH_167_F0
 10
-46.4135
 20
0
 30
122.9198
 70
192
 0
VERTEX
 8
MESH_167_F0
 10
-53.29
 20
0
 30
125.1691
 70
192
 0
VERTEX
 8
MESH_167_F0
 10
-59.9347
 20
0
 30
128.0315
 70
192
 0
VERTEX
 8
MESH_167_F0
 10
-66.2799
 20
0
 30
131.4729
 70
192
 0
VERTEX
 8
MESH_167_F0
 10
-72.2738
 20
0
 30
135.4637
 70
192
 0
VERTEX
 8
MESH_167_F0
 10
-77.9243
 20
0
 30
140.0081
 70
192
 0
VERTEX
 8
MESH_167_F0
 10
-80.3776
 20
0
 30
142.2651
 70
192
 0
VERTEX
 8
MESH_167_F0
 10
-82.7349
 20
0
 30
144.6223
 70
192
 0
VERTEX
 8
MESH_167_F0
 10
-84.9919
 20
0
 30
147.0757
 70
192
 0
VERTEX
 8
MESH_167_F0
 10
-89.5364
 20
0
 30
152.7262
 70
192
 0
VERTEX
 8
MESH_167_F0
 10
-93.5271
 20
0
 30
158.7201
 70
192
 0
VERTEX
 8
MESH_167_F0
 10
-96.9685
 20
0
 30
165.0653
 70
192
 0
VERTEX
 8
MESH_167_F0
 10
-99.8309
 20
0
 30
171.71
 70
192
 0
VERTEX
 8
MESH_167_F0
 10
-102.0802
 20
0
 30
178.5864
 70
192
 0
VERTEX
 8
MESH_167_F0
 10
-103.6972
 20
0
 30
185.6215
 70
192
 0
VERTEX
 8
MESH_167_F0
 10
-104.6698
 20
0
 30
192.7563
 70
192
 0
VERTEX
 8
MESH_167_F0
 10
-105
 20
0
 30
200
 70
192
 0
VERTEX
 8
MESH_167_F0
 10
-105
 20
-20
 30
200
 70
192
 0
VERTEX
 8
MESH_167_F0
 10
-104.4167
 20
-20
 30
190.3571
 70
192
 0
VERTEX
 8
MESH_167_F0
 10
-102.6753
 20
-20
 30
180.8547
 70
192
 0
VERTEX
 8
MESH_167_F0
 10
-99.8013
 20
-20
 30
171.6316
 70
192
 0
VERTEX
 8
MESH_167_F0
 10
-95.8365
 20
-20
 30
162.8221
 70
192
 0
VERTEX
 8
MESH_167_F0
 10
-90.8387
 20
-20
 30
154.5548
 70
192
 0
VERTEX
 8
MESH_167_F0
 10
-84.8809
 20
-20
 30
146.9502
 70
192
 0
VERTEX
 8
MESH_167_F0
 10
-78.0498
 20
-20
 30
140.1191
 70
192
 0
VERTEX
 8
MESH_167_F0
 10
-70.4452
 20
-20
 30
134.1613
 70
192
 0
VERTEX
 8
MESH_167_F0
 10
-62.1779
 20
-20
 30
129.1635
 70
192
 0
VERTEX
 8
MESH_167_F0
 10
-53.3684
 20
-20
 30
125.1987
 70
192
 0
VERTEX
 8
MESH_167_F0
 10
-44.1453
 20
-20
 30
122.3247
 70
192
 0
VERTEX
 8
MESH_167_F0
 10
-34.6429
 20
-20
 30
120.5833
 70
192
 0
VERTEX
 8
MESH_167_F0
 10
0
 20
0
 30
0
 70
128
 71
1
 72
3
 73
2
 74
2
 0
VERTEX
 8
MESH_167_F0
 10
0
 20
0
 30
0
 70
128
 71
34
 72
3
 73
1
 74
1
 0
VERTEX
 8
MESH_167_F0
 10
0
 20
0
 30
0
 70
128
 71
4
 72
3
 73
34
 74
34
 0
VERTEX
 8
MESH_167_F0
 10
0
 20
0
 30
0
 70
128
 71
5
 72
4
 73
33
 74
33
 0
VERTEX
 8
MESH_167_F0
 10
0
 20
0
 30
0
 70
128
 71
6
 72
5
 73
32
 74
32
 0
VERTEX
 8
MESH_167_F0
 10
0
 20
0
 30
0
 70
128
 71
6
 72
32
 73
7
 74
7
 0
VERTEX
 8
MESH_167_F0
 10
0
 20
0
 30
0
 70
128
 71
32
 72
31
 73
7
 74
7
 0
VERTEX
 8
MESH_167_F0
 10
0
 20
0
 30
0
 70
128
 71
31
 72
8
 73
7
 74
7
 0
VERTEX
 8
MESH_167_F0
 10
0
 20
0
 30
0
 70
128
 71
30
 72
8
 73
31
 74
31
 0
VERTEX
 8
MESH_167_F0
 10
0
 20
0
 30
0
 70
128
 71
9
 72
8
 73
30
 74
30
 0
VERTEX
 8
MESH_167_F0
 10
0
 20
0
 30
0
 70
128
 71
10
 72
9
 73
29
 74
29
 0
VERTEX
 8
MESH_167_F0
 10
0
 20
0
 30
0
 70
128
 71
10
 72
29
 73
11
 74
11
 0
VERTEX
 8
MESH_167_F0
 10
0
 20
0
 30
0
 70
128
 71
29
 72
12
 73
11
 74
11
 0
VERTEX
 8
MESH_167_F0
 10
0
 20
0
 30
0
 70
128
 71
28
 72
12
 73
29
 74
29
 0
VERTEX
 8
MESH_167_F0
 10
0
 20
0
 30
0
 70
128
 71
13
 72
12
 73
28
 74
28
 0
VERTEX
 8
MESH_167_F0
 10
0
 20
0
 30
0
 70
128
 71
13
 72
28
 73
14
 74
14
 0
VERTEX
 8
MESH_167_F0
 10
0
 20
0
 30
0
 70
128
 71
28
 72
27
 73
14
 74
14
 0
VERTEX
 8
MESH_167_F0
 10
0
 20
0
 30
0
 70
128
 71
27
 72
15
 73
14
 74
14
 0
VERTEX
 8
MESH_167_F0
 10
0
 20
0
 30
0
 70
128
 71
26
 72
15
 73
27
 74
27
 0
VERTEX
 8
MESH_167_F0
 10
0
 20
0
 30
0
 70
128
 71
16
 72
15
 73
26
 74
26
 0
VERTEX
 8
MESH_167_F0
 10
0
 20
0
 30
0
 70
128
 71
17
 72
16
 73
25
 74
25
 0
VERTEX
 8
MESH_167_F0
 10
0
 20
0
 30
0
 70
128
 71
17
 72
25
 73
18
 74
18
 0
VERTEX
 8
MESH_167_F0
 10
0
 20
0
 30
0
 70
128
 71
25
 72
24
 73
18
 74
18
 0
VERTEX
 8
MESH_167_F0
 10
0
 20
0
 30
0
 70
128
 71
24
 72
19
 73
18
 74
18
 0
VERTEX
 8
MESH_167_F0
 10
0
 20
0
 30
0
 70
128
 71
23
 72
19
 73
24
 74
24
 0
VERTEX
 8
MESH_167_F0
 10
0
 20
0
 30
0
 70
128
 71
20
 72
19
 73
23
 74
23
 0
VERTEX
 8
MESH_167_F0
 10
0
 20
0
 30
0
 70
128
 71
21
 72
20
 73
22
 74
22
 0
VERTEX
 8
MESH_167_F0
 10
0
 20
0
 30
0
 70
128
 71
20
 72
23
 73
22
 74
22
 0
VERTEX
 8
MESH_167_F0
 10
0
 20
0
 30
0
 70
128
 71
16
 72
26
 73
25
 74
25
 0
VERTEX
 8
MESH_167_F0
 10
0
 20
0
 30
0
 70
128
 71
9
 72
30
 73
29
 74
29
 0
VERTEX
 8
MESH_167_F0
 10
0
 20
0
 30
0
 70
128
 71
5
 72
33
 73
32
 74
32
 0
VERTEX
 8
MESH_167_F0
 10
0
 20
0
 30
0
 70
128
 71
4
 72
34
 73
33
 74
33
 0
SEQEND
 0
POLYLINE
 8
MESH_166_F0
 66
1
 10
0.0
 20
0.0
 30
0.0
 70
64
 71
4
 72
2
 0
VERTEX
 8
MESH_166_F0
 10
-105
 20
-20
 30
200
 70
192
 0
VERTEX
 8
MESH_166_F0
 10
-105
 20
0
 30
200
 70
192
 0
VERTEX
 8
MESH_166_F0
 10
-105
 20
0
 30
500
 70
192
 0
VERTEX
 8
MESH_166_F0
 10
-105
 20
-20
 30
500
 70
192
 0
VERTEX
 8
MESH_166_F0
 10
0
 20
0
 30
0
 70
128
 71
4
 72
2
 73
1
 74
1
 0
VERTEX
 8
MESH_166_F0
 10
0
 20
0
 30
0
 70
128
 71
3
 72
2
 73
4
 74
4
 0
SEQEND
 0
POLYLINE
 8
MESH_165_F0
 66
1
 10
0.0
 20
0.0
 30
0.0
 70
64
 71
34
 72
32
 0
VERTEX
 8
MESH_165_F0
 10
-105
 20
-20
 30
500
 70
192
 0
VERTEX
 8
MESH_165_F0
 10
-105
 20
0
 30
500
 70
192
 0
VERTEX
 8
MESH_165_F0
 10
-104.6698
 20
0
 30
507.2437
 70
192
 0
VERTEX
 8
MESH_165_F0
 10
-103.6972
 20
0
 30
514.3785
 70
192
 0
VERTEX
 8
MESH_165_F0
 10
-102.0802
 20
0
 30
521.4136
 70
192
 0
VERTEX
 8
MESH_165_F0
 10
-99.8309
 20
0
 30
528.29
 70
192
 0
VERTEX
 8
MESH_165_F0
 10
-96.9685
 20
0
 30
534.9346
 70
192
 0
VERTEX
 8
MESH_165_F0
 10
-93.5271
 20
0
 30
541.2799
 70
192
 0
VERTEX
 8
MESH_165_F0
 10
-89.5364
 20
0
 30
547.2738
 70
192
 0
VERTEX
 8
MESH_165_F0
 10
-84.9919
 20
0
 30
552.9243
 70
192
 0
VERTEX
 8
MESH_165_F0
 10
-82.7349
 20
0
 30
555.3776
 70
192
 0
VERTEX
 8
MESH_165_F0
 10
-80.3776
 20
0
 30
557.7349
 70
192
 0
VERTEX
 8
MESH_165_F0
 10
-77.9243
 20
0
 30
559.9919
 70
192
 0
VERTEX
 8
MESH_165_F0
 10
-72.2738
 20
0
 30
564.5364
 70
192
 0
VERTEX
 8
MESH_165_F0
 10
-66.2799
 20
0
 30
568.527
 70
192
 0
VERTEX
 8
MESH_165_F0
 10
-59.9347
 20
0
 30
571.9685
 70
192
 0
VERTEX
 8
MESH_165_F0
 10
-53.29
 20
0
 30
574.8309
 70
192
 0
VERTEX
 8
MESH_165_F0
 10
-46.4135
 20
0
 30
577.0802
 70
192
 0
VERTEX
 8
MESH_165_F0
 10
-39.3785
 20
0
 30
578.6972
 70
192
 0
VERTEX
 8
MESH_165_F0
 10
-32.2437
 20
0
 30
579.6699
 70
192
 0
VERTEX
 8
MESH_165_F0
 10
-25
 20
0
 30
580
 70
192
 0
VERTEX
 8
MESH_165_F0
 10
-25
 20
-20
 30
580
 70
192
 0
VERTEX
 8
MESH_165_F0
 10
-34.6429
 20
-20
 30
579.4167
 70
192
 0
VERTEX
 8
MESH_165_F0
 10
-44.1453
 20
-20
 30
577.6754
 70
192
 0
VERTEX
 8
MESH_165_F0
 10
-53.3684
 20
-20
 30
574.8013
 70
192
 0
VERTEX
 8
MESH_165_F0
 10
-62.1779
 20
-20
 30
570.8365
 70
192
 0
VERTEX
 8
MESH_165_F0
 10
-70.4452
 20
-20
 30
565.8387
 70
192
 0
VERTEX
 8
MESH_165_F0
 10
-78.0498
 20
-20
 30
559.8809
 70
192
 0
VERTEX
 8
MESH_165_F0
 10
-84.8809
 20
-20
 30
553.0498
 70
192
 0
VERTEX
 8
MESH_165_F0
 10
-90.8387
 20
-20
 30
545.4452
 70
192
 0
VERTEX
 8
MESH_165_F0
 10
-95.8365
 20
-20
 30
537.1779
 70
192
 0
VERTEX
 8
MESH_165_F0
 10
-99.8013
 20
-20
 30
528.3683
 70
192
 0
VERTEX
 8
MESH_165_F0
 10
-102.6753
 20
-20
 30
519.1453
 70
192
 0
VERTEX
 8
MESH_165_F0
 10
-104.4167
 20
-20
 30
509.6429
 70
192
 0
VERTEX
 8
MESH_165_F0
 10
0
 20
0
 30
0
 70
128
 71
1
 72
3
 73
2
 74
2
 0
VERTEX
 8
MESH_165_F0
 10
0
 20
0
 30
0
 70
128
 71
34
 72
3
 73
1
 74
1
 0
VERTEX
 8
MESH_165_F0
 10
0
 20
0
 30
0
 70
128
 71
4
 72
3
 73
34
 74
34
 0
VERTEX
 8
MESH_165_F0
 10
0
 20
0
 30
0
 70
128
 71
5
 72
4
 73
33
 74
33
 0
VERTEX
 8
MESH_165_F0
 10
0
 20
0
 30
0
 70
128
 71
6
 72
5
 73
32
 74
32
 0
VERTEX
 8
MESH_165_F0
 10
0
 20
0
 30
0
 70
128
 71
6
 72
32
 73
7
 74
7
 0
VERTEX
 8
MESH_165_F0
 10
0
 20
0
 30
0
 70
128
 71
32
 72
31
 73
7
 74
7
 0
VERTEX
 8
MESH_165_F0
 10
0
 20
0
 30
0
 70
128
 71
31
 72
8
 73
7
 74
7
 0
VERTEX
 8
MESH_165_F0
 10
0
 20
0
 30
0
 70
128
 71
30
 72
8
 73
31
 74
31
 0
VERTEX
 8
MESH_165_F0
 10
0
 20
0
 30
0
 70
128
 71
9
 72
8
 73
30
 74
30
 0
VERTEX
 8
MESH_165_F0
 10
0
 20
0
 30
0
 70
128
 71
10
 72
9
 73
29
 74
29
 0
VERTEX
 8
MESH_165_F0
 10
0
 20
0
 30
0
 70
128
 71
10
 72
29
 73
11
 74
11
 0
VERTEX
 8
MESH_165_F0
 10
0
 20
0
 30
0
 70
128
 71
29
 72
12
 73
11
 74
11
 0
VERTEX
 8
MESH_165_F0
 10
0
 20
0
 30
0
 70
128
 71
28
 72
12
 73
29
 74
29
 0
VERTEX
 8
MESH_165_F0
 10
0
 20
0
 30
0
 70
128
 71
13
 72
12
 73
28
 74
28
 0
VERTEX
 8
MESH_165_F0
 10
0
 20
0
 30
0
 70
128
 71
13
 72
28
 73
14
 74
14
 0
VERTEX
 8
MESH_165_F0
 10
0
 20
0
 30
0
 70
128
 71
28
 72
27
 73
14
 74
14
 0
VERTEX
 8
MESH_165_F0
 10
0
 20
0
 30
0
 70
128
 71
27
 72
15
 73
14
 74
14
 0
VERTEX
 8
MESH_165_F0
 10
0
 20
0
 30
0
 70
128
 71
26
 72
15
 73
27
 74
27
 0
VERTEX
 8
MESH_165_F0
 10
0
 20
0
 30
0
 70
128
 71
16
 72
15
 73
26
 74
26
 0
VERTEX
 8
MESH_165_F0
 10
0
 20
0
 30
0
 70
128
 71
17
 72
16
 73
25
 74
25
 0
VERTEX
 8
MESH_165_F0
 10
0
 20
0
 30
0
 70
128
 71
17
 72
25
 73
18
 74
18
 0
VERTEX
 8
MESH_165_F0
 10
0
 20
0
 30
0
 70
128
 71
25
 72
24
 73
18
 74
18
 0
VERTEX
 8
MESH_165_F0
 10
0
 20
0
 30
0
 70
128
 71
24
 72
19
 73
18
 74
18
 0
VERTEX
 8
MESH_165_F0
 10
0
 20
0
 30
0
 70
128
 71
23
 72
19
 73
24
 74
24
 0
VERTEX
 8
MESH_165_F0
 10
0
 20
0
 30
0
 70
128
 71
20
 72
19
 73
23
 74
23
 0
VERTEX
 8
MESH_165_F0
 10
0
 20
0
 30
0
 70
128
 71
21
 72
20
 73
22
 74
22
 0
VERTEX
 8
MESH_165_F0
 10
0
 20
0
 30
0
 70
128
 71
20
 72
23
 73
22
 74
22
 0
VERTEX
 8
MESH_165_F0
 10
0
 20
0
 30
0
 70
128
 71
16
 72
26
 73
25
 74
25
 0
VERTEX
 8
MESH_165_F0
 10
0
 20
0
 30
0
 70
128
 71
9
 72
30
 73
29
 74
29
 0
VERTEX
 8
MESH_165_F0
 10
0
 20
0
 30
0
 70
128
 71
5
 72
33
 73
32
 74
32
 0
VERTEX
 8
MESH_165_F0
 10
0
 20
0
 30
0
 70
128
 71
4
 72
34
 73
33
 74
33
 0
SEQEND
 0
POLYLINE
 8
MESH_164_F0
 66
1
 10
0.0
 20
0.0
 30
0.0
 70
64
 71
4
 72
2
 0
VERTEX
 8
MESH_164_F0
 10
-25
 20
-20
 30
580
 70
192
 0
VERTEX
 8
MESH_164_F0
 10
-25
 20
0
 30
580
 70
192
 0
VERTEX
 8
MESH_164_F0
 10
25
 20
0
 30
580
 70
192
 0
VERTEX
 8
MESH_164_F0
 10
25
 20
-20
 30
580
 70
192
 0
VERTEX
 8
MESH_164_F0
 10
0
 20
0
 30
0
 70
128
 71
4
 72
2
 73
1
 74
1
 0
VERTEX
 8
MESH_164_F0
 10
0
 20
0
 30
0
 70
128
 71
3
 72
2
 73
4
 74
4
 0
SEQEND
 0
POLYLINE
 8
MESH_163_F0
 66
1
 10
0.0
 20
0.0
 30
0.0
 70
64
 71
34
 72
32
 0
VERTEX
 8
MESH_163_F0
 10
25
 20
-20
 30
580
 70
192
 0
VERTEX
 8
MESH_163_F0
 10
25
 20
0
 30
580
 70
192
 0
VERTEX
 8
MESH_163_F0
 10
32.2437
 20
0
 30
579.6699
 70
192
 0
VERTEX
 8
MESH_163_F0
 10
39.3785
 20
0
 30
578.6972
 70
192
 0
VERTEX
 8
MESH_163_F0
 10
46.4135
 20
0
 30
577.0802
 70
192
 0
VERTEX
 8
MESH_163_F0
 10
53.29
 20
0
 30
574.8309
 70
192
 0
VERTEX
 8
MESH_163_F0
 10
59.9347
 20
0
 30
571.9685
 70
192
 0
VERTEX
 8
MESH_163_F0
 10
66.2799
 20
0
 30
568.527
 70
192
 0
VERTEX
 8
MESH_163_F0
 10
72.2738
 20
0
 30
564.5364
 70
192
 0
VERTEX
 8
MESH_163_F0
 10
77.9243
 20
0
 30
559.9919
 70
192
 0
VERTEX
 8
MESH_163_F0
 10
80.3776
 20
0
 30
557.7349
 70
192
 0
VERTEX
 8
MESH_163_F0
 10
82.7349
 20
0
 30
555.3776
 70
192
 0
VERTEX
 8
MESH_163_F0
 10
84.9919
 20
0
 30
552.9243
 70
192
 0
VERTEX
 8
MESH_163_F0
 10
89.5364
 20
0
 30
547.2738
 70
192
 0
VERTEX
 8
MESH_163_F0
 10
93.5271
 20
0
 30
541.2799
 70
192
 0
VERTEX
 8
MESH_163_F0
 10
96.9685
 20
0
 30
534.9346
 70
192
 0
VERTEX
 8
MESH_163_F0
 10
99.8309
 20
0
 30
528.29
 70
192
 0
VERTEX
 8
MESH_163_F0
 10
102.0802
 20
0
 30
521.4136
 70
192
 0
VERTEX
 8
MESH_163_F0
 10
103.6972
 20
0
 30
514.3785
 70
192
 0
VERTEX
 8
MESH_163_F0
 10
104.6698
 20
0
 30
507.2437
 70
192
 0
VERTEX
 8
MESH_163_F0
 10
105
 20
0
 30
500
 70
192
 0
VERTEX
 8
MESH_163_F0
 10
105
 20
-20
 30
500
 70
192
 0
VERTEX
 8
MESH_163_F0
 10
104.4167
 20
-20
 30
509.6429
 70
192
 0
VERTEX
 8
MESH_163_F0
 10
102.6753
 20
-20
 30
519.1453
 70
192
 0
VERTEX
 8
MESH_163_F0
 10
99.8013
 20
-20
 30
528.3683
 70
192
 0
VERTEX
 8
MESH_163_F0
 10
95.8365
 20
-20
 30
537.1779
 70
192
 0
VERTEX
 8
MESH_163_F0
 10
90.8387
 20
-20
 30
545.4452
 70
192
 0
VERTEX
 8
MESH_163_F0
 10
84.8809
 20
-20
 30
553.0498
 70
192
 0
VERTEX
 8
MESH_163_F0
 10
78.0498
 20
-20
 30
559.8809
 70
192
 0
VERTEX
 8
MESH_163_F0
 10
70.4452
 20
-20
 30
565.8387
 70
192
 0
VERTEX
 8
MESH_163_F0
 10
62.1779
 20
-20
 30
570.8365
 70
192
 0
VERTEX
 8
MESH_163_F0
 10
53.3684
 20
-20
 30
574.8013
 70
192
 0
VERTEX
 8
MESH_163_F0
 10
44.1453
 20
-20
 30
577.6754
 70
192
 0
VERTEX
 8
MESH_163_F0
 10
34.6429
 20
-20
 30
579.4167
 70
192
 0
VERTEX
 8
MESH_163_F0
 10
0
 20
0
 30
0
 70
128
 71
1
 72
3
 73
2
 74
2
 0
VERTEX
 8
MESH_163_F0
 10
0
 20
0
 30
0
 70
128
 71
34
 72
3
 73
1
 74
1
 0
VERTEX
 8
MESH_163_F0
 10
0
 20
0
 30
0
 70
128
 71
4
 72
3
 73
34
 74
34
 0
VERTEX
 8
MESH_163_F0
 10
0
 20
0
 30
0
 70
128
 71
5
 72
4
 73
33
 74
33
 0
VERTEX
 8
MESH_163_F0
 10
0
 20
0
 30
0
 70
128
 71
6
 72
5
 73
32
 74
32
 0
VERTEX
 8
MESH_163_F0
 10
0
 20
0
 30
0
 70
128
 71
6
 72
32
 73
7
 74
7
 0
VERTEX
 8
MESH_163_F0
 10
0
 20
0
 30
0
 70
128
 71
32
 72
31
 73
7
 74
7
 0
VERTEX
 8
MESH_163_F0
 10
0
 20
0
 30
0
 70
128
 71
31
 72
8
 73
7
 74
7
 0
VERTEX
 8
MESH_163_F0
 10
0
 20
0
 30
0
 70
128
 71
30
 72
8
 73
31
 74
31
 0
VERTEX
 8
MESH_163_F0
 10
0
 20
0
 30
0
 70
128
 71
9
 72
8
 73
30
 74
30
 0
VERTEX
 8
MESH_163_F0
 10
0
 20
0
 30
0
 70
128
 71
10
 72
9
 73
29
 74
29
 0
VERTEX
 8
MESH_163_F0
 10
0
 20
0
 30
0
 70
128
 71
10
 72
29
 73
11
 74
11
 0
VERTEX
 8
MESH_163_F0
 10
0
 20
0
 30
0
 70
128
 71
29
 72
12
 73
11
 74
11
 0
VERTEX
 8
MESH_163_F0
 10
0
 20
0
 30
0
 70
128
 71
28
 72
12
 73
29
 74
29
 0
VERTEX
 8
MESH_163_F0
 10
0
 20
0
 30
0
 70
128
 71
13
 72
12
 73
28
 74
28
 0
VERTEX
 8
MESH_163_F0
 10
0
 20
0
 30
0
 70
128
 71
13
 72
28
 73
14
 74
14
 0
VERTEX
 8
MESH_163_F0
 10
0
 20
0
 30
0
 70
128
 71
28
 72
27
 73
14
 74
14
 0
VERTEX
 8
MESH_163_F0
 10
0
 20
0
 30
0
 70
128
 71
27
 72
15
 73
14
 74
14
 0
VERTEX
 8
MESH_163_F0
 10
0
 20
0
 30
0
 70
128
 71
26
 72
15
 73
27
 74
27
 0
VERTEX
 8
MESH_163_F0
 10
0
 20
0
 30
0
 70
128
 71
16
 72
15
 73
26
 74
26
 0
VERTEX
 8
MESH_163_F0
 10
0
 20
0
 30
0
 70
128
 71
17
 72
16
 73
25
 74
25
 0
VERTEX
 8
MESH_163_F0
 10
0
 20
0
 30
0
 70
128
 71
17
 72
25
 73
18
 74
18
 0
VERTEX
 8
MESH_163_F0
 10
0
 20
0
 30
0
 70
128
 71
25
 72
24
 73
18
 74
18
 0
VERTEX
 8
MESH_163_F0
 10
0
 20
0
 30
0
 70
128
 71
24
 72
19
 73
18
 74
18
 0
VERTEX
 8
MESH_163_F0
 10
0
 20
0
 30
0
 70
128
 71
23
 72
19
 73
24
 74
24
 0
VERTEX
 8
MESH_163_F0
 10
0
 20
0
 30
0
 70
128
 71
20
 72
19
 73
23
 74
23
 0
VERTEX
 8
MESH_163_F0
 10
0
 20
0
 30
0
 70
128
 71
21
 72
20
 73
22
 74
22
 0
VERTEX
 8
MESH_163_F0
 10
0
 20
0
 30
0
 70
128
 71
20
 72
23
 73
22
 74
22
 0
VERTEX
 8
MESH_163_F0
 10
0
 20
0
 30
0
 70
128
 71
16
 72
26
 73
25
 74
25
 0
VERTEX
 8
MESH_163_F0
 10
0
 20
0
 30
0
 70
128
 71
9
 72
30
 73
29
 74
29
 0
VERTEX
 8
MESH_163_F0
 10
0
 20
0
 30
0
 70
128
 71
5
 72
33
 73
32
 74
32
 0
VERTEX
 8
MESH_163_F0
 10
0
 20
0
 30
0
 70
128
 71
4
 72
34
 73
33
 74
33
 0
SEQEND
 0
POLYLINE
 8
MESH_162_F0
 66
1
 10
0.0
 20
0.0
 30
0.0
 70
64
 71
4
 72
2
 0
VERTEX
 8
MESH_162_F0
 10
105
 20
-20
 30
500
 70
192
 0
VERTEX
 8
MESH_162_F0
 10
105
 20
0
 30
500
 70
192
 0
VERTEX
 8
MESH_162_F0
 10
105
 20
0
 30
200
 70
192
 0
VERTEX
 8
MESH_162_F0
 10
105
 20
-20
 30
200
 70
192
 0
VERTEX
 8
MESH_162_F0
 10
0
 20
0
 30
0
 70
128
 71
4
 72
2
 73
1
 74
1
 0
VERTEX
 8
MESH_162_F0
 10
0
 20
0
 30
0
 70
128
 71
3
 72
2
 73
4
 74
4
 0
SEQEND
 0
POLYLINE
 8
MESH_161_F0
 66
1
 10
0.0
 20
0.0
 30
0.0
 70
64
 71
33
 72
31
 0
VERTEX
 8
MESH_161_F0
 10
105
 20
-20
 30
200
 70
192
 0
VERTEX
 8
MESH_161_F0
 10
105
 20
0
 30
200
 70
192
 0
VERTEX
 8
MESH_161_F0
 10
104.6914
 20
0
 30
192.9938
 70
192
 0
VERTEX
 8
MESH_161_F0
 10
103.7806
 20
0
 30
186.0856
 70
192
 0
VERTEX
 8
MESH_161_F0
 10
102.2679
 20
0
 30
179.2755
 70
192
 0
VERTEX
 8
MESH_161_F0
 10
100.1655
 20
0
 30
172.6113
 70
192
 0
VERTEX
 8
MESH_161_F0
 10
97.4933
 20
0
 30
166.1657
 70
192
 0
VERTEX
 8
MESH_161_F0
 10
94.2706
 20
0
 30
159.9804
 70
192
 0
VERTEX
 8
MESH_161_F0
 10
90.523
 20
0
 30
154.1016
 70
192
 0
VERTEX
 8
MESH_161_F0
 10
86.2779
 20
0
 30
148.5704
 70
192
 0
VERTEX
 8
MESH_161_F0
 10
81.5681
 20
0
 30
143.4312
 70
192
 0
VERTEX
 8
MESH_161_F0
 10
76.4289
 20
0
 30
138.7215
 70
192
 0
VERTEX
 8
MESH_161_F0
 10
70.8977
 20
0
 30
134.4765
 70
192
 0
VERTEX
 8
MESH_161_F0
 10
65.0189
 20
0
 30
130.729
 70
192
 0
VERTEX
 8
MESH_161_F0
 10
58.8337
 20
0
 30
127.5064
 70
192
 0
VERTEX
 8
MESH_161_F0
 10
52.3881
 20
0
 30
124.8343
 70
192
 0
VERTEX
 8
MESH_161_F0
 10
45.724
 20
0
 30
122.7319
 70
192
 0
VERTEX
 8
MESH_161_F0
 10
38.914
 20
0
 30
121.2193
 70
192
 0
VERTEX
 8
MESH_161_F0
 10
32.006
 20
0
 30
120.3085
 70
192
 0
VERTEX
 8
MESH_161_F0
 10
25
 20
0
 30
120
 70
192
 0
VERTEX
 8
MESH_161_F0
 10
25
 20
-20
 30
120
 70
192
 0
VERTEX
 8
MESH_161_F0
 10
34.6429
 20
-20
 30
120.5833
 70
192
 0
VERTEX
 8
MESH_161_F0
 10
44.1453
 20
-20
 30
122.3247
 70
192
 0
VERTEX
 8
MESH_161_F0
 10
53.3684
 20
-20
 30
125.1987
 70
192
 0
VERTEX
 8
MESH_161_F0
 10
62.1779
 20
-20
 30
129.1635
 70
192
 0
VERTEX
 8
MESH_161_F0
 10
70.4452
 20
-20
 30
134.1613
 70
192
 0
VERTEX
 8
MESH_161_F0
 10
78.0498
 20
-20
 30
140.1191
 70
192
 0
VERTEX
 8
MESH_161_F0
 10
84.8809
 20
-20
 30
146.9502
 70
192
 0
VERTEX
 8
MESH_161_F0
 10
90.8387
 20
-20
 30
154.5548
 70
192
 0
VERTEX
 8
MESH_161_F0
 10
95.8365
 20
-20
 30
162.8221
 70
192
 0
VERTEX
 8
MESH_161_F0
 10
99.8013
 20
-20
 30
171.6316
 70
192
 0
VERTEX
 8
MESH_161_F0
 10
102.6753
 20
-20
 30
180.8547
 70
192
 0
VERTEX
 8
MESH_161_F0
 10
104.4167
 20
-20
 30
190.3571
 70
192
 0
VERTEX
 8
MESH_161_F0
 10
0
 20
0
 30
0
 70
128
 71
1
 72
3
 73
2
 74
2
 0
VERTEX
 8
MESH_161_F0
 10
0
 20
0
 30
0
 70
128
 71
33
 72
3
 73
1
 74
1
 0
VERTEX
 8
MESH_161_F0
 10
0
 20
0
 30
0
 70
128
 71
4
 72
3
 73
33
 74
33
 0
VERTEX
 8
MESH_161_F0
 10
0
 20
0
 30
0
 70
128
 71
5
 72
4
 73
32
 74
32
 0
VERTEX
 8
MESH_161_F0
 10
0
 20
0
 30
0
 70
128
 71
5
 72
32
 73
6
 74
6
 0
VERTEX
 8
MESH_161_F0
 10
0
 20
0
 30
0
 70
128
 71
32
 72
31
 73
6
 74
6
 0
VERTEX
 8
MESH_161_F0
 10
0
 20
0
 30
0
 70
128
 71
31
 72
7
 73
6
 74
6
 0
VERTEX
 8
MESH_161_F0
 10
0
 20
0
 30
0
 70
128
 71
30
 72
7
 73
31
 74
31
 0
VERTEX
 8
MESH_161_F0
 10
0
 20
0
 30
0
 70
128
 71
8
 72
7
 73
30
 74
30
 0
VERTEX
 8
MESH_161_F0
 10
0
 20
0
 30
0
 70
128
 71
9
 72
8
 73
29
 74
29
 0
VERTEX
 8
MESH_161_F0
 10
0
 20
0
 30
0
 70
128
 71
9
 72
29
 73
10
 74
10
 0
VERTEX
 8
MESH_161_F0
 10
0
 20
0
 30
0
 70
128
 71
29
 72
28
 73
10
 74
10
 0
VERTEX
 8
MESH_161_F0
 10
0
 20
0
 30
0
 70
128
 71
28
 72
11
 73
10
 74
10
 0
VERTEX
 8
MESH_161_F0
 10
0
 20
0
 30
0
 70
128
 71
27
 72
11
 73
28
 74
28
 0
VERTEX
 8
MESH_161_F0
 10
0
 20
0
 30
0
 70
128
 71
12
 72
11
 73
27
 74
27
 0
VERTEX
 8
MESH_161_F0
 10
0
 20
0
 30
0
 70
128
 71
13
 72
12
 73
26
 74
26
 0
VERTEX
 8
MESH_161_F0
 10
0
 20
0
 30
0
 70
128
 71
13
 72
26
 73
14
 74
14
 0
VERTEX
 8
MESH_161_F0
 10
0
 20
0
 30
0
 70
128
 71
26
 72
25
 73
14
 74
14
 0
VERTEX
 8
MESH_161_F0
 10
0
 20
0
 30
0
 70
128
 71
25
 72
15
 73
14
 74
14
 0
VERTEX
 8
MESH_161_F0
 10
0
 20
0
 30
0
 70
128
 71
24
 72
15
 73
25
 74
25
 0
VERTEX
 8
MESH_161_F0
 10
0
 20
0
 30
0
 70
128
 71
16
 72
15
 73
24
 74
24
 0
VERTEX
 8
MESH_161_F0
 10
0
 20
0
 30
0
 70
128
 71
16
 72
24
 73
17
 74
17
 0
VERTEX
 8
MESH_161_F0
 10
0
 20
0
 30
0
 70
128
 71
24
 72
23
 73
17
 74
17
 0
VERTEX
 8
MESH_161_F0
 10
0
 20
0
 30
0
 70
128
 71
23
 72
18
 73
17
 74
17
 0
VERTEX
 8
MESH_161_F0
 10
0
 20
0
 30
0
 70
128
 71
22
 72
18
 73
23
 74
23
 0
VERTEX
 8
MESH_161_F0
 10
0
 20
0
 30
0
 70
128
 71
19
 72
18
 73
22
 74
22
 0
VERTEX
 8
MESH_161_F0
 10
0
 20
0
 30
0
 70
128
 71
20
 72
19
 73
21
 74
21
 0
VERTEX
 8
MESH_161_F0
 10
0
 20
0
 30
0
 70
128
 71
19
 72
22
 73
21
 74
21
 0
VERTEX
 8
MESH_161_F0
 10
0
 20
0
 30
0
 70
128
 71
12
 72
27
 73
26
 74
26
 0
VERTEX
 8
MESH_161_F0
 10
0
 20
0
 30
0
 70
128
 71
8
 72
30
 73
29
 74
29
 0
VERTEX
 8
MESH_161_F0
 10
0
 20
0
 30
0
 70
128
 71
4
 72
33
 73
32
 74
32
 0
SEQEND
 0
POLYLINE
 8
MESH_160_F0
 66
1
 10
0.0
 20
0.0
 30
0.0
 70
64
 71
4
 72
2
 0
VERTEX
 8
MESH_160_F0
 10
25
 20
-20
 30
120
 70
192
 0
VERTEX
 8
MESH_160_F0
 10
25
 20
0
 30
120
 70
192
 0
VERTEX
 8
MESH_160_F0
 10
-25
 20
0
 30
120
 70
192
 0
VERTEX
 8
MESH_160_F0
 10
-25
 20
-20
 30
120
 70
192
 0
VERTEX
 8
MESH_160_F0
 10
0
 20
0
 30
0
 70
128
 71
4
 72
2
 73
1
 74
1
 0
VERTEX
 8
MESH_160_F0
 10
0
 20
0
 30
0
 70
128
 71
3
 72
2
 73
4
 74
4
 0
SEQEND
 0
POLYLINE
 8
MESH_159_F0
 66
1
 10
0.0
 20
0.0
 30
0.0
 70
64
 71
171
 72
171
 0
VERTEX
 8
MESH_159_F0
 10
-25
 20
0
 30
120
 70
192
 0
VERTEX
 8
MESH_159_F0
 10
25
 20
0
 30
120
 70
192
 0
VERTEX
 8
MESH_159_F0
 10
32.006
 20
0
 30
120.3085
 70
192
 0
VERTEX
 8
MESH_159_F0
 10
38.914
 20
0
 30
121.2193
 70
192
 0
VERTEX
 8
MESH_159_F0
 10
45.724
 20
0
 30
122.7319
 70
192
 0
VERTEX
 8
MESH_159_F0
 10
52.3881
 20
0
 30
124.8343
 70
192
 0
VERTEX
 8
MESH_159_F0
 10
58.8337
 20
0
 30
127.5064
 70
192
 0
VERTEX
 8
MESH_159_F0
 10
65.0189
 20
0
 30
130.729
 70
192
 0
VERTEX
 8
MESH_159_F0
 10
70.8977
 20
0
 30
134.4765
 70
192
 0
VERTEX
 8
MESH_159_F0
 10
76.4289
 20
0
 30
138.7215
 70
192
 0
VERTEX
 8
MESH_159_F0
 10
81.5681
 20
0
 30
143.4312
 70
192
 0
VERTEX
 8
MESH_159_F0
 10
86.2779
 20
0
 30
148.5704
 70
192
 0
VERTEX
 8
MESH_159_F0
 10
90.523
 20
0
 30
154.1016
 70
192
 0
VERTEX
 8
MESH_159_F0
 10
94.2706
 20
0
 30
159.9804
 70
192
 0
VERTEX
 8
MESH_159_F0
 10
97.4933
 20
0
 30
166.1657
 70
192
 0
VERTEX
 8
MESH_159_F0
 10
100.1655
 20
0
 30
172.6113
 70
192
 0
VERTEX
 8
MESH_159_F0
 10
102.2679
 20
0
 30
179.2755
 70
192
 0
VERTEX
 8
MESH_159_F0
 10
103.7806
 20
0
 30
186.0856
 70
192
 0
VERTEX
 8
MESH_159_F0
 10
104.6914
 20
0
 30
192.9938
 70
192
 0
VERTEX
 8
MESH_159_F0
 10
105
 20
0
 30
200
 70
192
 0
VERTEX
 8
MESH_159_F0
 10
105
 20
0
 30
500
 70
192
 0
VERTEX
 8
MESH_159_F0
 10
104.6698
 20
0
 30
507.2437
 70
192
 0
VERTEX
 8
MESH_159_F0
 10
103.6972
 20
0
 30
514.3785
 70
192
 0
VERTEX
 8
MESH_159_F0
 10
102.0802
 20
0
 30
521.4136
 70
192
 0
VERTEX
 8
MESH_159_F0
 10
99.8309
 20
0
 30
528.29
 70
192
 0
VERTEX
 8
MESH_159_F0
 10
96.9685
 20
0
 30
534.9346
 70
192
 0
VERTEX
 8
MESH_159_F0
 10
93.5271
 20
0
 30
541.2799
 70
192
 0
VERTEX
 8
MESH_159_F0
 10
89.5364
 20
0
 30
547.2738
 70
192
 0
VERTEX
 8
MESH_159_F0
 10
84.9919
 20
0
 30
552.9243
 70
192
 0
VERTEX
 8
MESH_159_F0
 10
82.7349
 20
0
 30
555.3776
 70
192
 0
VERTEX
 8
MESH_159_F0
 10
80.3776
 20
0
 30
557.7349
 70
192
 0
VERTEX
 8
MESH_159_F0
 10
77.9243
 20
0
 30
559.9919
 70
192
 0
VERTEX
 8
MESH_159_F0
 10
72.2738
 20
0
 30
564.5364
 70
192
 0
VERTEX
 8
MESH_159_F0
 10
66.2799
 20
0
 30
568.527
 70
192
 0
VERTEX
 8
MESH_159_F0
 10
59.9347
 20
0
 30
571.9685
 70
192
 0
VERTEX
 8
MESH_159_F0
 10
53.29
 20
0
 30
574.8309
 70
192
 0
VERTEX
 8
MESH_159_F0
 10
46.4135
 20
0
 30
577.0802
 70
192
 0
VERTEX
 8
MESH_159_F0
 10
39.3785
 20
0
 30
578.6972
 70
192
 0
VERTEX
 8
MESH_159_F0
 10
32.2437
 20
0
 30
579.6699
 70
192
 0
VERTEX
 8
MESH_159_F0
 10
25
 20
0
 30
580
 70
192
 0
VERTEX
 8
MESH_159_F0
 10
-25
 20
0
 30
580
 70
192
 0
VERTEX
 8
MESH_159_F0
 10
-32.2437
 20
0
 30
579.6699
 70
192
 0
VERTEX
 8
MESH_159_F0
 10
-39.3785
 20
0
 30
578.6972
 70
192
 0
VERTEX
 8
MESH_159_F0
 10
-46.4135
 20
0
 30
577.0802
 70
192
 0
VERTEX
 8
MESH_159_F0
 10
-53.29
 20
0
 30
574.8309
 70
192
 0
VERTEX
 8
MESH_159_F0
 10
-59.9347
 20
0
 30
571.9685
 70
192
 0
VERTEX
 8
MESH_159_F0
 10
-66.2799
 20
0
 30
568.527
 70
192
 0
VERTEX
 8
MESH_159_F0
 10
-72.2738
 20
0
 30
564.5364
 70
192
 0
VERTEX
 8
MESH_159_F0
 10
-77.9243
 20
0
 30
559.9919
 70
192
 0
VERTEX
 8
MESH_159_F0
 10
-80.3776
 20
0
 30
557.7349
 70
192
 0
VERTEX
 8
MESH_159_F0
 10
-82.7349
 20
0
 30
555.3776
 70
192
 0
VERTEX
 8
MESH_159_F0
 10
-84.9919
 20
0
 30
552.9243
 70
192
 0
VERTEX
 8
MESH_159_F0
 10
-89.5364
 20
0
 30
547.2738
 70
192
 0
VERTEX
 8
MESH_159_F0
 10
-93.5271
 20
0
 30
541.2799
 70
192
 0
VERTEX
 8
MESH_159_F0
 10
-96.9685
 20
0
 30
534.9346
 70
192
 0
VERTEX
 8
MESH_159_F0
 10
-99.8309
 20
0
 30
528.29
 70
192
 0
VERTEX
 8
MESH_159_F0
 10
-102.0802
 20
0
 30
521.4136
 70
192
 0
VERTEX
 8
MESH_159_F0
 10
-103.6972
 20
0
 30
514.3785
 70
192
 0
VERTEX
 8
MESH_159_F0
 10
-104.6698
 20
0
 30
507.2437
 70
192
 0
VERTEX
 8
MESH_159_F0
 10
-105
 20
0
 30
500
 70
192
 0
VERTEX
 8
MESH_159_F0
 10
-105
 20
0
 30
200
 70
192
 0
VERTEX
 8
MESH_159_F0
 10
-104.6698
 20
0
 30
192.7563
 70
192
 0
VERTEX
 8
MESH_159_F0
 10
-103.6972
 20
0
 30
185.6215
 70
192
 0
VERTEX
 8
MESH_159_F0
 10
-102.0802
 20
0
 30
178.5864
 70
192
 0
VERTEX
 8
MESH_159_F0
 10
-99.8309
 20
0
 30
171.71
 70
192
 0
VERTEX
 8
MESH_159_F0
 10
-96.9685
 20
0
 30
165.0653
 70
192
 0
VERTEX
 8
MESH_159_F0
 10
-93.5271
 20
0
 30
158.7201
 70
192
 0
VERTEX
 8
MESH_159_F0
 10
-89.5364
 20
0
 30
152.7262
 70
192
 0
VERTEX
 8
MESH_159_F0
 10
-84.9919
 20
0
 30
147.0757
 70
192
 0
VERTEX
 8
MESH_159_F0
 10
-82.7349
 20
0
 30
144.6223
 70
192
 0
VERTEX
 8
MESH_159_F0
 10
-80.3776
 20
0
 30
142.2651
 70
192
 0
VERTEX
 8
MESH_159_F0
 10
-77.9243
 20
0
 30
140.0081
 70
192
 0
VERTEX
 8
MESH_159_F0
 10
-72.2738
 20
0
 30
135.4637
 70
192
 0
VERTEX
 8
MESH_159_F0
 10
-66.2799
 20
0
 30
131.4729
 70
192
 0
VERTEX
 8
MESH_159_F0
 10
-59.9347
 20
0
 30
128.0315
 70
192
 0
VERTEX
 8
MESH_159_F0
 10
-53.29
 20
0
 30
125.1691
 70
192
 0
VERTEX
 8
MESH_159_F0
 10
-46.4135
 20
0
 30
122.9198
 70
192
 0
VERTEX
 8
MESH_159_F0
 10
-39.3785
 20
0
 30
121.3028
 70
192
 0
VERTEX
 8
MESH_159_F0
 10
-32.2437
 20
0
 30
120.3302
 70
192
 0
VERTEX
 8
MESH_159_F0
 10
-25
 20
0
 30
700
 70
192
 0
VERTEX
 8
MESH_159_F0
 10
25
 20
0
 30
700
 70
192
 0
VERTEX
 8
MESH_159_F0
 10
39.3157
 20
0
 30
699.4857
 70
192
 0
VERTEX
 8
MESH_159_F0
 10
53.497
 20
0
 30
697.9594
 70
192
 0
VERTEX
 8
MESH_159_F0
 10
67.5452
 20
0
 30
695.4212
 70
192
 0
VERTEX
 8
MESH_159_F0
 10
81.3927
 20
0
 30
691.885
 70
192
 0
VERTEX
 8
MESH_159_F0
 10
94.939
 20
0
 30
687.373
 70
192
 0
VERTEX
 8
MESH_159_F0
 10
108.1246
 20
0
 30
681.9073
 70
192
 0
VERTEX
 8
MESH_159_F0
 10
120.8833
 20
0
 30
675.5169
 70
192
 0
VERTEX
 8
MESH_159_F0
 10
133.1552
 20
0
 30
668.2332
 70
192
 0
VERTEX
 8
MESH_159_F0
 10
144.8731
 20
0
 30
660.0948
 70
192
 0
VERTEX
 8
MESH_159_F0
 10
155.9811
 20
0
 30
651.142
 70
192
 0
VERTEX
 8
MESH_159_F0
 10
166.4216
 20
0
 30
641.4207
 70
192
 0
VERTEX
 8
MESH_159_F0
 10
176.1429
 20
0
 30
630.9801
 70
192
 0
VERTEX
 8
MESH_159_F0
 10
185.0955
 20
0
 30
619.8721
 70
192
 0
VERTEX
 8
MESH_159_F0
 10
193.2339
 20
0
 30
608.1541
 70
192
 0
VERTEX
 8
MESH_159_F0
 10
200.5175
 20
0
 30
595.8823
 70
192
 0
VERTEX
 8
MESH_159_F0
 10
206.9077
 20
0
 30
583.1237
 70
192
 0
VERTEX
 8
MESH_159_F0
 10
212.3734
 20
0
 30
569.9381
 70
192
 0
VERTEX
 8
MESH_159_F0
 10
216.8852
 20
0
 30
556.392
 70
192
 0
VERTEX
 8
MESH_159_F0
 10
220.4214
 20
0
 30
542.5446
 70
192
 0
VERTEX
 8
MESH_159_F0
 10
222.9594
 20
0
 30
528.4966
 70
192
 0
VERTEX
 8
MESH_159_F0
 10
224.4857
 20
0
 30
514.3154
 70
192
 0
VERTEX
 8
MESH_159_F0
 10
225
 20
0
 30
500
 70
192
 0
VERTEX
 8
MESH_159_F0
 10
225
 20
0
 30
200
 70
192
 0
VERTEX
 8
MESH_159_F0
 10
224.4857
 20
0
 30
185.6843
 70
192
 0
VERTEX
 8
MESH_159_F0
 10
222.9594
 20
0
 30
171.5029
 70
192
 0
VERTEX
 8
MESH_159_F0
 10
220.4212
 20
0
 30
157.4548
 70
192
 0
VERTEX
 8
MESH_159_F0
 10
216.885
 20
0
 30
143.6073
 70
192
 0
VERTEX
 8
MESH_159_F0
 10
212.373
 20
0
 30
130.061
 70
192
 0
VERTEX
 8
MESH_159_F0
 10
206.9073
 20
0
 30
116.8754
 70
192
 0
VERTEX
 8
MESH_159_F0
 10
200.5169
 20
0
 30
104.1167
 70
192
 0
VERTEX
 8
MESH_159_F0
 10
193.2333
 20
0
 30
91.8449
 70
192
 0
VERTEX
 8
MESH_159_F0
 10
185.0948
 20
0
 30
80.1269
 70
192
 0
VERTEX
 8
MESH_159_F0
 10
176.142
 20
0
 30
69.0189
 70
192
 0
VERTEX
 8
MESH_159_F0
 10
166.4206
 20
0
 30
58.5784
 70
192
 0
VERTEX
 8
MESH_159_F0
 10
155.9801
 20
0
 30
48.8571
 70
192
 0
VERTEX
 8
MESH_159_F0
 10
144.8721
 20
0
 30
39.9045
 70
192
 0
VERTEX
 8
MESH_159_F0
 10
133.1541
 20
0
 30
31.7661
 70
192
 0
VERTEX
 8
MESH_159_F0
 10
120.8823
 20
0
 30
24.4825
 70
192
 0
VERTEX
 8
MESH_159_F0
 10
108.1237
 20
0
 30
18.0923
 70
192
 0
VERTEX
 8
MESH_159_F0
 10
94.9381
 20
0
 30
12.6267
 70
192
 0
VERTEX
 8
MESH_159_F0
 10
81.392
 20
0
 30
8.1148
 70
192
 0
VERTEX
 8
MESH_159_F0
 10
67.5446
 20
0
 30
4.5786
 70
192
 0
VERTEX
 8
MESH_159_F0
 10
53.4966
 20
0
 30
2.0406
 70
192
 0
VERTEX
 8
MESH_159_F0
 10
39.3154
 20
0
 30
0.5143
 70
192
 0
VERTEX
 8
MESH_159_F0
 10
25
 20
0
 30
0
 70
192
 0
VERTEX
 8
MESH_159_F0
 10
-25
 20
0
 30
0
 70
192
 0
VERTEX
 8
MESH_159_F0
 10
-39.3157
 20
0
 30
0.5143
 70
192
 0
VERTEX
 8
MESH_159_F0
 10
-53.497
 20
0
 30
2.0406
 70
192
 0
VERTEX
 8
MESH_159_F0
 10
-67.5452
 20
0
 30
4.5788
 70
192
 0
VERTEX
 8
MESH_159_F0
 10
-81.3927
 20
0
 30
8.115
 70
192
 0
VERTEX
 8
MESH_159_F0
 10
-94.939
 20
0
 30
12.627
 70
192
 0
VERTEX
 8
MESH_159_F0
 10
-108.1246
 20
0
 30
18.0927
 70
192
 0
VERTEX
 8
MESH_159_F0
 10
-120.8833
 20
0
 30
24.4831
 70
192
 0
VERTEX
 8
MESH_159_F0
 10
-133.1552
 20
0
 30
31.7667
 70
192
 0
VERTEX
 8
MESH_159_F0
 10
-144.8731
 20
0
 30
39.9052
 70
192
 0
VERTEX
 8
MESH_159_F0
 10
-155.9811
 20
0
 30
48.858
 70
192
 0
VERTEX
 8
MESH_159_F0
 10
-166.4216
 20
0
 30
58.5794
 70
192
 0
VERTEX
 8
MESH_159_F0
 10
-176.1429
 20
0
 30
69.0199
 70
192
 0
VERTEX
 8
MESH_159_F0
 10
-185.0955
 20
0
 30
80.1279
 70
192
 0
VERTEX
 8
MESH_159_F0
 10
-193.2339
 20
0
 30
91.8459
 70
192
 0
VERTEX
 8
MESH_159_F0
 10
-200.5175
 20
0
 30
104.1177
 70
192
 0
VERTEX
 8
MESH_159_F0
 10
-206.9077
 20
0
 30
116.8763
 70
192
 0
VERTEX
 8
MESH_159_F0
 10
-212.3734
 20
0
 30
130.0619
 70
192
 0
VERTEX
 8
MESH_159_F0
 10
-216.8852
 20
0
 30
143.608
 70
192
 0
VERTEX
 8
MESH_159_F0
 10
-220.4214
 20
0
 30
157.4554
 70
192
 0
VERTEX
 8
MESH_159_F0
 10
-222.9594
 20
0
 30
171.5034
 70
192
 0
VERTEX
 8
MESH_159_F0
 10
-224.4857
 20
0
 30
185.6846
 70
192
 0
VERTEX
 8
MESH_159_F0
 10
-225
 20
0
 30
200
 70
192
 0
VERTEX
 8
MESH_159_F0
 10
-225
 20
0
 30
500
 70
192
 0
VERTEX
 8
MESH_159_F0
 10
-224.4857
 20
0
 30
514.3157
 70
192
 0
VERTEX
 8
MESH_159_F0
 10
-222.9594
 20
0
 30
528.4971
 70
192
 0
VERTEX
 8
MESH_159_F0
 10
-220.4212
 20
0
 30
542.5452
 70
192
 0
VERTEX
 8
MESH_159_F0
 10
-216.885
 20
0
 30
556.3927
 70
192
 0
VERTEX
 8
MESH_159_F0
 10
-212.373
 20
0
 30
569.939
 70
192
 0
VERTEX
 8
MESH_159_F0
 10
-206.9073
 20
0
 30
583.1246
 70
192
 0
VERTEX
 8
MESH_159_F0
 10
-200.5169
 20
0
 30
595.8832
 70
192
 0
VERTEX
 8
MESH_159_F0
 10
-193.2333
 20
0
 30
608.1551
 70
192
 0
VERTEX
 8
MESH_159_F0
 10
-185.0948
 20
0
 30
619.8731
 70
192
 0
VERTEX
 8
MESH_159_F0
 10
-176.142
 20
0
 30
630.9811
 70
192
 0
VERTEX
 8
MESH_159_F0
 10
-166.4206
 20
0
 30
641.4216
 70
192
 0
VERTEX
 8
MESH_159_F0
 10
-155.9801
 20
0
 30
651.1428
 70
192
 0
VERTEX
 8
MESH_159_F0
 10
-144.8721
 20
0
 30
660.0956
 70
192
 0
VERTEX
 8
MESH_159_F0
 10
-133.1541
 20
0
 30
668.2339
 70
192
 0
VERTEX
 8
MESH_159_F0
 10
-120.8823
 20
0
 30
675.5175
 70
192
 0
VERTEX
 8
MESH_159_F0
 10
-108.1237
 20
0
 30
681.9077
 70
192
 0
VERTEX
 8
MESH_159_F0
 10
-94.9381
 20
0
 30
687.3734
 70
192
 0
VERTEX
 8
MESH_159_F0
 10
-81.392
 20
0
 30
691.8852
 70
192
 0
VERTEX
 8
MESH_159_F0
 10
-67.5446
 20
0
 30
695.4213
 70
192
 0
VERTEX
 8
MESH_159_F0
 10
-53.4966
 20
0
 30
697.9594
 70
192
 0
VERTEX
 8
MESH_159_F0
 10
-39.3154
 20
0
 30
699.4857
 70
192
 0
VERTEX
 8
MESH_159_F0
 10
0
 20
0
 30
0
 70
128
 71
143
 72
1
 73
79
 74
79
 0
VERTEX
 8
MESH_159_F0
 10
0
 20
0
 30
0
 70
128
 71
77
 72
143
 73
78
 74
78
 0
VERTEX
 8
MESH_159_F0
 10
0
 20
0
 30
0
 70
128
 71
143
 72
79
 73
78
 74
78
 0
VERTEX
 8
MESH_159_F0
 10
0
 20
0
 30
0
 70
128
 71
4
 72
123
 73
5
 74
5
 0
VERTEX
 8
MESH_159_F0
 10
0
 20
0
 30
0
 70
128
 71
123
 72
6
 73
5
 74
5
 0
VERTEX
 8
MESH_159_F0
 10
0
 20
0
 30
0
 70
128
 71
122
 72
6
 73
123
 74
123
 0
VERTEX
 8
MESH_159_F0
 10
0
 20
0
 30
0
 70
128
 71
7
 72
6
 73
122
 74
122
 0
VERTEX
 8
MESH_159_F0
 10
0
 20
0
 30
0
 70
128
 71
8
 72
7
 73
121
 74
121
 0
VERTEX
 8
MESH_159_F0
 10
0
 20
0
 30
0
 70
128
 71
9
 72
8
 73
120
 74
120
 0
VERTEX
 8
MESH_159_F0
 10
0
 20
0
 30
0
 70
128
 71
10
 72
9
 73
119
 74
119
 0
VERTEX
 8
MESH_159_F0
 10
0
 20
0
 30
0
 70
128
 71
11
 72
10
 73
118
 74
118
 0
VERTEX
 8
MESH_159_F0
 10
0
 20
0
 30
0
 70
128
 71
12
 72
11
 73
117
 74
117
 0
VERTEX
 8
MESH_159_F0
 10
0
 20
0
 30
0
 70
128
 71
13
 72
12
 73
116
 74
116
 0
VERTEX
 8
MESH_159_F0
 10
0
 20
0
 30
0
 70
128
 71
14
 72
13
 73
115
 74
115
 0
VERTEX
 8
MESH_159_F0
 10
0
 20
0
 30
0
 70
128
 71
113
 72
14
 73
114
 74
114
 0
VERTEX
 8
MESH_159_F0
 10
0
 20
0
 30
0
 70
128
 71
14
 72
115
 73
114
 74
114
 0
VERTEX
 8
MESH_159_F0
 10
0
 20
0
 30
0
 70
128
 71
3
 72
124
 73
4
 74
4
 0
VERTEX
 8
MESH_159_F0
 10
0
 20
0
 30
0
 70
128
 71
124
 72
123
 73
4
 74
4
 0
VERTEX
 8
MESH_159_F0
 10
0
 20
0
 30
0
 70
128
 71
113
 72
15
 73
14
 74
14
 0
VERTEX
 8
MESH_159_F0
 10
0
 20
0
 30
0
 70
128
 71
112
 72
15
 73
113
 74
113
 0
VERTEX
 8
MESH_159_F0
 10
0
 20
0
 30
0
 70
128
 71
111
 72
15
 73
112
 74
112
 0
VERTEX
 8
MESH_159_F0
 10
0
 20
0
 30
0
 70
128
 71
16
 72
15
 73
111
 74
111
 0
VERTEX
 8
MESH_159_F0
 10
0
 20
0
 30
0
 70
128
 71
109
 72
16
 73
110
 74
110
 0
VERTEX
 8
MESH_159_F0
 10
0
 20
0
 30
0
 70
128
 71
16
 72
111
 73
110
 74
110
 0
VERTEX
 8
MESH_159_F0
 10
0
 20
0
 30
0
 70
128
 71
17
 72
105
 73
18
 74
18
 0
VERTEX
 8
MESH_159_F0
 10
0
 20
0
 30
0
 70
128
 71
105
 72
19
 73
18
 74
18
 0
VERTEX
 8
MESH_159_F0
 10
0
 20
0
 30
0
 70
128
 71
104
 72
19
 73
105
 74
105
 0
VERTEX
 8
MESH_159_F0
 10
0
 20
0
 30
0
 70
128
 71
20
 72
19
 73
104
 74
104
 0
VERTEX
 8
MESH_159_F0
 10
0
 20
0
 30
0
 70
128
 71
21
 72
20
 73
103
 74
103
 0
VERTEX
 8
MESH_159_F0
 10
0
 20
0
 30
0
 70
128
 71
21
 72
103
 73
22
 74
22
 0
VERTEX
 8
MESH_159_F0
 10
0
 20
0
 30
0
 70
128
 71
103
 72
102
 73
22
 74
22
 0
VERTEX
 8
MESH_159_F0
 10
0
 20
0
 30
0
 70
128
 71
102
 72
23
 73
22
 74
22
 0
VERTEX
 8
MESH_159_F0
 10
0
 20
0
 30
0
 70
128
 71
24
 72
23
 73
102
 74
102
 0
VERTEX
 8
MESH_159_F0
 10
0
 20
0
 30
0
 70
128
 71
100
 72
24
 73
101
 74
101
 0
VERTEX
 8
MESH_159_F0
 10
0
 20
0
 30
0
 70
128
 71
24
 72
102
 73
101
 74
101
 0
VERTEX
 8
MESH_159_F0
 10
0
 20
0
 30
0
 70
128
 71
100
 72
25
 73
24
 74
24
 0
VERTEX
 8
MESH_159_F0
 10
0
 20
0
 30
0
 70
128
 71
99
 72
25
 73
100
 74
100
 0
VERTEX
 8
MESH_159_F0
 10
0
 20
0
 30
0
 70
128
 71
98
 72
25
 73
99
 74
99
 0
VERTEX
 8
MESH_159_F0
 10
0
 20
0
 30
0
 70
128
 71
97
 72
25
 73
98
 74
98
 0
VERTEX
 8
MESH_159_F0
 10
0
 20
0
 30
0
 70
128
 71
26
 72
25
 73
97
 74
97
 0
VERTEX
 8
MESH_159_F0
 10
0
 20
0
 30
0
 70
128
 71
26
 72
97
 73
27
 74
27
 0
VERTEX
 8
MESH_159_F0
 10
0
 20
0
 30
0
 70
128
 71
97
 72
28
 73
27
 74
27
 0
VERTEX
 8
MESH_159_F0
 10
0
 20
0
 30
0
 70
128
 71
29
 72
28
 73
97
 74
97
 0
VERTEX
 8
MESH_159_F0
 10
0
 20
0
 30
0
 70
128
 71
29
 72
97
 73
30
 74
30
 0
VERTEX
 8
MESH_159_F0
 10
0
 20
0
 30
0
 70
128
 71
97
 72
31
 73
30
 74
30
 0
VERTEX
 8
MESH_159_F0
 10
0
 20
0
 30
0
 70
128
 71
32
 72
31
 73
97
 74
97
 0
VERTEX
 8
MESH_159_F0
 10
0
 20
0
 30
0
 70
128
 71
32
 72
97
 73
33
 74
33
 0
VERTEX
 8
MESH_159_F0
 10
0
 20
0
 30
0
 70
128
 71
97
 72
34
 73
33
 74
33
 0
VERTEX
 8
MESH_159_F0
 10
0
 20
0
 30
0
 70
128
 71
35
 72
34
 73
97
 74
97
 0
VERTEX
 8
MESH_159_F0
 10
0
 20
0
 30
0
 70
128
 71
35
 72
97
 73
36
 74
36
 0
VERTEX
 8
MESH_159_F0
 10
0
 20
0
 30
0
 70
128
 71
97
 72
37
 73
36
 74
36
 0
VERTEX
 8
MESH_159_F0
 10
0
 20
0
 30
0
 70
128
 71
38
 72
37
 73
97
 74
97
 0
VERTEX
 8
MESH_159_F0
 10
0
 20
0
 30
0
 70
128
 71
38
 72
97
 73
39
 74
39
 0
VERTEX
 8
MESH_159_F0
 10
0
 20
0
 30
0
 70
128
 71
97
 72
40
 73
39
 74
39
 0
VERTEX
 8
MESH_159_F0
 10
0
 20
0
 30
0
 70
128
 71
41
 72
40
 73
97
 74
97
 0
VERTEX
 8
MESH_159_F0
 10
0
 20
0
 30
0
 70
128
 71
95
 72
41
 73
96
 74
96
 0
VERTEX
 8
MESH_159_F0
 10
0
 20
0
 30
0
 70
128
 71
41
 72
97
 73
96
 74
96
 0
VERTEX
 8
MESH_159_F0
 10
0
 20
0
 30
0
 70
128
 71
42
 72
162
 73
161
 74
161
 0
VERTEX
 8
MESH_159_F0
 10
0
 20
0
 30
0
 70
128
 71
159
 72
42
 73
160
 74
160
 0
VERTEX
 8
MESH_159_F0
 10
0
 20
0
 30
0
 70
128
 71
42
 72
161
 73
160
 74
160
 0
VERTEX
 8
MESH_159_F0
 10
0
 20
0
 30
0
 70
128
 71
42
 72
155
 73
43
 74
43
 0
VERTEX
 8
MESH_159_F0
 10
0
 20
0
 30
0
 70
128
 71
155
 72
44
 73
43
 74
43
 0
VERTEX
 8
MESH_159_F0
 10
0
 20
0
 30
0
 70
128
 71
45
 72
44
 73
155
 74
155
 0
VERTEX
 8
MESH_159_F0
 10
0
 20
0
 30
0
 70
128
 71
45
 72
155
 73
46
 74
46
 0
VERTEX
 8
MESH_159_F0
 10
0
 20
0
 30
0
 70
128
 71
155
 72
47
 73
46
 74
46
 0
VERTEX
 8
MESH_159_F0
 10
0
 20
0
 30
0
 70
128
 71
154
 72
47
 73
155
 74
155
 0
VERTEX
 8
MESH_159_F0
 10
0
 20
0
 30
0
 70
128
 71
48
 72
47
 73
154
 74
154
 0
VERTEX
 8
MESH_159_F0
 10
0
 20
0
 30
0
 70
128
 71
48
 72
154
 73
49
 74
49
 0
VERTEX
 8
MESH_159_F0
 10
0
 20
0
 30
0
 70
128
 71
154
 72
50
 73
49
 74
49
 0
VERTEX
 8
MESH_159_F0
 10
0
 20
0
 30
0
 70
128
 71
51
 72
50
 73
154
 74
154
 0
VERTEX
 8
MESH_159_F0
 10
0
 20
0
 30
0
 70
128
 71
52
 72
51
 73
153
 74
153
 0
VERTEX
 8
MESH_159_F0
 10
0
 20
0
 30
0
 70
128
 71
52
 72
153
 73
53
 74
53
 0
VERTEX
 8
MESH_159_F0
 10
0
 20
0
 30
0
 70
128
 71
153
 72
54
 73
53
 74
53
 0
VERTEX
 8
MESH_159_F0
 10
0
 20
0
 30
0
 70
128
 71
152
 72
54
 73
153
 74
153
 0
VERTEX
 8
MESH_159_F0
 10
0
 20
0
 30
0
 70
128
 71
55
 72
54
 73
152
 74
152
 0
VERTEX
 8
MESH_159_F0
 10
0
 20
0
 30
0
 70
128
 71
55
 72
152
 73
56
 74
56
 0
VERTEX
 8
MESH_159_F0
 10
0
 20
0
 30
0
 70
128
 71
152
 72
151
 73
56
 74
56
 0
VERTEX
 8
MESH_159_F0
 10
0
 20
0
 30
0
 70
128
 71
151
 72
57
 73
56
 74
56
 0
VERTEX
 8
MESH_159_F0
 10
0
 20
0
 30
0
 70
128
 71
58
 72
57
 73
151
 74
151
 0
VERTEX
 8
MESH_159_F0
 10
0
 20
0
 30
0
 70
128
 71
58
 72
151
 73
59
 74
59
 0
VERTEX
 8
MESH_159_F0
 10
0
 20
0
 30
0
 70
128
 71
151
 72
150
 73
59
 74
59
 0
VERTEX
 8
MESH_159_F0
 10
0
 20
0
 30
0
 70
128
 71
150
 72
60
 73
59
 74
59
 0
VERTEX
 8
MESH_159_F0
 10
0
 20
0
 30
0
 70
128
 71
149
 72
60
 73
150
 74
150
 0
VERTEX
 8
MESH_159_F0
 10
0
 20
0
 30
0
 70
128
 71
61
 72
60
 73
149
 74
149
 0
VERTEX
 8
MESH_159_F0
 10
0
 20
0
 30
0
 70
128
 71
62
 72
61
 73
148
 74
148
 0
VERTEX
 8
MESH_159_F0
 10
0
 20
0
 30
0
 70
128
 71
62
 72
148
 73
63
 74
63
 0
VERTEX
 8
MESH_159_F0
 10
0
 20
0
 30
0
 70
128
 71
148
 72
147
 73
63
 74
63
 0
VERTEX
 8
MESH_159_F0
 10
0
 20
0
 30
0
 70
128
 71
147
 72
64
 73
63
 74
63
 0
VERTEX
 8
MESH_159_F0
 10
0
 20
0
 30
0
 70
128
 71
65
 72
64
 73
147
 74
147
 0
VERTEX
 8
MESH_159_F0
 10
0
 20
0
 30
0
 70
128
 71
65
 72
147
 73
66
 74
66
 0
VERTEX
 8
MESH_159_F0
 10
0
 20
0
 30
0
 70
128
 71
147
 72
146
 73
66
 74
66
 0
VERTEX
 8
MESH_159_F0
 10
0
 20
0
 30
0
 70
128
 71
146
 72
67
 73
66
 74
66
 0
VERTEX
 8
MESH_159_F0
 10
0
 20
0
 30
0
 70
128
 71
68
 72
67
 73
146
 74
146
 0
VERTEX
 8
MESH_159_F0
 10
0
 20
0
 30
0
 70
128
 71
69
 72
68
 73
145
 74
145
 0
VERTEX
 8
MESH_159_F0
 10
0
 20
0
 30
0
 70
128
 71
69
 72
145
 73
70
 74
70
 0
VERTEX
 8
MESH_159_F0
 10
0
 20
0
 30
0
 70
128
 71
145
 72
71
 73
70
 74
70
 0
VERTEX
 8
MESH_159_F0
 10
0
 20
0
 30
0
 70
128
 71
144
 72
71
 73
145
 74
145
 0
VERTEX
 8
MESH_159_F0
 10
0
 20
0
 30
0
 70
128
 71
72
 72
71
 73
144
 74
144
 0
VERTEX
 8
MESH_159_F0
 10
0
 20
0
 30
0
 70
128
 71
72
 72
144
 73
73
 74
73
 0
VERTEX
 8
MESH_159_F0
 10
0
 20
0
 30
0
 70
128
 71
144
 72
74
 73
73
 74
73
 0
VERTEX
 8
MESH_159_F0
 10
0
 20
0
 30
0
 70
128
 71
75
 72
74
 73
144
 74
144
 0
VERTEX
 8
MESH_159_F0
 10
0
 20
0
 30
0
 70
128
 71
76
 72
75
 73
143
 74
143
 0
VERTEX
 8
MESH_159_F0
 10
0
 20
0
 30
0
 70
128
 71
76
 72
143
 73
77
 74
77
 0
VERTEX
 8
MESH_159_F0
 10
0
 20
0
 30
0
 70
128
 71
41
 72
80
 73
171
 74
171
 0
VERTEX
 8
MESH_159_F0
 10
0
 20
0
 30
0
 70
128
 71
169
 72
41
 73
170
 74
170
 0
VERTEX
 8
MESH_159_F0
 10
0
 20
0
 30
0
 70
128
 71
41
 72
171
 73
170
 74
170
 0
VERTEX
 8
MESH_159_F0
 10
0
 20
0
 30
0
 70
128
 71
41
 72
81
 73
80
 74
80
 0
VERTEX
 8
MESH_159_F0
 10
0
 20
0
 30
0
 70
128
 71
82
 72
81
 73
41
 74
41
 0
VERTEX
 8
MESH_159_F0
 10
0
 20
0
 30
0
 70
128
 71
82
 72
41
 73
83
 74
83
 0
VERTEX
 8
MESH_159_F0
 10
0
 20
0
 30
0
 70
128
 71
41
 72
84
 73
83
 74
83
 0
VERTEX
 8
MESH_159_F0
 10
0
 20
0
 30
0
 70
128
 71
85
 72
84
 73
41
 74
41
 0
VERTEX
 8
MESH_159_F0
 10
0
 20
0
 30
0
 70
128
 71
85
 72
41
 73
86
 74
86
 0
VERTEX
 8
MESH_159_F0
 10
0
 20
0
 30
0
 70
128
 71
41
 72
87
 73
86
 74
86
 0
VERTEX
 8
MESH_159_F0
 10
0
 20
0
 30
0
 70
128
 71
88
 72
87
 73
41
 74
41
 0
VERTEX
 8
MESH_159_F0
 10
0
 20
0
 30
0
 70
128
 71
88
 72
41
 73
89
 74
89
 0
VERTEX
 8
MESH_159_F0
 10
0
 20
0
 30
0
 70
128
 71
41
 72
90
 73
89
 74
89
 0
VERTEX
 8
MESH_159_F0
 10
0
 20
0
 30
0
 70
128
 71
91
 72
90
 73
41
 74
41
 0
VERTEX
 8
MESH_159_F0
 10
0
 20
0
 30
0
 70
128
 71
91
 72
41
 73
92
 74
92
 0
VERTEX
 8
MESH_159_F0
 10
0
 20
0
 30
0
 70
128
 71
41
 72
93
 73
92
 74
92
 0
VERTEX
 8
MESH_159_F0
 10
0
 20
0
 30
0
 70
128
 71
94
 72
93
 73
41
 74
41
 0
VERTEX
 8
MESH_159_F0
 10
0
 20
0
 30
0
 70
128
 71
94
 72
41
 73
95
 74
95
 0
VERTEX
 8
MESH_159_F0
 10
0
 20
0
 30
0
 70
128
 71
20
 72
104
 73
103
 74
103
 0
VERTEX
 8
MESH_159_F0
 10
0
 20
0
 30
0
 70
128
 71
17
 72
106
 73
105
 74
105
 0
VERTEX
 8
MESH_159_F0
 10
0
 20
0
 30
0
 70
128
 71
16
 72
106
 73
17
 74
17
 0
VERTEX
 8
MESH_159_F0
 10
0
 20
0
 30
0
 70
128
 71
107
 72
106
 73
16
 74
16
 0
VERTEX
 8
MESH_159_F0
 10
0
 20
0
 30
0
 70
128
 71
107
 72
16
 73
108
 74
108
 0
VERTEX
 8
MESH_159_F0
 10
0
 20
0
 30
0
 70
128
 71
16
 72
109
 73
108
 74
108
 0
VERTEX
 8
MESH_159_F0
 10
0
 20
0
 30
0
 70
128
 71
13
 72
116
 73
115
 74
115
 0
VERTEX
 8
MESH_159_F0
 10
0
 20
0
 30
0
 70
128
 71
12
 72
117
 73
116
 74
116
 0
VERTEX
 8
MESH_159_F0
 10
0
 20
0
 30
0
 70
128
 71
11
 72
118
 73
117
 74
117
 0
VERTEX
 8
MESH_159_F0
 10
0
 20
0
 30
0
 70
128
 71
10
 72
119
 73
118
 74
118
 0
VERTEX
 8
MESH_159_F0
 10
0
 20
0
 30
0
 70
128
 71
9
 72
120
 73
119
 74
119
 0
VERTEX
 8
MESH_159_F0
 10
0
 20
0
 30
0
 70
128
 71
8
 72
121
 73
120
 74
120
 0
VERTEX
 8
MESH_159_F0
 10
0
 20
0
 30
0
 70
128
 71
7
 72
122
 73
121
 74
121
 0
VERTEX
 8
MESH_159_F0
 10
0
 20
0
 30
0
 70
128
 71
3
 72
125
 73
124
 74
124
 0
VERTEX
 8
MESH_159_F0
 10
0
 20
0
 30
0
 70
128
 71
2
 72
125
 73
3
 74
3
 0
VERTEX
 8
MESH_159_F0
 10
0
 20
0
 30
0
 70
128
 71
126
 72
125
 73
2
 74
2
 0
VERTEX
 8
MESH_159_F0
 10
0
 20
0
 30
0
 70
128
 71
126
 72
2
 73
127
 74
127
 0
VERTEX
 8
MESH_159_F0
 10
0
 20
0
 30
0
 70
128
 71
2
 72
128
 73
127
 74
127
 0
VERTEX
 8
MESH_159_F0
 10
0
 20
0
 30
0
 70
128
 71
129
 72
128
 73
2
 74
2
 0
VERTEX
 8
MESH_159_F0
 10
0
 20
0
 30
0
 70
128
 71
129
 72
2
 73
130
 74
130
 0
VERTEX
 8
MESH_159_F0
 10
0
 20
0
 30
0
 70
128
 71
2
 72
131
 73
130
 74
130
 0
VERTEX
 8
MESH_159_F0
 10
0
 20
0
 30
0
 70
128
 71
132
 72
131
 73
2
 74
2
 0
VERTEX
 8
MESH_159_F0
 10
0
 20
0
 30
0
 70
128
 71
132
 72
2
 73
133
 74
133
 0
VERTEX
 8
MESH_159_F0
 10
0
 20
0
 30
0
 70
128
 71
2
 72
134
 73
133
 74
133
 0
VERTEX
 8
MESH_159_F0
 10
0
 20
0
 30
0
 70
128
 71
135
 72
134
 73
2
 74
2
 0
VERTEX
 8
MESH_159_F0
 10
0
 20
0
 30
0
 70
128
 71
135
 72
2
 73
136
 74
136
 0
VERTEX
 8
MESH_159_F0
 10
0
 20
0
 30
0
 70
128
 71
2
 72
137
 73
136
 74
136
 0
VERTEX
 8
MESH_159_F0
 10
0
 20
0
 30
0
 70
128
 71
138
 72
137
 73
2
 74
2
 0
VERTEX
 8
MESH_159_F0
 10
0
 20
0
 30
0
 70
128
 71
138
 72
2
 73
139
 74
139
 0
VERTEX
 8
MESH_159_F0
 10
0
 20
0
 30
0
 70
128
 71
2
 72
140
 73
139
 74
139
 0
VERTEX
 8
MESH_159_F0
 10
0
 20
0
 30
0
 70
128
 71
141
 72
140
 73
2
 74
2
 0
VERTEX
 8
MESH_159_F0
 10
0
 20
0
 30
0
 70
128
 71
141
 72
2
 73
142
 74
142
 0
VERTEX
 8
MESH_159_F0
 10
0
 20
0
 30
0
 70
128
 71
2
 72
143
 73
142
 74
142
 0
VERTEX
 8
MESH_159_F0
 10
0
 20
0
 30
0
 70
128
 71
1
 72
143
 73
2
 74
2
 0
VERTEX
 8
MESH_159_F0
 10
0
 20
0
 30
0
 70
128
 71
75
 72
144
 73
143
 74
143
 0
VERTEX
 8
MESH_159_F0
 10
0
 20
0
 30
0
 70
128
 71
68
 72
146
 73
145
 74
145
 0
VERTEX
 8
MESH_159_F0
 10
0
 20
0
 30
0
 70
128
 71
61
 72
149
 73
148
 74
148
 0
VERTEX
 8
MESH_159_F0
 10
0
 20
0
 30
0
 70
128
 71
51
 72
154
 73
153
 74
153
 0
VERTEX
 8
MESH_159_F0
 10
0
 20
0
 30
0
 70
128
 71
42
 72
156
 73
155
 74
155
 0
VERTEX
 8
MESH_159_F0
 10
0
 20
0
 30
0
 70
128
 71
157
 72
156
 73
42
 74
42
 0
VERTEX
 8
MESH_159_F0
 10
0
 20
0
 30
0
 70
128
 71
157
 72
42
 73
158
 74
158
 0
VERTEX
 8
MESH_159_F0
 10
0
 20
0
 30
0
 70
128
 71
42
 72
159
 73
158
 74
158
 0
VERTEX
 8
MESH_159_F0
 10
0
 20
0
 30
0
 70
128
 71
42
 72
163
 73
162
 74
162
 0
VERTEX
 8
MESH_159_F0
 10
0
 20
0
 30
0
 70
128
 71
41
 72
163
 73
42
 74
42
 0
VERTEX
 8
MESH_159_F0
 10
0
 20
0
 30
0
 70
128
 71
164
 72
163
 73
41
 74
41
 0
VERTEX
 8
MESH_159_F0
 10
0
 20
0
 30
0
 70
128
 71
164
 72
41
 73
165
 74
165
 0
VERTEX
 8
MESH_159_F0
 10
0
 20
0
 30
0
 70
128
 71
41
 72
166
 73
165
 74
165
 0
VERTEX
 8
MESH_159_F0
 10
0
 20
0
 30
0
 70
128
 71
167
 72
166
 73
41
 74
41
 0
VERTEX
 8
MESH_159_F0
 10
0
 20
0
 30
0
 70
128
 71
167
 72
41
 73
168
 74
168
 0
VERTEX
 8
MESH_159_F0
 10
0
 20
0
 30
0
 70
128
 71
41
 72
169
 73
168
 74
168
 0
SEQEND
 0
POLYLINE
 8
MESH_158_F0
 66
1
 10
0.0
 20
0.0
 30
0.0
 70
64
 71
46
 72
44
 0
VERTEX
 8
MESH_158_F0
 10
-225
 20
0
 30
500
 70
192
 0
VERTEX
 8
MESH_158_F0
 10
-225
 20
-20
 30
500
 70
192
 0
VERTEX
 8
MESH_158_F0
 10
-224.4857
 20
-20
 30
514.3154
 70
192
 0
VERTEX
 8
MESH_158_F0
 10
-222.9594
 20
-20
 30
528.4966
 70
192
 0
VERTEX
 8
MESH_158_F0
 10
-220.4214
 20
-20
 30
542.5446
 70
192
 0
VERTEX
 8
MESH_158_F0
 10
-216.8852
 20
-20
 30
556.392
 70
192
 0
VERTEX
 8
MESH_158_F0
 10
-212.3734
 20
-20
 30
569.9381
 70
192
 0
VERTEX
 8
MESH_158_F0
 10
-206.9077
 20
-20
 30
583.1237
 70
192
 0
VERTEX
 8
MESH_158_F0
 10
-200.5175
 20
-20
 30
595.8823
 70
192
 0
VERTEX
 8
MESH_158_F0
 10
-193.2339
 20
-20
 30
608.1541
 70
192
 0
VERTEX
 8
MESH_158_F0
 10
-185.0955
 20
-20
 30
619.8721
 70
192
 0
VERTEX
 8
MESH_158_F0
 10
-176.1429
 20
-20
 30
630.9801
 70
192
 0
VERTEX
 8
MESH_158_F0
 10
-166.4216
 20
-20
 30
641.4207
 70
192
 0
VERTEX
 8
MESH_158_F0
 10
-155.9811
 20
-20
 30
651.142
 70
192
 0
VERTEX
 8
MESH_158_F0
 10
-144.8731
 20
-20
 30
660.0948
 70
192
 0
VERTEX
 8
MESH_158_F0
 10
-133.1552
 20
-20
 30
668.2332
 70
192
 0
VERTEX
 8
MESH_158_F0
 10
-120.8833
 20
-20
 30
675.5169
 70
192
 0
VERTEX
 8
MESH_158_F0
 10
-108.1246
 20
-20
 30
681.9073
 70
192
 0
VERTEX
 8
MESH_158_F0
 10
-94.939
 20
-20
 30
687.373
 70
192
 0
VERTEX
 8
MESH_158_F0
 10
-81.3927
 20
-20
 30
691.885
 70
192
 0
VERTEX
 8
MESH_158_F0
 10
-67.5452
 20
-20
 30
695.4212
 70
192
 0
VERTEX
 8
MESH_158_F0
 10
-53.497
 20
-20
 30
697.9594
 70
192
 0
VERTEX
 8
MESH_158_F0
 10
-39.3157
 20
-20
 30
699.4857
 70
192
 0
VERTEX
 8
MESH_158_F0
 10
-25
 20
-20
 30
700
 70
192
 0
VERTEX
 8
MESH_158_F0
 10
-25
 20
0
 30
700
 70
192
 0
VERTEX
 8
MESH_158_F0
 10
-39.3154
 20
0
 30
699.4857
 70
192
 0
VERTEX
 8
MESH_158_F0
 10
-53.4966
 20
0
 30
697.9594
 70
192
 0
VERTEX
 8
MESH_158_F0
 10
-67.5446
 20
0
 30
695.4213
 70
192
 0
VERTEX
 8
MESH_158_F0
 10
-81.392
 20
0
 30
691.8852
 70
192
 0
VERTEX
 8
MESH_158_F0
 10
-94.9381
 20
0
 30
687.3734
 70
192
 0
VERTEX
 8
MESH_158_F0
 10
-108.1237
 20
0
 30
681.9077
 70
192
 0
VERTEX
 8
MESH_158_F0
 10
-120.8823
 20
0
 30
675.5175
 70
192
 0
VERTEX
 8
MESH_158_F0
 10
-133.1541
 20
0
 30
668.2339
 70
192
 0
VERTEX
 8
MESH_158_F0
 10
-144.8721
 20
0
 30
660.0956
 70
192
 0
VERTEX
 8
MESH_158_F0
 10
-155.9801
 20
0
 30
651.1428
 70
192
 0
VERTEX
 8
MESH_158_F0
 10
-166.4206
 20
0
 30
641.4216
 70
192
 0
VERTEX
 8
MESH_158_F0
 10
-176.142
 20
0
 30
630.9811
 70
192
 0
VERTEX
 8
MESH_158_F0
 10
-185.0948
 20
0
 30
619.8731
 70
192
 0
VERTEX
 8
MESH_158_F0
 10
-193.2333
 20
0
 30
608.1551
 70
192
 0
VERTEX
 8
MESH_158_F0
 10
-200.5169
 20
0
 30
595.8832
 70
192
 0
VERTEX
 8
MESH_158_F0
 10
-206.9073
 20
0
 30
583.1246
 70
192
 0
VERTEX
 8
MESH_158_F0
 10
-212.373
 20
0
 30
569.939
 70
192
 0
VERTEX
 8
MESH_158_F0
 10
-216.885
 20
0
 30
556.3927
 70
192
 0
VERTEX
 8
MESH_158_F0
 10
-220.4212
 20
0
 30
542.5452
 70
192
 0
VERTEX
 8
MESH_158_F0
 10
-222.9594
 20
0
 30
528.4971
 70
192
 0
VERTEX
 8
MESH_158_F0
 10
-224.4857
 20
0
 30
514.3157
 70
192
 0
VERTEX
 8
MESH_158_F0
 10
0
 20
0
 30
0
 70
128
 71
1
 72
3
 73
2
 74
2
 0
VERTEX
 8
MESH_158_F0
 10
0
 20
0
 30
0
 70
128
 71
46
 72
3
 73
1
 74
1
 0
VERTEX
 8
MESH_158_F0
 10
0
 20
0
 30
0
 70
128
 71
4
 72
3
 73
46
 74
46
 0
VERTEX
 8
MESH_158_F0
 10
0
 20
0
 30
0
 70
128
 71
5
 72
4
 73
45
 74
45
 0
VERTEX
 8
MESH_158_F0
 10
0
 20
0
 30
0
 70
128
 71
6
 72
5
 73
44
 74
44
 0
VERTEX
 8
MESH_158_F0
 10
0
 20
0
 30
0
 70
128
 71
7
 72
6
 73
43
 74
43
 0
VERTEX
 8
MESH_158_F0
 10
0
 20
0
 30
0
 70
128
 71
8
 72
7
 73
42
 74
42
 0
VERTEX
 8
MESH_158_F0
 10
0
 20
0
 30
0
 70
128
 71
9
 72
8
 73
41
 74
41
 0
VERTEX
 8
MESH_158_F0
 10
0
 20
0
 30
0
 70
128
 71
10
 72
9
 73
40
 74
40
 0
VERTEX
 8
MESH_158_F0
 10
0
 20
0
 30
0
 70
128
 71
11
 72
10
 73
39
 74
39
 0
VERTEX
 8
MESH_158_F0
 10
0
 20
0
 30
0
 70
128
 71
12
 72
11
 73
38
 74
38
 0
VERTEX
 8
MESH_158_F0
 10
0
 20
0
 30
0
 70
128
 71
13
 72
12
 73
37
 74
37
 0
VERTEX
 8
MESH_158_F0
 10
0
 20
0
 30
0
 70
128
 71
14
 72
13
 73
36
 74
36
 0
VERTEX
 8
MESH_158_F0
 10
0
 20
0
 30
0
 70
128
 71
15
 72
14
 73
35
 74
35
 0
VERTEX
 8
MESH_158_F0
 10
0
 20
0
 30
0
 70
128
 71
16
 72
15
 73
34
 74
34
 0
VERTEX
 8
MESH_158_F0
 10
0
 20
0
 30
0
 70
128
 71
17
 72
16
 73
33
 74
33
 0
VERTEX
 8
MESH_158_F0
 10
0
 20
0
 30
0
 70
128
 71
18
 72
17
 73
32
 74
32
 0
VERTEX
 8
MESH_158_F0
 10
0
 20
0
 30
0
 70
128
 71
19
 72
18
 73
31
 74
31
 0
VERTEX
 8
MESH_158_F0
 10
0
 20
0
 30
0
 70
128
 71
20
 72
19
 73
30
 74
30
 0
VERTEX
 8
MESH_158_F0
 10
0
 20
0
 30
0
 70
128
 71
21
 72
20
 73
29
 74
29
 0
VERTEX
 8
MESH_158_F0
 10
0
 20
0
 30
0
 70
128
 71
22
 72
21
 73
28
 74
28
 0
VERTEX
 8
MESH_158_F0
 10
0
 20
0
 30
0
 70
128
 71
23
 72
22
 73
27
 74
27
 0
VERTEX
 8
MESH_158_F0
 10
0
 20
0
 30
0
 70
128
 71
25
 72
23
 73
26
 74
26
 0
VERTEX
 8
MESH_158_F0
 10
0
 20
0
 30
0
 70
128
 71
23
 72
27
 73
26
 74
26
 0
VERTEX
 8
MESH_158_F0
 10
0
 20
0
 30
0
 70
128
 71
25
 72
24
 73
23
 74
23
 0
VERTEX
 8
MESH_158_F0
 10
0
 20
0
 30
0
 70
128
 71
22
 72
28
 73
27
 74
27
 0
VERTEX
 8
MESH_158_F0
 10
0
 20
0
 30
0
 70
128
 71
21
 72
29
 73
28
 74
28
 0
VERTEX
 8
MESH_158_F0
 10
0
 20
0
 30
0
 70
128
 71
20
 72
30
 73
29
 74
29
 0
VERTEX
 8
MESH_158_F0
 10
0
 20
0
 30
0
 70
128
 71
19
 72
31
 73
30
 74
30
 0
VERTEX
 8
MESH_158_F0
 10
0
 20
0
 30
0
 70
128
 71
18
 72
32
 73
31
 74
31
 0
VERTEX
 8
MESH_158_F0
 10
0
 20
0
 30
0
 70
128
 71
17
 72
33
 73
32
 74
32
 0
VERTEX
 8
MESH_158_F0
 10
0
 20
0
 30
0
 70
128
 71
16
 72
34
 73
33
 74
33
 0
VERTEX
 8
MESH_158_F0
 10
0
 20
0
 30
0
 70
128
 71
15
 72
35
 73
34
 74
34
 0
VERTEX
 8
MESH_158_F0
 10
0
 20
0
 30
0
 70
128
 71
14
 72
36
 73
35
 74
35
 0
VERTEX
 8
MESH_158_F0
 10
0
 20
0
 30
0
 70
128
 71
13
 72
37
 73
36
 74
36
 0
VERTEX
 8
MESH_158_F0
 10
0
 20
0
 30
0
 70
128
 71
12
 72
38
 73
37
 74
37
 0
VERTEX
 8
MESH_158_F0
 10
0
 20
0
 30
0
 70
128
 71
11
 72
39
 73
38
 74
38
 0
VERTEX
 8
MESH_158_F0
 10
0
 20
0
 30
0
 70
128
 71
10
 72
40
 73
39
 74
39
 0
VERTEX
 8
MESH_158_F0
 10
0
 20
0
 30
0
 70
128
 71
9
 72
41
 73
40
 74
40
 0
VERTEX
 8
MESH_158_F0
 10
0
 20
0
 30
0
 70
128
 71
8
 72
42
 73
41
 74
41
 0
VERTEX
 8
MESH_158_F0
 10
0
 20
0
 30
0
 70
128
 71
7
 72
43
 73
42
 74
42
 0
VERTEX
 8
MESH_158_F0
 10
0
 20
0
 30
0
 70
128
 71
6
 72
44
 73
43
 74
43
 0
VERTEX
 8
MESH_158_F0
 10
0
 20
0
 30
0
 70
128
 71
5
 72
45
 73
44
 74
44
 0
VERTEX
 8
MESH_158_F0
 10
0
 20
0
 30
0
 70
128
 71
4
 72
46
 73
45
 74
45
 0
SEQEND
 0
POLYLINE
 8
MESH_157_F0
 66
1
 10
0.0
 20
0.0
 30
0.0
 70
64
 71
4
 72
2
 0
VERTEX
 8
MESH_157_F0
 10
-25
 20
0
 30
700
 70
192
 0
VERTEX
 8
MESH_157_F0
 10
-25
 20
-20
 30
700
 70
192
 0
VERTEX
 8
MESH_157_F0
 10
25
 20
-20
 30
700
 70
192
 0
VERTEX
 8
MESH_157_F0
 10
25
 20
0
 30
700
 70
192
 0
VERTEX
 8
MESH_157_F0
 10
0
 20
0
 30
0
 70
128
 71
4
 72
2
 73
1
 74
1
 0
VERTEX
 8
MESH_157_F0
 10
0
 20
0
 30
0
 70
128
 71
3
 72
2
 73
4
 74
4
 0
SEQEND
 0
POLYLINE
 8
MESH_156_F0
 66
1
 10
0.0
 20
0.0
 30
0.0
 70
64
 71
46
 72
44
 0
VERTEX
 8
MESH_156_F0
 10
25
 20
0
 30
700
 70
192
 0
VERTEX
 8
MESH_156_F0
 10
25
 20
-20
 30
700
 70
192
 0
VERTEX
 8
MESH_156_F0
 10
39.3154
 20
-20
 30
699.4857
 70
192
 0
VERTEX
 8
MESH_156_F0
 10
53.4966
 20
-20
 30
697.9594
 70
192
 0
VERTEX
 8
MESH_156_F0
 10
67.5446
 20
-20
 30
695.4213
 70
192
 0
VERTEX
 8
MESH_156_F0
 10
81.392
 20
-20
 30
691.8852
 70
192
 0
VERTEX
 8
MESH_156_F0
 10
94.9381
 20
-20
 30
687.3734
 70
192
 0
VERTEX
 8
MESH_156_F0
 10
108.1237
 20
-20
 30
681.9077
 70
192
 0
VERTEX
 8
MESH_156_F0
 10
120.8823
 20
-20
 30
675.5175
 70
192
 0
VERTEX
 8
MESH_156_F0
 10
133.1541
 20
-20
 30
668.2339
 70
192
 0
VERTEX
 8
MESH_156_F0
 10
144.8721
 20
-20
 30
660.0956
 70
192
 0
VERTEX
 8
MESH_156_F0
 10
155.9801
 20
-20
 30
651.1428
 70
192
 0
VERTEX
 8
MESH_156_F0
 10
166.4206
 20
-20
 30
641.4216
 70
192
 0
VERTEX
 8
MESH_156_F0
 10
176.142
 20
-20
 30
630.9811
 70
192
 0
VERTEX
 8
MESH_156_F0
 10
185.0948
 20
-20
 30
619.8731
 70
192
 0
VERTEX
 8
MESH_156_F0
 10
193.2333
 20
-20
 30
608.1551
 70
192
 0
VERTEX
 8
MESH_156_F0
 10
200.5169
 20
-20
 30
595.8832
 70
192
 0
VERTEX
 8
MESH_156_F0
 10
206.9073
 20
-20
 30
583.1246
 70
192
 0
VERTEX
 8
MESH_156_F0
 10
212.373
 20
-20
 30
569.939
 70
192
 0
VERTEX
 8
MESH_156_F0
 10
216.885
 20
-20
 30
556.3927
 70
192
 0
VERTEX
 8
MESH_156_F0
 10
220.4212
 20
-20
 30
542.5452
 70
192
 0
VERTEX
 8
MESH_156_F0
 10
222.9594
 20
-20
 30
528.4971
 70
192
 0
VERTEX
 8
MESH_156_F0
 10
224.4857
 20
-20
 30
514.3157
 70
192
 0
VERTEX
 8
MESH_156_F0
 10
225
 20
-20
 30
500
 70
192
 0
VERTEX
 8
MESH_156_F0
 10
225
 20
0
 30
500
 70
192
 0
VERTEX
 8
MESH_156_F0
 10
224.4857
 20
0
 30
514.3154
 70
192
 0
VERTEX
 8
MESH_156_F0
 10
222.9594
 20
0
 30
528.4966
 70
192
 0
VERTEX
 8
MESH_156_F0
 10
220.4214
 20
0
 30
542.5446
 70
192
 0
VERTEX
 8
MESH_156_F0
 10
216.8852
 20
0
 30
556.392
 70
192
 0
VERTEX
 8
MESH_156_F0
 10
212.3734
 20
0
 30
569.9381
 70
192
 0
VERTEX
 8
MESH_156_F0
 10
206.9077
 20
0
 30
583.1237
 70
192
 0
VERTEX
 8
MESH_156_F0
 10
200.5175
 20
0
 30
595.8823
 70
192
 0
VERTEX
 8
MESH_156_F0
 10
193.2339
 20
0
 30
608.1541
 70
192
 0
VERTEX
 8
MESH_156_F0
 10
185.0955
 20
0
 30
619.8721
 70
192
 0
VERTEX
 8
MESH_156_F0
 10
176.1429
 20
0
 30
630.9801
 70
192
 0
VERTEX
 8
MESH_156_F0
 10
166.4216
 20
0
 30
641.4207
 70
192
 0
VERTEX
 8
MESH_156_F0
 10
155.9811
 20
0
 30
651.142
 70
192
 0
VERTEX
 8
MESH_156_F0
 10
144.8731
 20
0
 30
660.0948
 70
192
 0
VERTEX
 8
MESH_156_F0
 10
133.1552
 20
0
 30
668.2332
 70
192
 0
VERTEX
 8
MESH_156_F0
 10
120.8833
 20
0
 30
675.5169
 70
192
 0
VERTEX
 8
MESH_156_F0
 10
108.1246
 20
0
 30
681.9073
 70
192
 0
VERTEX
 8
MESH_156_F0
 10
94.939
 20
0
 30
687.373
 70
192
 0
VERTEX
 8
MESH_156_F0
 10
81.3927
 20
0
 30
691.885
 70
192
 0
VERTEX
 8
MESH_156_F0
 10
67.5452
 20
0
 30
695.4212
 70
192
 0
VERTEX
 8
MESH_156_F0
 10
53.497
 20
0
 30
697.9594
 70
192
 0
VERTEX
 8
MESH_156_F0
 10
39.3157
 20
0
 30
699.4857
 70
192
 0
VERTEX
 8
MESH_156_F0
 10
0
 20
0
 30
0
 70
128
 71
1
 72
3
 73
2
 74
2
 0
VERTEX
 8
MESH_156_F0
 10
0
 20
0
 30
0
 70
128
 71
46
 72
3
 73
1
 74
1
 0
VERTEX
 8
MESH_156_F0
 10
0
 20
0
 30
0
 70
128
 71
4
 72
3
 73
46
 74
46
 0
VERTEX
 8
MESH_156_F0
 10
0
 20
0
 30
0
 70
128
 71
5
 72
4
 73
45
 74
45
 0
VERTEX
 8
MESH_156_F0
 10
0
 20
0
 30
0
 70
128
 71
6
 72
5
 73
44
 74
44
 0
VERTEX
 8
MESH_156_F0
 10
0
 20
0
 30
0
 70
128
 71
7
 72
6
 73
43
 74
43
 0
VERTEX
 8
MESH_156_F0
 10
0
 20
0
 30
0
 70
128
 71
8
 72
7
 73
42
 74
42
 0
VERTEX
 8
MESH_156_F0
 10
0
 20
0
 30
0
 70
128
 71
9
 72
8
 73
41
 74
41
 0
VERTEX
 8
MESH_156_F0
 10
0
 20
0
 30
0
 70
128
 71
10
 72
9
 73
40
 74
40
 0
VERTEX
 8
MESH_156_F0
 10
0
 20
0
 30
0
 70
128
 71
11
 72
10
 73
39
 74
39
 0
VERTEX
 8
MESH_156_F0
 10
0
 20
0
 30
0
 70
128
 71
12
 72
11
 73
38
 74
38
 0
VERTEX
 8
MESH_156_F0
 10
0
 20
0
 30
0
 70
128
 71
13
 72
12
 73
37
 74
37
 0
VERTEX
 8
MESH_156_F0
 10
0
 20
0
 30
0
 70
128
 71
14
 72
13
 73
36
 74
36
 0
VERTEX
 8
MESH_156_F0
 10
0
 20
0
 30
0
 70
128
 71
15
 72
14
 73
35
 74
35
 0
VERTEX
 8
MESH_156_F0
 10
0
 20
0
 30
0
 70
128
 71
16
 72
15
 73
34
 74
34
 0
VERTEX
 8
MESH_156_F0
 10
0
 20
0
 30
0
 70
128
 71
17
 72
16
 73
33
 74
33
 0
VERTEX
 8
MESH_156_F0
 10
0
 20
0
 30
0
 70
128
 71
18
 72
17
 73
32
 74
32
 0
VERTEX
 8
MESH_156_F0
 10
0
 20
0
 30
0
 70
128
 71
19
 72
18
 73
31
 74
31
 0
VERTEX
 8
MESH_156_F0
 10
0
 20
0
 30
0
 70
128
 71
20
 72
19
 73
30
 74
30
 0
VERTEX
 8
MESH_156_F0
 10
0
 20
0
 30
0
 70
128
 71
21
 72
20
 73
29
 74
29
 0
VERTEX
 8
MESH_156_F0
 10
0
 20
0
 30
0
 70
128
 71
22
 72
21
 73
28
 74
28
 0
VERTEX
 8
MESH_156_F0
 10
0
 20
0
 30
0
 70
128
 71
23
 72
22
 73
27
 74
27
 0
VERTEX
 8
MESH_156_F0
 10
0
 20
0
 30
0
 70
128
 71
25
 72
23
 73
26
 74
26
 0
VERTEX
 8
MESH_156_F0
 10
0
 20
0
 30
0
 70
128
 71
23
 72
27
 73
26
 74
26
 0
VERTEX
 8
MESH_156_F0
 10
0
 20
0
 30
0
 70
128
 71
25
 72
24
 73
23
 74
23
 0
VERTEX
 8
MESH_156_F0
 10
0
 20
0
 30
0
 70
128
 71
22
 72
28
 73
27
 74
27
 0
VERTEX
 8
MESH_156_F0
 10
0
 20
0
 30
0
 70
128
 71
21
 72
29
 73
28
 74
28
 0
VERTEX
 8
MESH_156_F0
 10
0
 20
0
 30
0
 70
128
 71
20
 72
30
 73
29
 74
29
 0
VERTEX
 8
MESH_156_F0
 10
0
 20
0
 30
0
 70
128
 71
19
 72
31
 73
30
 74
30
 0
VERTEX
 8
MESH_156_F0
 10
0
 20
0
 30
0
 70
128
 71
18
 72
32
 73
31
 74
31
 0
VERTEX
 8
MESH_156_F0
 10
0
 20
0
 30
0
 70
128
 71
17
 72
33
 73
32
 74
32
 0
VERTEX
 8
MESH_156_F0
 10
0
 20
0
 30
0
 70
128
 71
16
 72
34
 73
33
 74
33
 0
VERTEX
 8
MESH_156_F0
 10
0
 20
0
 30
0
 70
128
 71
15
 72
35
 73
34
 74
34
 0
VERTEX
 8
MESH_156_F0
 10
0
 20
0
 30
0
 70
128
 71
14
 72
36
 73
35
 74
35
 0
VERTEX
 8
MESH_156_F0
 10
0
 20
0
 30
0
 70
128
 71
13
 72
37
 73
36
 74
36
 0
VERTEX
 8
MESH_156_F0
 10
0
 20
0
 30
0
 70
128
 71
12
 72
38
 73
37
 74
37
 0
VERTEX
 8
MESH_156_F0
 10
0
 20
0
 30
0
 70
128
 71
11
 72
39
 73
38
 74
38
 0
VERTEX
 8
MESH_156_F0
 10
0
 20
0
 30
0
 70
128
 71
10
 72
40
 73
39
 74
39
 0
VERTEX
 8
MESH_156_F0
 10
0
 20
0
 30
0
 70
128
 71
9
 72
41
 73
40
 74
40
 0
VERTEX
 8
MESH_156_F0
 10
0
 20
0
 30
0
 70
128
 71
8
 72
42
 73
41
 74
41
 0
VERTEX
 8
MESH_156_F0
 10
0
 20
0
 30
0
 70
128
 71
7
 72
43
 73
42
 74
42
 0
VERTEX
 8
MESH_156_F0
 10
0
 20
0
 30
0
 70
128
 71
6
 72
44
 73
43
 74
43
 0
VERTEX
 8
MESH_156_F0
 10
0
 20
0
 30
0
 70
128
 71
5
 72
45
 73
44
 74
44
 0
VERTEX
 8
MESH_156_F0
 10
0
 20
0
 30
0
 70
128
 71
4
 72
46
 73
45
 74
45
 0
SEQEND
 0
POLYLINE
 8
MESH_155_F0
 66
1
 10
0.0
 20
0.0
 30
0.0
 70
64
 71
4
 72
2
 0
VERTEX
 8
MESH_155_F0
 10
225
 20
0
 30
500
 70
192
 0
VERTEX
 8
MESH_155_F0
 10
225
 20
-20
 30
500
 70
192
 0
VERTEX
 8
MESH_155_F0
 10
225
 20
-20
 30
200
 70
192
 0
VERTEX
 8
MESH_155_F0
 10
225
 20
0
 30
200
 70
192
 0
VERTEX
 8
MESH_155_F0
 10
0
 20
0
 30
0
 70
128
 71
4
 72
2
 73
1
 74
1
 0
VERTEX
 8
MESH_155_F0
 10
0
 20
0
 30
0
 70
128
 71
3
 72
2
 73
4
 74
4
 0
SEQEND
 0
POLYLINE
 8
MESH_154_F0
 66
1
 10
0.0
 20
0.0
 30
0.0
 70
64
 71
46
 72
44
 0
VERTEX
 8
MESH_154_F0
 10
225
 20
0
 30
200
 70
192
 0
VERTEX
 8
MESH_154_F0
 10
225
 20
-20
 30
200
 70
192
 0
VERTEX
 8
MESH_154_F0
 10
224.4857
 20
-20
 30
185.6846
 70
192
 0
VERTEX
 8
MESH_154_F0
 10
222.9594
 20
-20
 30
171.5034
 70
192
 0
VERTEX
 8
MESH_154_F0
 10
220.4214
 20
-20
 30
157.4554
 70
192
 0
VERTEX
 8
MESH_154_F0
 10
216.8852
 20
-20
 30
143.608
 70
192
 0
VERTEX
 8
MESH_154_F0
 10
212.3734
 20
-20
 30
130.0619
 70
192
 0
VERTEX
 8
MESH_154_F0
 10
206.9077
 20
-20
 30
116.8763
 70
192
 0
VERTEX
 8
MESH_154_F0
 10
200.5175
 20
-20
 30
104.1177
 70
192
 0
VERTEX
 8
MESH_154_F0
 10
193.2339
 20
-20
 30
91.8459
 70
192
 0
VERTEX
 8
MESH_154_F0
 10
185.0955
 20
-20
 30
80.1279
 70
192
 0
VERTEX
 8
MESH_154_F0
 10
176.1429
 20
-20
 30
69.0199
 70
192
 0
VERTEX
 8
MESH_154_F0
 10
166.4216
 20
-20
 30
58.5794
 70
192
 0
VERTEX
 8
MESH_154_F0
 10
155.9811
 20
-20
 30
48.858
 70
192
 0
VERTEX
 8
MESH_154_F0
 10
144.8731
 20
-20
 30
39.9052
 70
192
 0
VERTEX
 8
MESH_154_F0
 10
133.1552
 20
-20
 30
31.7667
 70
192
 0
VERTEX
 8
MESH_154_F0
 10
120.8833
 20
-20
 30
24.4831
 70
192
 0
VERTEX
 8
MESH_154_F0
 10
108.1246
 20
-20
 30
18.0927
 70
192
 0
VERTEX
 8
MESH_154_F0
 10
94.939
 20
-20
 30
12.627
 70
192
 0
VERTEX
 8
MESH_154_F0
 10
81.3927
 20
-20
 30
8.115
 70
192
 0
VERTEX
 8
MESH_154_F0
 10
67.5452
 20
-20
 30
4.5788
 70
192
 0
VERTEX
 8
MESH_154_F0
 10
53.497
 20
-20
 30
2.0406
 70
192
 0
VERTEX
 8
MESH_154_F0
 10
39.3157
 20
-20
 30
0.5143
 70
192
 0
VERTEX
 8
MESH_154_F0
 10
25
 20
-20
 30
0
 70
192
 0
VERTEX
 8
MESH_154_F0
 10
25
 20
0
 30
0
 70
192
 0
VERTEX
 8
MESH_154_F0
 10
39.3154
 20
0
 30
0.5143
 70
192
 0
VERTEX
 8
MESH_154_F0
 10
53.4966
 20
0
 30
2.0406
 70
192
 0
VERTEX
 8
MESH_154_F0
 10
67.5446
 20
0
 30
4.5786
 70
192
 0
VERTEX
 8
MESH_154_F0
 10
81.392
 20
0
 30
8.1148
 70
192
 0
VERTEX
 8
MESH_154_F0
 10
94.9381
 20
0
 30
12.6267
 70
192
 0
VERTEX
 8
MESH_154_F0
 10
108.1237
 20
0
 30
18.0923
 70
192
 0
VERTEX
 8
MESH_154_F0
 10
120.8823
 20
0
 30
24.4825
 70
192
 0
VERTEX
 8
MESH_154_F0
 10
133.1541
 20
0
 30
31.7661
 70
192
 0
VERTEX
 8
MESH_154_F0
 10
144.8721
 20
0
 30
39.9045
 70
192
 0
VERTEX
 8
MESH_154_F0
 10
155.9801
 20
0
 30
48.8571
 70
192
 0
VERTEX
 8
MESH_154_F0
 10
166.4206
 20
0
 30
58.5784
 70
192
 0
VERTEX
 8
MESH_154_F0
 10
176.142
 20
0
 30
69.0189
 70
192
 0
VERTEX
 8
MESH_154_F0
 10
185.0948
 20
0
 30
80.1269
 70
192
 0
VERTEX
 8
MESH_154_F0
 10
193.2333
 20
0
 30
91.8449
 70
192
 0
VERTEX
 8
MESH_154_F0
 10
200.5169
 20
0
 30
104.1167
 70
192
 0
VERTEX
 8
MESH_154_F0
 10
206.9073
 20
0
 30
116.8754
 70
192
 0
VERTEX
 8
MESH_154_F0
 10
212.373
 20
0
 30
130.061
 70
192
 0
VERTEX
 8
MESH_154_F0
 10
216.885
 20
0
 30
143.6073
 70
192
 0
VERTEX
 8
MESH_154_F0
 10
220.4212
 20
0
 30
157.4548
 70
192
 0
VERTEX
 8
MESH_154_F0
 10
222.9594
 20
0
 30
171.5029
 70
192
 0
VERTEX
 8
MESH_154_F0
 10
224.4857
 20
0
 30
185.6843
 70
192
 0
VERTEX
 8
MESH_154_F0
 10
0
 20
0
 30
0
 70
128
 71
1
 72
3
 73
2
 74
2
 0
VERTEX
 8
MESH_154_F0
 10
0
 20
0
 30
0
 70
128
 71
46
 72
3
 73
1
 74
1
 0
VERTEX
 8
MESH_154_F0
 10
0
 20
0
 30
0
 70
128
 71
4
 72
3
 73
46
 74
46
 0
VERTEX
 8
MESH_154_F0
 10
0
 20
0
 30
0
 70
128
 71
5
 72
4
 73
45
 74
45
 0
VERTEX
 8
MESH_154_F0
 10
0
 20
0
 30
0
 70
128
 71
6
 72
5
 73
44
 74
44
 0
VERTEX
 8
MESH_154_F0
 10
0
 20
0
 30
0
 70
128
 71
7
 72
6
 73
43
 74
43
 0
VERTEX
 8
MESH_154_F0
 10
0
 20
0
 30
0
 70
128
 71
8
 72
7
 73
42
 74
42
 0
VERTEX
 8
MESH_154_F0
 10
0
 20
0
 30
0
 70
128
 71
9
 72
8
 73
41
 74
41
 0
VERTEX
 8
MESH_154_F0
 10
0
 20
0
 30
0
 70
128
 71
10
 72
9
 73
40
 74
40
 0
VERTEX
 8
MESH_154_F0
 10
0
 20
0
 30
0
 70
128
 71
11
 72
10
 73
39
 74
39
 0
VERTEX
 8
MESH_154_F0
 10
0
 20
0
 30
0
 70
128
 71
12
 72
11
 73
38
 74
38
 0
VERTEX
 8
MESH_154_F0
 10
0
 20
0
 30
0
 70
128
 71
13
 72
12
 73
37
 74
37
 0
VERTEX
 8
MESH_154_F0
 10
0
 20
0
 30
0
 70
128
 71
14
 72
13
 73
36
 74
36
 0
VERTEX
 8
MESH_154_F0
 10
0
 20
0
 30
0
 70
128
 71
15
 72
14
 73
35
 74
35
 0
VERTEX
 8
MESH_154_F0
 10
0
 20
0
 30
0
 70
128
 71
16
 72
15
 73
34
 74
34
 0
VERTEX
 8
MESH_154_F0
 10
0
 20
0
 30
0
 70
128
 71
17
 72
16
 73
33
 74
33
 0
VERTEX
 8
MESH_154_F0
 10
0
 20
0
 30
0
 70
128
 71
18
 72
17
 73
32
 74
32
 0
VERTEX
 8
MESH_154_F0
 10
0
 20
0
 30
0
 70
128
 71
19
 72
18
 73
31
 74
31
 0
VERTEX
 8
MESH_154_F0
 10
0
 20
0
 30
0
 70
128
 71
20
 72
19
 73
30
 74
30
 0
VERTEX
 8
MESH_154_F0
 10
0
 20
0
 30
0
 70
128
 71
21
 72
20
 73
29
 74
29
 0
VERTEX
 8
MESH_154_F0
 10
0
 20
0
 30
0
 70
128
 71
22
 72
21
 73
28
 74
28
 0
VERTEX
 8
MESH_154_F0
 10
0
 20
0
 30
0
 70
128
 71
23
 72
22
 73
27
 74
27
 0
VERTEX
 8
MESH_154_F0
 10
0
 20
0
 30
0
 70
128
 71
25
 72
23
 73
26
 74
26
 0
VERTEX
 8
MESH_154_F0
 10
0
 20
0
 30
0
 70
128
 71
23
 72
27
 73
26
 74
26
 0
VERTEX
 8
MESH_154_F0
 10
0
 20
0
 30
0
 70
128
 71
25
 72
24
 73
23
 74
23
 0
VERTEX
 8
MESH_154_F0
 10
0
 20
0
 30
0
 70
128
 71
22
 72
28
 73
27
 74
27
 0
VERTEX
 8
MESH_154_F0
 10
0
 20
0
 30
0
 70
128
 71
21
 72
29
 73
28
 74
28
 0
VERTEX
 8
MESH_154_F0
 10
0
 20
0
 30
0
 70
128
 71
20
 72
30
 73
29
 74
29
 0
VERTEX
 8
MESH_154_F0
 10
0
 20
0
 30
0
 70
128
 71
19
 72
31
 73
30
 74
30
 0
VERTEX
 8
MESH_154_F0
 10
0
 20
0
 30
0
 70
128
 71
18
 72
32
 73
31
 74
31
 0
VERTEX
 8
MESH_154_F0
 10
0
 20
0
 30
0
 70
128
 71
17
 72
33
 73
32
 74
32
 0
VERTEX
 8
MESH_154_F0
 10
0
 20
0
 30
0
 70
128
 71
16
 72
34
 73
33
 74
33
 0
VERTEX
 8
MESH_154_F0
 10
0
 20
0
 30
0
 70
128
 71
15
 72
35
 73
34
 74
34
 0
VERTEX
 8
MESH_154_F0
 10
0
 20
0
 30
0
 70
128
 71
14
 72
36
 73
35
 74
35
 0
VERTEX
 8
MESH_154_F0
 10
0
 20
0
 30
0
 70
128
 71
13
 72
37
 73
36
 74
36
 0
VERTEX
 8
MESH_154_F0
 10
0
 20
0
 30
0
 70
128
 71
12
 72
38
 73
37
 74
37
 0
VERTEX
 8
MESH_154_F0
 10
0
 20
0
 30
0
 70
128
 71
11
 72
39
 73
38
 74
38
 0
VERTEX
 8
MESH_154_F0
 10
0
 20
0
 30
0
 70
128
 71
10
 72
40
 73
39
 74
39
 0
VERTEX
 8
MESH_154_F0
 10
0
 20
0
 30
0
 70
128
 71
9
 72
41
 73
40
 74
40
 0
VERTEX
 8
MESH_154_F0
 10
0
 20
0
 30
0
 70
128
 71
8
 72
42
 73
41
 74
41
 0
VERTEX
 8
MESH_154_F0
 10
0
 20
0
 30
0
 70
128
 71
7
 72
43
 73
42
 74
42
 0
VERTEX
 8
MESH_154_F0
 10
0
 20
0
 30
0
 70
128
 71
6
 72
44
 73
43
 74
43
 0
VERTEX
 8
MESH_154_F0
 10
0
 20
0
 30
0
 70
128
 71
5
 72
45
 73
44
 74
44
 0
VERTEX
 8
MESH_154_F0
 10
0
 20
0
 30
0
 70
128
 71
4
 72
46
 73
45
 74
45
 0
SEQEND
 0
POLYLINE
 8
MESH_153_F0
 66
1
 10
0.0
 20
0.0
 30
0.0
 70
64
 71
4
 72
2
 0
VERTEX
 8
MESH_153_F0
 10
25
 20
0
 30
0
 70
192
 0
VERTEX
 8
MESH_153_F0
 10
25
 20
-20
 30
0
 70
192
 0
VERTEX
 8
MESH_153_F0
 10
-25
 20
-20
 30
0
 70
192
 0
VERTEX
 8
MESH_153_F0
 10
-25
 20
0
 30
0
 70
192
 0
VERTEX
 8
MESH_153_F0
 10
0
 20
0
 30
0
 70
128
 71
4
 72
2
 73
1
 74
1
 0
VERTEX
 8
MESH_153_F0
 10
0
 20
0
 30
0
 70
128
 71
3
 72
2
 73
4
 74
4
 0
SEQEND
 0
POLYLINE
 8
MESH_152_F0
 66
1
 10
0.0
 20
0.0
 30
0.0
 70
64
 71
46
 72
44
 0
VERTEX
 8
MESH_152_F0
 10
-25
 20
0
 30
0
 70
192
 0
VERTEX
 8
MESH_152_F0
 10
-25
 20
-20
 30
0
 70
192
 0
VERTEX
 8
MESH_152_F0
 10
-39.3154
 20
-20
 30
0.5143
 70
192
 0
VERTEX
 8
MESH_152_F0
 10
-53.4966
 20
-20
 30
2.0406
 70
192
 0
VERTEX
 8
MESH_152_F0
 10
-67.5446
 20
-20
 30
4.5786
 70
192
 0
VERTEX
 8
MESH_152_F0
 10
-81.392
 20
-20
 30
8.1148
 70
192
 0
VERTEX
 8
MESH_152_F0
 10
-94.9381
 20
-20
 30
12.6267
 70
192
 0
VERTEX
 8
MESH_152_F0
 10
-108.1237
 20
-20
 30
18.0923
 70
192
 0
VERTEX
 8
MESH_152_F0
 10
-120.8823
 20
-20
 30
24.4825
 70
192
 0
VERTEX
 8
MESH_152_F0
 10
-133.1541
 20
-20
 30
31.7661
 70
192
 0
VERTEX
 8
MESH_152_F0
 10
-144.8721
 20
-20
 30
39.9045
 70
192
 0
VERTEX
 8
MESH_152_F0
 10
-155.9801
 20
-20
 30
48.8571
 70
192
 0
VERTEX
 8
MESH_152_F0
 10
-166.4206
 20
-20
 30
58.5784
 70
192
 0
VERTEX
 8
MESH_152_F0
 10
-176.142
 20
-20
 30
69.0189
 70
192
 0
VERTEX
 8
MESH_152_F0
 10
-185.0948
 20
-20
 30
80.1269
 70
192
 0
VERTEX
 8
MESH_152_F0
 10
-193.2333
 20
-20
 30
91.8449
 70
192
 0
VERTEX
 8
MESH_152_F0
 10
-200.5169
 20
-20
 30
104.1167
 70
192
 0
VERTEX
 8
MESH_152_F0
 10
-206.9073
 20
-20
 30
116.8754
 70
192
 0
VERTEX
 8
MESH_152_F0
 10
-212.373
 20
-20
 30
130.061
 70
192
 0
VERTEX
 8
MESH_152_F0
 10
-216.885
 20
-20
 30
143.6073
 70
192
 0
VERTEX
 8
MESH_152_F0
 10
-220.4212
 20
-20
 30
157.4548
 70
192
 0
VERTEX
 8
MESH_152_F0
 10
-222.9594
 20
-20
 30
171.5029
 70
192
 0
VERTEX
 8
MESH_152_F0
 10
-224.4857
 20
-20
 30
185.6843
 70
192
 0
VERTEX
 8
MESH_152_F0
 10
-225
 20
-20
 30
200
 70
192
 0
VERTEX
 8
MESH_152_F0
 10
-225
 20
0
 30
200
 70
192
 0
VERTEX
 8
MESH_152_F0
 10
-224.4857
 20
0
 30
185.6846
 70
192
 0
VERTEX
 8
MESH_152_F0
 10
-222.9594
 20
0
 30
171.5034
 70
192
 0
VERTEX
 8
MESH_152_F0
 10
-220.4214
 20
0
 30
157.4554
 70
192
 0
VERTEX
 8
MESH_152_F0
 10
-216.8852
 20
0
 30
143.608
 70
192
 0
VERTEX
 8
MESH_152_F0
 10
-212.3734
 20
0
 30
130.0619
 70
192
 0
VERTEX
 8
MESH_152_F0
 10
-206.9077
 20
0
 30
116.8763
 70
192
 0
VERTEX
 8
MESH_152_F0
 10
-200.5175
 20
0
 30
104.1177
 70
192
 0
VERTEX
 8
MESH_152_F0
 10
-193.2339
 20
0
 30
91.8459
 70
192
 0
VERTEX
 8
MESH_152_F0
 10
-185.0955
 20
0
 30
80.1279
 70
192
 0
VERTEX
 8
MESH_152_F0
 10
-176.1429
 20
0
 30
69.0199
 70
192
 0
VERTEX
 8
MESH_152_F0
 10
-166.4216
 20
0
 30
58.5794
 70
192
 0
VERTEX
 8
MESH_152_F0
 10
-155.9811
 20
0
 30
48.858
 70
192
 0
VERTEX
 8
MESH_152_F0
 10
-144.8731
 20
0
 30
39.9052
 70
192
 0
VERTEX
 8
MESH_152_F0
 10
-133.1552
 20
0
 30
31.7667
 70
192
 0
VERTEX
 8
MESH_152_F0
 10
-120.8833
 20
0
 30
24.4831
 70
192
 0
VERTEX
 8
MESH_152_F0
 10
-108.1246
 20
0
 30
18.0927
 70
192
 0
VERTEX
 8
MESH_152_F0
 10
-94.939
 20
0
 30
12.627
 70
192
 0
VERTEX
 8
MESH_152_F0
 10
-81.3927
 20
0
 30
8.115
 70
192
 0
VERTEX
 8
MESH_152_F0
 10
-67.5452
 20
0
 30
4.5788
 70
192
 0
VERTEX
 8
MESH_152_F0
 10
-53.497
 20
0
 30
2.0406
 70
192
 0
VERTEX
 8
MESH_152_F0
 10
-39.3157
 20
0
 30
0.5143
 70
192
 0
VERTEX
 8
MESH_152_F0
 10
0
 20
0
 30
0
 70
128
 71
1
 72
3
 73
2
 74
2
 0
VERTEX
 8
MESH_152_F0
 10
0
 20
0
 30
0
 70
128
 71
46
 72
3
 73
1
 74
1
 0
VERTEX
 8
MESH_152_F0
 10
0
 20
0
 30
0
 70
128
 71
4
 72
3
 73
46
 74
46
 0
VERTEX
 8
MESH_152_F0
 10
0
 20
0
 30
0
 70
128
 71
5
 72
4
 73
45
 74
45
 0
VERTEX
 8
MESH_152_F0
 10
0
 20
0
 30
0
 70
128
 71
6
 72
5
 73
44
 74
44
 0
VERTEX
 8
MESH_152_F0
 10
0
 20
0
 30
0
 70
128
 71
7
 72
6
 73
43
 74
43
 0
VERTEX
 8
MESH_152_F0
 10
0
 20
0
 30
0
 70
128
 71
8
 72
7
 73
42
 74
42
 0
VERTEX
 8
MESH_152_F0
 10
0
 20
0
 30
0
 70
128
 71
9
 72
8
 73
41
 74
41
 0
VERTEX
 8
MESH_152_F0
 10
0
 20
0
 30
0
 70
128
 71
10
 72
9
 73
40
 74
40
 0
VERTEX
 8
MESH_152_F0
 10
0
 20
0
 30
0
 70
128
 71
11
 72
10
 73
39
 74
39
 0
VERTEX
 8
MESH_152_F0
 10
0
 20
0
 30
0
 70
128
 71
12
 72
11
 73
38
 74
38
 0
VERTEX
 8
MESH_152_F0
 10
0
 20
0
 30
0
 70
128
 71
13
 72
12
 73
37
 74
37
 0
VERTEX
 8
MESH_152_F0
 10
0
 20
0
 30
0
 70
128
 71
14
 72
13
 73
36
 74
36
 0
VERTEX
 8
MESH_152_F0
 10
0
 20
0
 30
0
 70
128
 71
15
 72
14
 73
35
 74
35
 0
VERTEX
 8
MESH_152_F0
 10
0
 20
0
 30
0
 70
128
 71
16
 72
15
 73
34
 74
34
 0
VERTEX
 8
MESH_152_F0
 10
0
 20
0
 30
0
 70
128
 71
17
 72
16
 73
33
 74
33
 0
VERTEX
 8
MESH_152_F0
 10
0
 20
0
 30
0
 70
128
 71
18
 72
17
 73
32
 74
32
 0
VERTEX
 8
MESH_152_F0
 10
0
 20
0
 30
0
 70
128
 71
19
 72
18
 73
31
 74
31
 0
VERTEX
 8
MESH_152_F0
 10
0
 20
0
 30
0
 70
128
 71
20
 72
19
 73
30
 74
30
 0
VERTEX
 8
MESH_152_F0
 10
0
 20
0
 30
0
 70
128
 71
21
 72
20
 73
29
 74
29
 0
VERTEX
 8
MESH_152_F0
 10
0
 20
0
 30
0
 70
128
 71
22
 72
21
 73
28
 74
28
 0
VERTEX
 8
MESH_152_F0
 10
0
 20
0
 30
0
 70
128
 71
23
 72
22
 73
27
 74
27
 0
VERTEX
 8
MESH_152_F0
 10
0
 20
0
 30
0
 70
128
 71
25
 72
23
 73
26
 74
26
 0
VERTEX
 8
MESH_152_F0
 10
0
 20
0
 30
0
 70
128
 71
23
 72
27
 73
26
 74
26
 0
VERTEX
 8
MESH_152_F0
 10
0
 20
0
 30
0
 70
128
 71
25
 72
24
 73
23
 74
23
 0
VERTEX
 8
MESH_152_F0
 10
0
 20
0
 30
0
 70
128
 71
22
 72
28
 73
27
 74
27
 0
VERTEX
 8
MESH_152_F0
 10
0
 20
0
 30
0
 70
128
 71
21
 72
29
 73
28
 74
28
 0
VERTEX
 8
MESH_152_F0
 10
0
 20
0
 30
0
 70
128
 71
20
 72
30
 73
29
 74
29
 0
VERTEX
 8
MESH_152_F0
 10
0
 20
0
 30
0
 70
128
 71
19
 72
31
 73
30
 74
30
 0
VERTEX
 8
MESH_152_F0
 10
0
 20
0
 30
0
 70
128
 71
18
 72
32
 73
31
 74
31
 0
VERTEX
 8
MESH_152_F0
 10
0
 20
0
 30
0
 70
128
 71
17
 72
33
 73
32
 74
32
 0
VERTEX
 8
MESH_152_F0
 10
0
 20
0
 30
0
 70
128
 71
16
 72
34
 73
33
 74
33
 0
VERTEX
 8
MESH_152_F0
 10
0
 20
0
 30
0
 70
128
 71
15
 72
35
 73
34
 74
34
 0
VERTEX
 8
MESH_152_F0
 10
0
 20
0
 30
0
 70
128
 71
14
 72
36
 73
35
 74
35
 0
VERTEX
 8
MESH_152_F0
 10
0
 20
0
 30
0
 70
128
 71
13
 72
37
 73
36
 74
36
 0
VERTEX
 8
MESH_152_F0
 10
0
 20
0
 30
0
 70
128
 71
12
 72
38
 73
37
 74
37
 0
VERTEX
 8
MESH_152_F0
 10
0
 20
0
 30
0
 70
128
 71
11
 72
39
 73
38
 74
38
 0
VERTEX
 8
MESH_152_F0
 10
0
 20
0
 30
0
 70
128
 71
10
 72
40
 73
39
 74
39
 0
VERTEX
 8
MESH_152_F0
 10
0
 20
0
 30
0
 70
128
 71
9
 72
41
 73
40
 74
40
 0
VERTEX
 8
MESH_152_F0
 10
0
 20
0
 30
0
 70
128
 71
8
 72
42
 73
41
 74
41
 0
VERTEX
 8
MESH_152_F0
 10
0
 20
0
 30
0
 70
128
 71
7
 72
43
 73
42
 74
42
 0
VERTEX
 8
MESH_152_F0
 10
0
 20
0
 30
0
 70
128
 71
6
 72
44
 73
43
 74
43
 0
VERTEX
 8
MESH_152_F0
 10
0
 20
0
 30
0
 70
128
 71
5
 72
45
 73
44
 74
44
 0
VERTEX
 8
MESH_152_F0
 10
0
 20
0
 30
0
 70
128
 71
4
 72
46
 73
45
 74
45
 0
SEQEND
 0
POLYLINE
 8
MESH_151_F0
 66
1
 10
0.0
 20
0.0
 30
0.0
 70
64
 71
4
 72
2
 0
VERTEX
 8
MESH_151_F0
 10
-225
 20
0
 30
200
 70
192
 0
VERTEX
 8
MESH_151_F0
 10
-225
 20
-20
 30
200
 70
192
 0
VERTEX
 8
MESH_151_F0
 10
-225
 20
-20
 30
500
 70
192
 0
VERTEX
 8
MESH_151_F0
 10
-225
 20
0
 30
500
 70
192
 0
VERTEX
 8
MESH_151_F0
 10
0
 20
0
 30
0
 70
128
 71
4
 72
2
 73
1
 74
1
 0
VERTEX
 8
MESH_151_F0
 10
0
 20
0
 30
0
 70
128
 71
3
 72
2
 73
4
 74
4
 0
SEQEND
 0
POLYLINE
 8
MESH_150_F0
 66
1
 10
0.0
 20
0.0
 30
0.0
 70
64
 71
148
 72
148
 0
VERTEX
 8
MESH_150_F0
 10
-25.5
 20
-20
 30
0.5
 70
192
 0
VERTEX
 8
MESH_150_F0
 10
-49.4868
 20
-20
 30
1.9509
 70
192
 0
VERTEX
 8
MESH_150_F0
 10
-73.1238
 20
-20
 30
6.2826
 70
192
 0
VERTEX
 8
MESH_150_F0
 10
-96.0664
 20
-20
 30
13.4318
 70
192
 0
VERTEX
 8
MESH_150_F0
 10
-117.9799
 20
-20
 30
23.2943
 70
192
 0
VERTEX
 8
MESH_150_F0
 10
-138.5449
 20
-20
 30
35.7262
 70
192
 0
VERTEX
 8
MESH_150_F0
 10
-157.4614
 20
-20
 30
50.5464
 70
192
 0
VERTEX
 8
MESH_150_F0
 10
-174.4536
 20
-20
 30
67.5386
 70
192
 0
VERTEX
 8
MESH_150_F0
 10
-189.2738
 20
-20
 30
86.4551
 70
192
 0
VERTEX
 8
MESH_150_F0
 10
-201.7057
 20
-20
 30
107.0201
 70
192
 0
VERTEX
 8
MESH_150_F0
 10
-211.5682
 20
-20
 30
128.9336
 70
192
 0
VERTEX
 8
MESH_150_F0
 10
-218.7174
 20
-20
 30
151.8762
 70
192
 0
VERTEX
 8
MESH_150_F0
 10
-223.0491
 20
-20
 30
175.5132
 70
192
 0
VERTEX
 8
MESH_150_F0
 10
-224.5
 20
-20
 30
199.5
 70
192
 0
VERTEX
 8
MESH_150_F0
 10
-224.5
 20
-20
 30
500.5
 70
192
 0
VERTEX
 8
MESH_150_F0
 10
-223.0491
 20
-20
 30
524.4868
 70
192
 0
VERTEX
 8
MESH_150_F0
 10
-218.7174
 20
-20
 30
548.1238
 70
192
 0
VERTEX
 8
MESH_150_F0
 10
-211.5682
 20
-20
 30
571.0663
 70
192
 0
VERTEX
 8
MESH_150_F0
 10
-201.7057
 20
-20
 30
592.9799
 70
192
 0
VERTEX
 8
MESH_150_F0
 10
-189.2738
 20
-20
 30
613.5449
 70
192
 0
VERTEX
 8
MESH_150_F0
 10
-174.4536
 20
-20
 30
632.4614
 70
192
 0
VERTEX
 8
MESH_150_F0
 10
-157.4614
 20
-20
 30
649.4536
 70
192
 0
VERTEX
 8
MESH_150_F0
 10
-138.5449
 20
-20
 30
664.2738
 70
192
 0
VERTEX
 8
MESH_150_F0
 10
-117.9799
 20
-20
 30
676.7057
 70
192
 0
VERTEX
 8
MESH_150_F0
 10
-96.0664
 20
-20
 30
686.5682
 70
192
 0
VERTEX
 8
MESH_150_F0
 10
-73.1238
 20
-20
 30
693.7174
 70
192
 0
VERTEX
 8
MESH_150_F0
 10
-49.4868
 20
-20
 30
698.0491
 70
192
 0
VERTEX
 8
MESH_150_F0
 10
-25.5
 20
-20
 30
699.5
 70
192
 0
VERTEX
 8
MESH_150_F0
 10
25.5
 20
-20
 30
699.5
 70
192
 0
VERTEX
 8
MESH_150_F0
 10
49.4868
 20
-20
 30
698.0491
 70
192
 0
VERTEX
 8
MESH_150_F0
 10
73.1238
 20
-20
 30
693.7174
 70
192
 0
VERTEX
 8
MESH_150_F0
 10
96.0664
 20
-20
 30
686.5682
 70
192
 0
VERTEX
 8
MESH_150_F0
 10
117.9799
 20
-20
 30
676.7057
 70
192
 0
VERTEX
 8
MESH_150_F0
 10
138.5449
 20
-20
 30
664.2738
 70
192
 0
VERTEX
 8
MESH_150_F0
 10
157.4614
 20
-20
 30
649.4536
 70
192
 0
VERTEX
 8
MESH_150_F0
 10
174.4536
 20
-20
 30
632.4614
 70
192
 0
VERTEX
 8
MESH_150_F0
 10
189.2738
 20
-20
 30
613.5449
 70
192
 0
VERTEX
 8
MESH_150_F0
 10
201.7057
 20
-20
 30
592.9799
 70
192
 0
VERTEX
 8
MESH_150_F0
 10
211.5682
 20
-20
 30
571.0663
 70
192
 0
VERTEX
 8
MESH_150_F0
 10
218.7174
 20
-20
 30
548.1238
 70
192
 0
VERTEX
 8
MESH_150_F0
 10
223.0491
 20
-20
 30
524.4868
 70
192
 0
VERTEX
 8
MESH_150_F0
 10
224.5
 20
-20
 30
500.5
 70
192
 0
VERTEX
 8
MESH_150_F0
 10
224.5
 20
-20
 30
199.5
 70
192
 0
VERTEX
 8
MESH_150_F0
 10
223.0491
 20
-20
 30
175.5132
 70
192
 0
VERTEX
 8
MESH_150_F0
 10
218.7174
 20
-20
 30
151.8762
 70
192
 0
VERTEX
 8
MESH_150_F0
 10
211.5682
 20
-20
 30
128.9336
 70
192
 0
VERTEX
 8
MESH_150_F0
 10
201.7057
 20
-20
 30
107.0201
 70
192
 0
VERTEX
 8
MESH_150_F0
 10
189.2738
 20
-20
 30
86.4551
 70
192
 0
VERTEX
 8
MESH_150_F0
 10
174.4536
 20
-20
 30
67.5386
 70
192
 0
VERTEX
 8
MESH_150_F0
 10
157.4614
 20
-20
 30
50.5464
 70
192
 0
VERTEX
 8
MESH_150_F0
 10
138.5449
 20
-20
 30
35.7262
 70
192
 0
VERTEX
 8
MESH_150_F0
 10
117.9799
 20
-20
 30
23.2943
 70
192
 0
VERTEX
 8
MESH_150_F0
 10
96.0664
 20
-20
 30
13.4318
 70
192
 0
VERTEX
 8
MESH_150_F0
 10
73.1238
 20
-20
 30
6.2826
 70
192
 0
VERTEX
 8
MESH_150_F0
 10
49.4868
 20
-20
 30
1.9509
 70
192
 0
VERTEX
 8
MESH_150_F0
 10
25.5
 20
-20
 30
0.5
 70
192
 0
VERTEX
 8
MESH_150_F0
 10
-225
 20
-20
 30
500
 70
192
 0
VERTEX
 8
MESH_150_F0
 10
-225
 20
-20
 30
200
 70
192
 0
VERTEX
 8
MESH_150_F0
 10
-224.4857
 20
-20
 30
185.6843
 70
192
 0
VERTEX
 8
MESH_150_F0
 10
-222.9594
 20
-20
 30
171.5029
 70
192
 0
VERTEX
 8
MESH_150_F0
 10
-220.4212
 20
-20
 30
157.4548
 70
192
 0
VERTEX
 8
MESH_150_F0
 10
-216.885
 20
-20
 30
143.6073
 70
192
 0
VERTEX
 8
MESH_150_F0
 10
-212.373
 20
-20
 30
130.061
 70
192
 0
VERTEX
 8
MESH_150_F0
 10
-206.9073
 20
-20
 30
116.8754
 70
192
 0
VERTEX
 8
MESH_150_F0
 10
-200.5169
 20
-20
 30
104.1167
 70
192
 0
VERTEX
 8
MESH_150_F0
 10
-193.2333
 20
-20
 30
91.8449
 70
192
 0
VERTEX
 8
MESH_150_F0
 10
-185.0948
 20
-20
 30
80.1269
 70
192
 0
VERTEX
 8
MESH_150_F0
 10
-176.142
 20
-20
 30
69.0189
 70
192
 0
VERTEX
 8
MESH_150_F0
 10
-166.4206
 20
-20
 30
58.5784
 70
192
 0
VERTEX
 8
MESH_150_F0
 10
-155.9801
 20
-20
 30
48.8571
 70
192
 0
VERTEX
 8
MESH_150_F0
 10
-144.8721
 20
-20
 30
39.9045
 70
192
 0
VERTEX
 8
MESH_150_F0
 10
-133.1541
 20
-20
 30
31.7661
 70
192
 0
VERTEX
 8
MESH_150_F0
 10
-120.8823
 20
-20
 30
24.4825
 70
192
 0
VERTEX
 8
MESH_150_F0
 10
-108.1237
 20
-20
 30
18.0923
 70
192
 0
VERTEX
 8
MESH_150_F0
 10
-94.9381
 20
-20
 30
12.6267
 70
192
 0
VERTEX
 8
MESH_150_F0
 10
-81.392
 20
-20
 30
8.1148
 70
192
 0
VERTEX
 8
MESH_150_F0
 10
-67.5446
 20
-20
 30
4.5786
 70
192
 0
VERTEX
 8
MESH_150_F0
 10
-53.4966
 20
-20
 30
2.0406
 70
192
 0
VERTEX
 8
MESH_150_F0
 10
-39.3154
 20
-20
 30
0.5143
 70
192
 0
VERTEX
 8
MESH_150_F0
 10
-25
 20
-20
 30
0
 70
192
 0
VERTEX
 8
MESH_150_F0
 10
25
 20
-20
 30
0
 70
192
 0
VERTEX
 8
MESH_150_F0
 10
39.3157
 20
-20
 30
0.5143
 70
192
 0
VERTEX
 8
MESH_150_F0
 10
53.497
 20
-20
 30
2.0406
 70
192
 0
VERTEX
 8
MESH_150_F0
 10
67.5452
 20
-20
 30
4.5788
 70
192
 0
VERTEX
 8
MESH_150_F0
 10
81.3927
 20
-20
 30
8.115
 70
192
 0
VERTEX
 8
MESH_150_F0
 10
94.939
 20
-20
 30
12.627
 70
192
 0
VERTEX
 8
MESH_150_F0
 10
108.1246
 20
-20
 30
18.0927
 70
192
 0
VERTEX
 8
MESH_150_F0
 10
120.8833
 20
-20
 30
24.4831
 70
192
 0
VERTEX
 8
MESH_150_F0
 10
133.1552
 20
-20
 30
31.7667
 70
192
 0
VERTEX
 8
MESH_150_F0
 10
144.8731
 20
-20
 30
39.9052
 70
192
 0
VERTEX
 8
MESH_150_F0
 10
155.9811
 20
-20
 30
48.858
 70
192
 0
VERTEX
 8
MESH_150_F0
 10
166.4216
 20
-20
 30
58.5794
 70
192
 0
VERTEX
 8
MESH_150_F0
 10
176.1429
 20
-20
 30
69.0199
 70
192
 0
VERTEX
 8
MESH_150_F0
 10
185.0955
 20
-20
 30
80.1279
 70
192
 0
VERTEX
 8
MESH_150_F0
 10
193.2339
 20
-20
 30
91.8459
 70
192
 0
VERTEX
 8
MESH_150_F0
 10
200.5175
 20
-20
 30
104.1177
 70
192
 0
VERTEX
 8
MESH_150_F0
 10
206.9077
 20
-20
 30
116.8763
 70
192
 0
VERTEX
 8
MESH_150_F0
 10
212.3734
 20
-20
 30
130.0619
 70
192
 0
VERTEX
 8
MESH_150_F0
 10
216.8852
 20
-20
 30
143.608
 70
192
 0
VERTEX
 8
MESH_150_F0
 10
220.4214
 20
-20
 30
157.4554
 70
192
 0
VERTEX
 8
MESH_150_F0
 10
222.9594
 20
-20
 30
171.5034
 70
192
 0
VERTEX
 8
MESH_150_F0
 10
224.4857
 20
-20
 30
185.6846
 70
192
 0
VERTEX
 8
MESH_150_F0
 10
225
 20
-20
 30
200
 70
192
 0
VERTEX
 8
MESH_150_F0
 10
225
 20
-20
 30
500
 70
192
 0
VERTEX
 8
MESH_150_F0
 10
224.4857
 20
-20
 30
514.3157
 70
192
 0
VERTEX
 8
MESH_150_F0
 10
222.9594
 20
-20
 30
528.4971
 70
192
 0
VERTEX
 8
MESH_150_F0
 10
220.4212
 20
-20
 30
542.5452
 70
192
 0
VERTEX
 8
MESH_150_F0
 10
216.885
 20
-20
 30
556.3927
 70
192
 0
VERTEX
 8
MESH_150_F0
 10
212.373
 20
-20
 30
569.939
 70
192
 0
VERTEX
 8
MESH_150_F0
 10
206.9073
 20
-20
 30
583.1246
 70
192
 0
VERTEX
 8
MESH_150_F0
 10
200.5169
 20
-20
 30
595.8832
 70
192
 0
VERTEX
 8
MESH_150_F0
 10
193.2333
 20
-20
 30
608.1551
 70
192
 0
VERTEX
 8
MESH_150_F0
 10
185.0948
 20
-20
 30
619.8731
 70
192
 0
VERTEX
 8
MESH_150_F0
 10
176.142
 20
-20
 30
630.9811
 70
192
 0
VERTEX
 8
MESH_150_F0
 10
166.4206
 20
-20
 30
641.4216
 70
192
 0
VERTEX
 8
MESH_150_F0
 10
155.9801
 20
-20
 30
651.1428
 70
192
 0
VERTEX
 8
MESH_150_F0
 10
144.8721
 20
-20
 30
660.0956
 70
192
 0
VERTEX
 8
MESH_150_F0
 10
133.1541
 20
-20
 30
668.2339
 70
192
 0
VERTEX
 8
MESH_150_F0
 10
120.8823
 20
-20
 30
675.5175
 70
192
 0
VERTEX
 8
MESH_150_F0
 10
108.1237
 20
-20
 30
681.9077
 70
192
 0
VERTEX
 8
MESH_150_F0
 10
94.9381
 20
-20
 30
687.3734
 70
192
 0
VERTEX
 8
MESH_150_F0
 10
81.392
 20
-20
 30
691.8852
 70
192
 0
VERTEX
 8
MESH_150_F0
 10
67.5446
 20
-20
 30
695.4213
 70
192
 0
VERTEX
 8
MESH_150_F0
 10
53.4966
 20
-20
 30
697.9594
 70
192
 0
VERTEX
 8
MESH_150_F0
 10
39.3154
 20
-20
 30
699.4857
 70
192
 0
VERTEX
 8
MESH_150_F0
 10
25
 20
-20
 30
700
 70
192
 0
VERTEX
 8
MESH_150_F0
 10
-25
 20
-20
 30
700
 70
192
 0
VERTEX
 8
MESH_150_F0
 10
-39.3157
 20
-20
 30
699.4857
 70
192
 0
VERTEX
 8
MESH_150_F0
 10
-53.497
 20
-20
 30
697.9594
 70
192
 0
VERTEX
 8
MESH_150_F0
 10
-67.5452
 20
-20
 30
695.4212
 70
192
 0
VERTEX
 8
MESH_150_F0
 10
-81.3927
 20
-20
 30
691.885
 70
192
 0
VERTEX
 8
MESH_150_F0
 10
-94.939
 20
-20
 30
687.373
 70
192
 0
VERTEX
 8
MESH_150_F0
 10
-108.1246
 20
-20
 30
681.9073
 70
192
 0
VERTEX
 8
MESH_150_F0
 10
-120.8833
 20
-20
 30
675.5169
 70
192
 0
VERTEX
 8
MESH_150_F0
 10
-133.1552
 20
-20
 30
668.2332
 70
192
 0
VERTEX
 8
MESH_150_F0
 10
-144.8731
 20
-20
 30
660.0948
 70
192
 0
VERTEX
 8
MESH_150_F0
 10
-155.9811
 20
-20
 30
651.142
 70
192
 0
VERTEX
 8
MESH_150_F0
 10
-166.4216
 20
-20
 30
641.4207
 70
192
 0
VERTEX
 8
MESH_150_F0
 10
-176.1429
 20
-20
 30
630.9801
 70
192
 0
VERTEX
 8
MESH_150_F0
 10
-185.0955
 20
-20
 30
619.8721
 70
192
 0
VERTEX
 8
MESH_150_F0
 10
-193.2339
 20
-20
 30
608.1541
 70
192
 0
VERTEX
 8
MESH_150_F0
 10
-200.5175
 20
-20
 30
595.8823
 70
192
 0
VERTEX
 8
MESH_150_F0
 10
-206.9077
 20
-20
 30
583.1237
 70
192
 0
VERTEX
 8
MESH_150_F0
 10
-212.3734
 20
-20
 30
569.9381
 70
192
 0
VERTEX
 8
MESH_150_F0
 10
-216.8852
 20
-20
 30
556.392
 70
192
 0
VERTEX
 8
MESH_150_F0
 10
-220.4214
 20
-20
 30
542.5446
 70
192
 0
VERTEX
 8
MESH_150_F0
 10
-222.9594
 20
-20
 30
528.4966
 70
192
 0
VERTEX
 8
MESH_150_F0
 10
-224.4857
 20
-20
 30
514.3154
 70
192
 0
VERTEX
 8
MESH_150_F0
 10
0
 20
0
 30
0
 70
128
 71
2
 72
78
 73
77
 74
77
 0
VERTEX
 8
MESH_150_F0
 10
0
 20
0
 30
0
 70
128
 71
2
 72
77
 73
3
 74
3
 0
VERTEX
 8
MESH_150_F0
 10
0
 20
0
 30
0
 70
128
 71
77
 72
76
 73
3
 74
3
 0
VERTEX
 8
MESH_150_F0
 10
0
 20
0
 30
0
 70
128
 71
76
 72
4
 73
3
 74
3
 0
VERTEX
 8
MESH_150_F0
 10
0
 20
0
 30
0
 70
128
 71
75
 72
4
 73
76
 74
76
 0
VERTEX
 8
MESH_150_F0
 10
0
 20
0
 30
0
 70
128
 71
74
 72
4
 73
75
 74
75
 0
VERTEX
 8
MESH_150_F0
 10
0
 20
0
 30
0
 70
128
 71
5
 72
4
 73
74
 74
74
 0
VERTEX
 8
MESH_150_F0
 10
0
 20
0
 30
0
 70
128
 71
72
 72
5
 73
73
 74
73
 0
VERTEX
 8
MESH_150_F0
 10
0
 20
0
 30
0
 70
128
 71
5
 72
74
 73
73
 74
73
 0
VERTEX
 8
MESH_150_F0
 10
0
 20
0
 30
0
 70
128
 71
72
 72
6
 73
5
 74
5
 0
VERTEX
 8
MESH_150_F0
 10
0
 20
0
 30
0
 70
128
 71
71
 72
6
 73
72
 74
72
 0
VERTEX
 8
MESH_150_F0
 10
0
 20
0
 30
0
 70
128
 71
7
 72
6
 73
71
 74
71
 0
VERTEX
 8
MESH_150_F0
 10
0
 20
0
 30
0
 70
128
 71
69
 72
7
 73
70
 74
70
 0
VERTEX
 8
MESH_150_F0
 10
0
 20
0
 30
0
 70
128
 71
7
 72
71
 73
70
 74
70
 0
VERTEX
 8
MESH_150_F0
 10
0
 20
0
 30
0
 70
128
 71
69
 72
8
 73
7
 74
7
 0
VERTEX
 8
MESH_150_F0
 10
0
 20
0
 30
0
 70
128
 71
68
 72
8
 73
69
 74
69
 0
VERTEX
 8
MESH_150_F0
 10
0
 20
0
 30
0
 70
128
 71
67
 72
8
 73
68
 74
68
 0
VERTEX
 8
MESH_150_F0
 10
0
 20
0
 30
0
 70
128
 71
9
 72
8
 73
67
 74
67
 0
VERTEX
 8
MESH_150_F0
 10
0
 20
0
 30
0
 70
128
 71
10
 72
9
 73
66
 74
66
 0
VERTEX
 8
MESH_150_F0
 10
0
 20
0
 30
0
 70
128
 71
64
 72
10
 73
65
 74
65
 0
VERTEX
 8
MESH_150_F0
 10
0
 20
0
 30
0
 70
128
 71
10
 72
66
 73
65
 74
65
 0
VERTEX
 8
MESH_150_F0
 10
0
 20
0
 30
0
 70
128
 71
64
 72
11
 73
10
 74
10
 0
VERTEX
 8
MESH_150_F0
 10
0
 20
0
 30
0
 70
128
 71
63
 72
11
 73
64
 74
64
 0
VERTEX
 8
MESH_150_F0
 10
0
 20
0
 30
0
 70
128
 71
62
 72
11
 73
63
 74
63
 0
VERTEX
 8
MESH_150_F0
 10
0
 20
0
 30
0
 70
128
 71
12
 72
11
 73
62
 74
62
 0
VERTEX
 8
MESH_150_F0
 10
0
 20
0
 30
0
 70
128
 71
13
 72
12
 73
61
 74
61
 0
VERTEX
 8
MESH_150_F0
 10
0
 20
0
 30
0
 70
128
 71
59
 72
13
 73
60
 74
60
 0
VERTEX
 8
MESH_150_F0
 10
0
 20
0
 30
0
 70
128
 71
13
 72
61
 73
60
 74
60
 0
VERTEX
 8
MESH_150_F0
 10
0
 20
0
 30
0
 70
128
 71
59
 72
14
 73
13
 74
13
 0
VERTEX
 8
MESH_150_F0
 10
0
 20
0
 30
0
 70
128
 71
58
 72
14
 73
59
 74
59
 0
VERTEX
 8
MESH_150_F0
 10
0
 20
0
 30
0
 70
128
 71
57
 72
14
 73
58
 74
58
 0
VERTEX
 8
MESH_150_F0
 10
0
 20
0
 30
0
 70
128
 71
15
 72
14
 73
57
 74
57
 0
VERTEX
 8
MESH_150_F0
 10
0
 20
0
 30
0
 70
128
 71
16
 72
15
 73
148
 74
148
 0
VERTEX
 8
MESH_150_F0
 10
0
 20
0
 30
0
 70
128
 71
146
 72
16
 73
147
 74
147
 0
VERTEX
 8
MESH_150_F0
 10
0
 20
0
 30
0
 70
128
 71
16
 72
148
 73
147
 74
147
 0
VERTEX
 8
MESH_150_F0
 10
0
 20
0
 30
0
 70
128
 71
146
 72
17
 73
16
 74
16
 0
VERTEX
 8
MESH_150_F0
 10
0
 20
0
 30
0
 70
128
 71
145
 72
17
 73
146
 74
146
 0
VERTEX
 8
MESH_150_F0
 10
0
 20
0
 30
0
 70
128
 71
18
 72
17
 73
145
 74
145
 0
VERTEX
 8
MESH_150_F0
 10
0
 20
0
 30
0
 70
128
 71
143
 72
18
 73
144
 74
144
 0
VERTEX
 8
MESH_150_F0
 10
0
 20
0
 30
0
 70
128
 71
18
 72
145
 73
144
 74
144
 0
VERTEX
 8
MESH_150_F0
 10
0
 20
0
 30
0
 70
128
 71
143
 72
19
 73
18
 74
18
 0
VERTEX
 8
MESH_150_F0
 10
0
 20
0
 30
0
 70
128
 71
142
 72
19
 73
143
 74
143
 0
VERTEX
 8
MESH_150_F0
 10
0
 20
0
 30
0
 70
128
 71
141
 72
19
 73
142
 74
142
 0
VERTEX
 8
MESH_150_F0
 10
0
 20
0
 30
0
 70
128
 71
20
 72
19
 73
141
 74
141
 0
VERTEX
 8
MESH_150_F0
 10
0
 20
0
 30
0
 70
128
 71
21
 72
20
 73
140
 74
140
 0
VERTEX
 8
MESH_150_F0
 10
0
 20
0
 30
0
 70
128
 71
138
 72
21
 73
139
 74
139
 0
VERTEX
 8
MESH_150_F0
 10
0
 20
0
 30
0
 70
128
 71
21
 72
140
 73
139
 74
139
 0
VERTEX
 8
MESH_150_F0
 10
0
 20
0
 30
0
 70
128
 71
138
 72
22
 73
21
 74
21
 0
VERTEX
 8
MESH_150_F0
 10
0
 20
0
 30
0
 70
128
 71
137
 72
22
 73
138
 74
138
 0
VERTEX
 8
MESH_150_F0
 10
0
 20
0
 30
0
 70
128
 71
136
 72
22
 73
137
 74
137
 0
VERTEX
 8
MESH_150_F0
 10
0
 20
0
 30
0
 70
128
 71
23
 72
22
 73
136
 74
136
 0
VERTEX
 8
MESH_150_F0
 10
0
 20
0
 30
0
 70
128
 71
24
 72
23
 73
135
 74
135
 0
VERTEX
 8
MESH_150_F0
 10
0
 20
0
 30
0
 70
128
 71
133
 72
24
 73
134
 74
134
 0
VERTEX
 8
MESH_150_F0
 10
0
 20
0
 30
0
 70
128
 71
24
 72
135
 73
134
 74
134
 0
VERTEX
 8
MESH_150_F0
 10
0
 20
0
 30
0
 70
128
 71
133
 72
25
 73
24
 74
24
 0
VERTEX
 8
MESH_150_F0
 10
0
 20
0
 30
0
 70
128
 71
132
 72
25
 73
133
 74
133
 0
VERTEX
 8
MESH_150_F0
 10
0
 20
0
 30
0
 70
128
 71
131
 72
25
 73
132
 74
132
 0
VERTEX
 8
MESH_150_F0
 10
0
 20
0
 30
0
 70
128
 71
26
 72
25
 73
131
 74
131
 0
VERTEX
 8
MESH_150_F0
 10
0
 20
0
 30
0
 70
128
 71
129
 72
26
 73
130
 74
130
 0
VERTEX
 8
MESH_150_F0
 10
0
 20
0
 30
0
 70
128
 71
26
 72
131
 73
130
 74
130
 0
VERTEX
 8
MESH_150_F0
 10
0
 20
0
 30
0
 70
128
 71
129
 72
27
 73
26
 74
26
 0
VERTEX
 8
MESH_150_F0
 10
0
 20
0
 30
0
 70
128
 71
128
 72
27
 73
129
 74
129
 0
VERTEX
 8
MESH_150_F0
 10
0
 20
0
 30
0
 70
128
 71
28
 72
27
 73
128
 74
128
 0
VERTEX
 8
MESH_150_F0
 10
0
 20
0
 30
0
 70
128
 71
29
 72
28
 73
127
 74
127
 0
VERTEX
 8
MESH_150_F0
 10
0
 20
0
 30
0
 70
128
 71
125
 72
29
 73
126
 74
126
 0
VERTEX
 8
MESH_150_F0
 10
0
 20
0
 30
0
 70
128
 71
29
 72
127
 73
126
 74
126
 0
VERTEX
 8
MESH_150_F0
 10
0
 20
0
 30
0
 70
128
 71
125
 72
30
 73
29
 74
29
 0
VERTEX
 8
MESH_150_F0
 10
0
 20
0
 30
0
 70
128
 71
124
 72
30
 73
125
 74
125
 0
VERTEX
 8
MESH_150_F0
 10
0
 20
0
 30
0
 70
128
 71
31
 72
30
 73
124
 74
124
 0
VERTEX
 8
MESH_150_F0
 10
0
 20
0
 30
0
 70
128
 71
122
 72
31
 73
123
 74
123
 0
VERTEX
 8
MESH_150_F0
 10
0
 20
0
 30
0
 70
128
 71
31
 72
124
 73
123
 74
123
 0
VERTEX
 8
MESH_150_F0
 10
0
 20
0
 30
0
 70
128
 71
122
 72
32
 73
31
 74
31
 0
VERTEX
 8
MESH_150_F0
 10
0
 20
0
 30
0
 70
128
 71
121
 72
32
 73
122
 74
122
 0
VERTEX
 8
MESH_150_F0
 10
0
 20
0
 30
0
 70
128
 71
120
 72
32
 73
121
 74
121
 0
VERTEX
 8
MESH_150_F0
 10
0
 20
0
 30
0
 70
128
 71
33
 72
32
 73
120
 74
120
 0
VERTEX
 8
MESH_150_F0
 10
0
 20
0
 30
0
 70
128
 71
118
 72
33
 73
119
 74
119
 0
VERTEX
 8
MESH_150_F0
 10
0
 20
0
 30
0
 70
128
 71
33
 72
120
 73
119
 74
119
 0
VERTEX
 8
MESH_150_F0
 10
0
 20
0
 30
0
 70
128
 71
118
 72
34
 73
33
 74
33
 0
VERTEX
 8
MESH_150_F0
 10
0
 20
0
 30
0
 70
128
 71
117
 72
34
 73
118
 74
118
 0
VERTEX
 8
MESH_150_F0
 10
0
 20
0
 30
0
 70
128
 71
35
 72
34
 73
117
 74
117
 0
VERTEX
 8
MESH_150_F0
 10
0
 20
0
 30
0
 70
128
 71
115
 72
35
 73
116
 74
116
 0
VERTEX
 8
MESH_150_F0
 10
0
 20
0
 30
0
 70
128
 71
35
 72
117
 73
116
 74
116
 0
VERTEX
 8
MESH_150_F0
 10
0
 20
0
 30
0
 70
128
 71
115
 72
36
 73
35
 74
35
 0
VERTEX
 8
MESH_150_F0
 10
0
 20
0
 30
0
 70
128
 71
114
 72
36
 73
115
 74
115
 0
VERTEX
 8
MESH_150_F0
 10
0
 20
0
 30
0
 70
128
 71
113
 72
36
 73
114
 74
114
 0
VERTEX
 8
MESH_150_F0
 10
0
 20
0
 30
0
 70
128
 71
37
 72
36
 73
113
 74
113
 0
VERTEX
 8
MESH_150_F0
 10
0
 20
0
 30
0
 70
128
 71
38
 72
37
 73
112
 74
112
 0
VERTEX
 8
MESH_150_F0
 10
0
 20
0
 30
0
 70
128
 71
110
 72
38
 73
111
 74
111
 0
VERTEX
 8
MESH_150_F0
 10
0
 20
0
 30
0
 70
128
 71
38
 72
112
 73
111
 74
111
 0
VERTEX
 8
MESH_150_F0
 10
0
 20
0
 30
0
 70
128
 71
110
 72
39
 73
38
 74
38
 0
VERTEX
 8
MESH_150_F0
 10
0
 20
0
 30
0
 70
128
 71
109
 72
39
 73
110
 74
110
 0
VERTEX
 8
MESH_150_F0
 10
0
 20
0
 30
0
 70
128
 71
108
 72
39
 73
109
 74
109
 0
VERTEX
 8
MESH_150_F0
 10
0
 20
0
 30
0
 70
128
 71
40
 72
39
 73
108
 74
108
 0
VERTEX
 8
MESH_150_F0
 10
0
 20
0
 30
0
 70
128
 71
41
 72
40
 73
107
 74
107
 0
VERTEX
 8
MESH_150_F0
 10
0
 20
0
 30
0
 70
128
 71
105
 72
41
 73
106
 74
106
 0
VERTEX
 8
MESH_150_F0
 10
0
 20
0
 30
0
 70
128
 71
41
 72
107
 73
106
 74
106
 0
VERTEX
 8
MESH_150_F0
 10
0
 20
0
 30
0
 70
128
 71
105
 72
42
 73
41
 74
41
 0
VERTEX
 8
MESH_150_F0
 10
0
 20
0
 30
0
 70
128
 71
104
 72
42
 73
105
 74
105
 0
VERTEX
 8
MESH_150_F0
 10
0
 20
0
 30
0
 70
128
 71
43
 72
42
 73
104
 74
104
 0
VERTEX
 8
MESH_150_F0
 10
0
 20
0
 30
0
 70
128
 71
102
 72
43
 73
103
 74
103
 0
VERTEX
 8
MESH_150_F0
 10
0
 20
0
 30
0
 70
128
 71
43
 72
104
 73
103
 74
103
 0
VERTEX
 8
MESH_150_F0
 10
0
 20
0
 30
0
 70
128
 71
102
 72
44
 73
43
 74
43
 0
VERTEX
 8
MESH_150_F0
 10
0
 20
0
 30
0
 70
128
 71
101
 72
44
 73
102
 74
102
 0
VERTEX
 8
MESH_150_F0
 10
0
 20
0
 30
0
 70
128
 71
100
 72
44
 73
101
 74
101
 0
VERTEX
 8
MESH_150_F0
 10
0
 20
0
 30
0
 70
128
 71
45
 72
44
 73
100
 74
100
 0
VERTEX
 8
MESH_150_F0
 10
0
 20
0
 30
0
 70
128
 71
46
 72
45
 73
99
 74
99
 0
VERTEX
 8
MESH_150_F0
 10
0
 20
0
 30
0
 70
128
 71
97
 72
46
 73
98
 74
98
 0
VERTEX
 8
MESH_150_F0
 10
0
 20
0
 30
0
 70
128
 71
46
 72
99
 73
98
 74
98
 0
VERTEX
 8
MESH_150_F0
 10
0
 20
0
 30
0
 70
128
 71
97
 72
47
 73
46
 74
46
 0
VERTEX
 8
MESH_150_F0
 10
0
 20
0
 30
0
 70
128
 71
96
 72
47
 73
97
 74
97
 0
VERTEX
 8
MESH_150_F0
 10
0
 20
0
 30
0
 70
128
 71
95
 72
47
 73
96
 74
96
 0
VERTEX
 8
MESH_150_F0
 10
0
 20
0
 30
0
 70
128
 71
48
 72
47
 73
95
 74
95
 0
VERTEX
 8
MESH_150_F0
 10
0
 20
0
 30
0
 70
128
 71
49
 72
48
 73
94
 74
94
 0
VERTEX
 8
MESH_150_F0
 10
0
 20
0
 30
0
 70
128
 71
92
 72
49
 73
93
 74
93
 0
VERTEX
 8
MESH_150_F0
 10
0
 20
0
 30
0
 70
128
 71
49
 72
94
 73
93
 74
93
 0
VERTEX
 8
MESH_150_F0
 10
0
 20
0
 30
0
 70
128
 71
92
 72
50
 73
49
 74
49
 0
VERTEX
 8
MESH_150_F0
 10
0
 20
0
 30
0
 70
128
 71
91
 72
50
 73
92
 74
92
 0
VERTEX
 8
MESH_150_F0
 10
0
 20
0
 30
0
 70
128
 71
90
 72
50
 73
91
 74
91
 0
VERTEX
 8
MESH_150_F0
 10
0
 20
0
 30
0
 70
128
 71
51
 72
50
 73
90
 74
90
 0
VERTEX
 8
MESH_150_F0
 10
0
 20
0
 30
0
 70
128
 71
52
 72
51
 73
89
 74
89
 0
VERTEX
 8
MESH_150_F0
 10
0
 20
0
 30
0
 70
128
 71
87
 72
52
 73
88
 74
88
 0
VERTEX
 8
MESH_150_F0
 10
0
 20
0
 30
0
 70
128
 71
52
 72
89
 73
88
 74
88
 0
VERTEX
 8
MESH_150_F0
 10
0
 20
0
 30
0
 70
128
 71
87
 72
53
 73
52
 74
52
 0
VERTEX
 8
MESH_150_F0
 10
0
 20
0
 30
0
 70
128
 71
86
 72
53
 73
87
 74
87
 0
VERTEX
 8
MESH_150_F0
 10
0
 20
0
 30
0
 70
128
 71
85
 72
53
 73
86
 74
86
 0
VERTEX
 8
MESH_150_F0
 10
0
 20
0
 30
0
 70
128
 71
54
 72
53
 73
85
 74
85
 0
VERTEX
 8
MESH_150_F0
 10
0
 20
0
 30
0
 70
128
 71
55
 72
54
 73
84
 74
84
 0
VERTEX
 8
MESH_150_F0
 10
0
 20
0
 30
0
 70
128
 71
82
 72
55
 73
83
 74
83
 0
VERTEX
 8
MESH_150_F0
 10
0
 20
0
 30
0
 70
128
 71
55
 72
84
 73
83
 74
83
 0
VERTEX
 8
MESH_150_F0
 10
0
 20
0
 30
0
 70
128
 71
82
 72
56
 73
55
 74
55
 0
VERTEX
 8
MESH_150_F0
 10
0
 20
0
 30
0
 70
128
 71
81
 72
56
 73
82
 74
82
 0
VERTEX
 8
MESH_150_F0
 10
0
 20
0
 30
0
 70
128
 71
1
 72
56
 73
81
 74
81
 0
VERTEX
 8
MESH_150_F0
 10
0
 20
0
 30
0
 70
128
 71
79
 72
1
 73
80
 74
80
 0
VERTEX
 8
MESH_150_F0
 10
0
 20
0
 30
0
 70
128
 71
1
 72
81
 73
80
 74
80
 0
VERTEX
 8
MESH_150_F0
 10
0
 20
0
 30
0
 70
128
 71
12
 72
62
 73
61
 74
61
 0
VERTEX
 8
MESH_150_F0
 10
0
 20
0
 30
0
 70
128
 71
9
 72
67
 73
66
 74
66
 0
VERTEX
 8
MESH_150_F0
 10
0
 20
0
 30
0
 70
128
 71
2
 72
79
 73
78
 74
78
 0
VERTEX
 8
MESH_150_F0
 10
0
 20
0
 30
0
 70
128
 71
1
 72
79
 73
2
 74
2
 0
VERTEX
 8
MESH_150_F0
 10
0
 20
0
 30
0
 70
128
 71
54
 72
85
 73
84
 74
84
 0
VERTEX
 8
MESH_150_F0
 10
0
 20
0
 30
0
 70
128
 71
51
 72
90
 73
89
 74
89
 0
VERTEX
 8
MESH_150_F0
 10
0
 20
0
 30
0
 70
128
 71
48
 72
95
 73
94
 74
94
 0
VERTEX
 8
MESH_150_F0
 10
0
 20
0
 30
0
 70
128
 71
45
 72
100
 73
99
 74
99
 0
VERTEX
 8
MESH_150_F0
 10
0
 20
0
 30
0
 70
128
 71
40
 72
108
 73
107
 74
107
 0
VERTEX
 8
MESH_150_F0
 10
0
 20
0
 30
0
 70
128
 71
37
 72
113
 73
112
 74
112
 0
VERTEX
 8
MESH_150_F0
 10
0
 20
0
 30
0
 70
128
 71
28
 72
128
 73
127
 74
127
 0
VERTEX
 8
MESH_150_F0
 10
0
 20
0
 30
0
 70
128
 71
23
 72
136
 73
135
 74
135
 0
VERTEX
 8
MESH_150_F0
 10
0
 20
0
 30
0
 70
128
 71
20
 72
141
 73
140
 74
140
 0
VERTEX
 8
MESH_150_F0
 10
0
 20
0
 30
0
 70
128
 71
15
 72
57
 73
148
 74
148
 0
SEQEND
 0
POLYLINE
 8
MESH_149_F0
 66
1
 10
0.0
 20
0.0
 30
0.0
 70
64
 71
92
 72
90
 0
VERTEX
 8
MESH_149_F0
 10
-25.5
 20
-24
 30
0.5
 70
192
 0
VERTEX
 8
MESH_149_F0
 10
25.5
 20
-24
 30
0.5
 70
192
 0
VERTEX
 8
MESH_149_F0
 10
39.7441
 20
-24
 30
1.0118
 70
192
 0
VERTEX
 8
MESH_149_F0
 10
53.8546
 20
-24
 30
2.5304
 70
192
 0
VERTEX
 8
MESH_149_F0
 10
67.8324
 20
-24
 30
5.0559
 70
192
 0
VERTEX
 8
MESH_149_F0
 10
81.6108
 20
-24
 30
8.5744
 70
192
 0
VERTEX
 8
MESH_149_F0
 10
95.0893
 20
-24
 30
13.0638
 70
192
 0
VERTEX
 8
MESH_149_F0
 10
108.209
 20
-24
 30
18.5022
 70
192
 0
VERTEX
 8
MESH_149_F0
 10
120.9039
 20
-24
 30
24.8607
 70
192
 0
VERTEX
 8
MESH_149_F0
 10
133.1144
 20
-24
 30
32.1079
 70
192
 0
VERTEX
 8
MESH_149_F0
 10
144.7738
 20
-24
 30
40.2057
 70
192
 0
VERTEX
 8
MESH_149_F0
 10
155.8262
 20
-24
 30
49.1137
 70
192
 0
VERTEX
 8
MESH_149_F0
 10
166.2144
 20
-24
 30
58.7865
 70
192
 0
VERTEX
 8
MESH_149_F0
 10
175.8872
 20
-24
 30
69.1748
 70
192
 0
VERTEX
 8
MESH_149_F0
 10
184.7951
 20
-24
 30
80.2272
 70
192
 0
VERTEX
 8
MESH_149_F0
 10
192.8927
 20
-24
 30
91.8866
 70
192
 0
VERTEX
 8
MESH_149_F0
 10
200.1399
 20
-24
 30
104.0971
 70
192
 0
VERTEX
 8
MESH_149_F0
 10
206.4982
 20
-24
 30
116.7919
 70
192
 0
VERTEX
 8
MESH_149_F0
 10
211.9365
 20
-24
 30
129.9116
 70
192
 0
VERTEX
 8
MESH_149_F0
 10
216.4258
 20
-24
 30
143.39
 70
192
 0
VERTEX
 8
MESH_149_F0
 10
219.9442
 20
-24
 30
157.1681
 70
192
 0
VERTEX
 8
MESH_149_F0
 10
222.4696
 20
-24
 30
171.1459
 70
192
 0
VERTEX
 8
MESH_149_F0
 10
223.9883
 20
-24
 30
185.2561
 70
192
 0
VERTEX
 8
MESH_149_F0
 10
224.5
 20
-24
 30
199.5
 70
192
 0
VERTEX
 8
MESH_149_F0
 10
224.5
 20
-24
 30
500.5
 70
192
 0
VERTEX
 8
MESH_149_F0
 10
223.9882
 20
-24
 30
514.7441
 70
192
 0
VERTEX
 8
MESH_149_F0
 10
222.4696
 20
-24
 30
528.8546
 70
192
 0
VERTEX
 8
MESH_149_F0
 10
219.9441
 20
-24
 30
542.8325
 70
192
 0
VERTEX
 8
MESH_149_F0
 10
216.4256
 20
-24
 30
556.6108
 70
192
 0
VERTEX
 8
MESH_149_F0
 10
211.9362
 20
-24
 30
570.0893
 70
192
 0
VERTEX
 8
MESH_149_F0
 10
206.4978
 20
-24
 30
583.209
 70
192
 0
VERTEX
 8
MESH_149_F0
 10
200.1393
 20
-24
 30
595.9038
 70
192
 0
VERTEX
 8
MESH_149_F0
 10
192.8921
 20
-24
 30
608.1144
 70
192
 0
VERTEX
 8
MESH_149_F0
 10
184.7943
 20
-24
 30
619.7737
 70
192
 0
VERTEX
 8
MESH_149_F0
 10
175.8863
 20
-24
 30
630.8262
 70
192
 0
VERTEX
 8
MESH_149_F0
 10
166.2135
 20
-24
 30
641.2144
 70
192
 0
VERTEX
 8
MESH_149_F0
 10
155.8252
 20
-24
 30
650.8871
 70
192
 0
VERTEX
 8
MESH_149_F0
 10
144.7728
 20
-24
 30
659.795
 70
192
 0
VERTEX
 8
MESH_149_F0
 10
133.1133
 20
-24
 30
667.8928
 70
192
 0
VERTEX
 8
MESH_149_F0
 10
120.9029
 20
-24
 30
675.1398
 70
192
 0
VERTEX
 8
MESH_149_F0
 10
108.2081
 20
-24
 30
681.4982
 70
192
 0
VERTEX
 8
MESH_149_F0
 10
95.0884
 20
-24
 30
686.9365
 70
192
 0
VERTEX
 8
MESH_149_F0
 10
81.61
 20
-24
 30
691.4258
 70
192
 0
VERTEX
 8
MESH_149_F0
 10
67.8319
 20
-24
 30
694.9443
 70
192
 0
VERTEX
 8
MESH_149_F0
 10
53.8541
 20
-24
 30
697.4696
 70
192
 0
VERTEX
 8
MESH_149_F0
 10
39.7439
 20
-24
 30
698.9882
 70
192
 0
VERTEX
 8
MESH_149_F0
 10
25.5
 20
-24
 30
699.5
 70
192
 0
VERTEX
 8
MESH_149_F0
 10
-25.5
 20
-24
 30
699.5
 70
192
 0
VERTEX
 8
MESH_149_F0
 10
-39.7441
 20
-24
 30
698.9882
 70
192
 0
VERTEX
 8
MESH_149_F0
 10
-53.8546
 20
-24
 30
697.4696
 70
192
 0
VERTEX
 8
MESH_149_F0
 10
-67.8324
 20
-24
 30
694.9441
 70
192
 0
VERTEX
 8
MESH_149_F0
 10
-81.6108
 20
-24
 30
691.4255
 70
192
 0
VERTEX
 8
MESH_149_F0
 10
-95.0893
 20
-24
 30
686.9362
 70
192
 0
VERTEX
 8
MESH_149_F0
 10
-108.209
 20
-24
 30
681.4977
 70
192
 0
VERTEX
 8
MESH_149_F0
 10
-120.9039
 20
-24
 30
675.1393
 70
192
 0
VERTEX
 8
MESH_149_F0
 10
-133.1144
 20
-24
 30
667.8921
 70
192
 0
VERTEX
 8
MESH_149_F0
 10
-144.7738
 20
-24
 30
659.7943
 70
192
 0
VERTEX
 8
MESH_149_F0
 10
-155.8262
 20
-24
 30
650.8864
 70
192
 0
VERTEX
 8
MESH_149_F0
 10
-166.2144
 20
-24
 30
641.2135
 70
192
 0
VERTEX
 8
MESH_149_F0
 10
-175.8872
 20
-24
 30
630.8252
 70
192
 0
VERTEX
 8
MESH_149_F0
 10
-184.7951
 20
-24
 30
619.7728
 70
192
 0
VERTEX
 8
MESH_149_F0
 10
-192.8927
 20
-24
 30
608.1133
 70
192
 0
VERTEX
 8
MESH_149_F0
 10
-200.1399
 20
-24
 30
595.9028
 70
192
 0
VERTEX
 8
MESH_149_F0
 10
-206.4982
 20
-24
 30
583.2081
 70
192
 0
VERTEX
 8
MESH_149_F0
 10
-211.9365
 20
-24
 30
570.0884
 70
192
 0
VERTEX
 8
MESH_149_F0
 10
-216.4258
 20
-24
 30
556.61
 70
192
 0
VERTEX
 8
MESH_149_F0
 10
-219.9442
 20
-24
 30
542.8318
 70
192
 0
VERTEX
 8
MESH_149_F0
 10
-222.4696
 20
-24
 30
528.8541
 70
192
 0
VERTEX
 8
MESH_149_F0
 10
-223.9883
 20
-24
 30
514.7438
 70
192
 0
VERTEX
 8
MESH_149_F0
 10
-224.5
 20
-24
 30
500.5
 70
192
 0
VERTEX
 8
MESH_149_F0
 10
-224.5
 20
-24
 30
199.5
 70
192
 0
VERTEX
 8
MESH_149_F0
 10
-223.9882
 20
-24
 30
185.2559
 70
192
 0
VERTEX
 8
MESH_149_F0
 10
-222.4696
 20
-24
 30
171.1454
 70
192
 0
VERTEX
 8
MESH_149_F0
 10
-219.9441
 20
-24
 30
157.1675
 70
192
 0
VERTEX
 8
MESH_149_F0
 10
-216.4256
 20
-24
 30
143.3892
 70
192
 0
VERTEX
 8
MESH_149_F0
 10
-211.9362
 20
-24
 30
129.9107
 70
192
 0
VERTEX
 8
MESH_149_F0
 10
-206.4978
 20
-24
 30
116.791
 70
192
 0
VERTEX
 8
MESH_149_F0
 10
-200.1393
 20
-24
 30
104.0961
 70
192
 0
VERTEX
 8
MESH_149_F0
 10
-192.8921
 20
-24
 30
91.8856
 70
192
 0
VERTEX
 8
MESH_149_F0
 10
-184.7943
 20
-24
 30
80.2262
 70
192
 0
VERTEX
 8
MESH_149_F0
 10
-175.8863
 20
-24
 30
69.1738
 70
192
 0
VERTEX
 8
MESH_149_F0
 10
-166.2135
 20
-24
 30
58.7856
 70
192
 0
VERTEX
 8
MESH_149_F0
 10
-155.8252
 20
-24
 30
49.1128
 70
192
 0
VERTEX
 8
MESH_149_F0
 10
-144.7728
 20
-24
 30
40.2049
 70
192
 0
VERTEX
 8
MESH_149_F0
 10
-133.1133
 20
-24
 30
32.1073
 70
192
 0
VERTEX
 8
MESH_149_F0
 10
-120.9029
 20
-24
 30
24.8601
 70
192
 0
VERTEX
 8
MESH_149_F0
 10
-108.2081
 20
-24
 30
18.5018
 70
192
 0
VERTEX
 8
MESH_149_F0
 10
-95.0884
 20
-24
 30
13.0635
 70
192
 0
VERTEX
 8
MESH_149_F0
 10
-81.61
 20
-24
 30
8.5742
 70
192
 0
VERTEX
 8
MESH_149_F0
 10
-67.8319
 20
-24
 30
5.0557
 70
192
 0
VERTEX
 8
MESH_149_F0
 10
-53.8541
 20
-24
 30
2.5304
 70
192
 0
VERTEX
 8
MESH_149_F0
 10
-39.7439
 20
-24
 30
1.0117
 70
192
 0
VERTEX
 8
MESH_149_F0
 10
0
 20
0
 30
0
 70
128
 71
92
 72
2
 73
1
 74
1
 0
VERTEX
 8
MESH_149_F0
 10
0
 20
0
 30
0
 70
128
 71
3
 72
2
 73
92
 74
92
 0
VERTEX
 8
MESH_149_F0
 10
0
 20
0
 30
0
 70
128
 71
4
 72
3
 73
91
 74
91
 0
VERTEX
 8
MESH_149_F0
 10
0
 20
0
 30
0
 70
128
 71
5
 72
4
 73
90
 74
90
 0
VERTEX
 8
MESH_149_F0
 10
0
 20
0
 30
0
 70
128
 71
6
 72
5
 73
89
 74
89
 0
VERTEX
 8
MESH_149_F0
 10
0
 20
0
 30
0
 70
128
 71
7
 72
6
 73
88
 74
88
 0
VERTEX
 8
MESH_149_F0
 10
0
 20
0
 30
0
 70
128
 71
8
 72
7
 73
87
 74
87
 0
VERTEX
 8
MESH_149_F0
 10
0
 20
0
 30
0
 70
128
 71
9
 72
8
 73
86
 74
86
 0
VERTEX
 8
MESH_149_F0
 10
0
 20
0
 30
0
 70
128
 71
10
 72
9
 73
85
 74
85
 0
VERTEX
 8
MESH_149_F0
 10
0
 20
0
 30
0
 70
128
 71
11
 72
10
 73
84
 74
84
 0
VERTEX
 8
MESH_149_F0
 10
0
 20
0
 30
0
 70
128
 71
12
 72
11
 73
83
 74
83
 0
VERTEX
 8
MESH_149_F0
 10
0
 20
0
 30
0
 70
128
 71
13
 72
12
 73
82
 74
82
 0
VERTEX
 8
MESH_149_F0
 10
0
 20
0
 30
0
 70
128
 71
14
 72
13
 73
81
 74
81
 0
VERTEX
 8
MESH_149_F0
 10
0
 20
0
 30
0
 70
128
 71
15
 72
14
 73
80
 74
80
 0
VERTEX
 8
MESH_149_F0
 10
0
 20
0
 30
0
 70
128
 71
16
 72
15
 73
79
 74
79
 0
VERTEX
 8
MESH_149_F0
 10
0
 20
0
 30
0
 70
128
 71
17
 72
16
 73
78
 74
78
 0
VERTEX
 8
MESH_149_F0
 10
0
 20
0
 30
0
 70
128
 71
18
 72
17
 73
77
 74
77
 0
VERTEX
 8
MESH_149_F0
 10
0
 20
0
 30
0
 70
128
 71
19
 72
18
 73
76
 74
76
 0
VERTEX
 8
MESH_149_F0
 10
0
 20
0
 30
0
 70
128
 71
20
 72
19
 73
75
 74
75
 0
VERTEX
 8
MESH_149_F0
 10
0
 20
0
 30
0
 70
128
 71
21
 72
20
 73
74
 74
74
 0
VERTEX
 8
MESH_149_F0
 10
0
 20
0
 30
0
 70
128
 71
22
 72
21
 73
73
 74
73
 0
VERTEX
 8
MESH_149_F0
 10
0
 20
0
 30
0
 70
128
 71
23
 72
22
 73
72
 74
72
 0
VERTEX
 8
MESH_149_F0
 10
0
 20
0
 30
0
 70
128
 71
24
 72
23
 73
71
 74
71
 0
VERTEX
 8
MESH_149_F0
 10
0
 20
0
 30
0
 70
128
 71
25
 72
24
 73
70
 74
70
 0
VERTEX
 8
MESH_149_F0
 10
0
 20
0
 30
0
 70
128
 71
48
 72
25
 73
69
 74
69
 0
VERTEX
 8
MESH_149_F0
 10
0
 20
0
 30
0
 70
128
 71
48
 72
69
 73
49
 74
49
 0
VERTEX
 8
MESH_149_F0
 10
0
 20
0
 30
0
 70
128
 71
69
 72
50
 73
49
 74
49
 0
VERTEX
 8
MESH_149_F0
 10
0
 20
0
 30
0
 70
128
 71
51
 72
50
 73
69
 74
69
 0
VERTEX
 8
MESH_149_F0
 10
0
 20
0
 30
0
 70
128
 71
51
 72
69
 73
52
 74
52
 0
VERTEX
 8
MESH_149_F0
 10
0
 20
0
 30
0
 70
128
 71
69
 72
53
 73
52
 74
52
 0
VERTEX
 8
MESH_149_F0
 10
0
 20
0
 30
0
 70
128
 71
54
 72
53
 73
69
 74
69
 0
VERTEX
 8
MESH_149_F0
 10
0
 20
0
 30
0
 70
128
 71
54
 72
69
 73
55
 74
55
 0
VERTEX
 8
MESH_149_F0
 10
0
 20
0
 30
0
 70
128
 71
69
 72
56
 73
55
 74
55
 0
VERTEX
 8
MESH_149_F0
 10
0
 20
0
 30
0
 70
128
 71
57
 72
56
 73
69
 74
69
 0
VERTEX
 8
MESH_149_F0
 10
0
 20
0
 30
0
 70
128
 71
57
 72
69
 73
58
 74
58
 0
VERTEX
 8
MESH_149_F0
 10
0
 20
0
 30
0
 70
128
 71
69
 72
59
 73
58
 74
58
 0
VERTEX
 8
MESH_149_F0
 10
0
 20
0
 30
0
 70
128
 71
60
 72
59
 73
69
 74
69
 0
VERTEX
 8
MESH_149_F0
 10
0
 20
0
 30
0
 70
128
 71
60
 72
69
 73
61
 74
61
 0
VERTEX
 8
MESH_149_F0
 10
0
 20
0
 30
0
 70
128
 71
69
 72
62
 73
61
 74
61
 0
VERTEX
 8
MESH_149_F0
 10
0
 20
0
 30
0
 70
128
 71
63
 72
62
 73
69
 74
69
 0
VERTEX
 8
MESH_149_F0
 10
0
 20
0
 30
0
 70
128
 71
63
 72
69
 73
64
 74
64
 0
VERTEX
 8
MESH_149_F0
 10
0
 20
0
 30
0
 70
128
 71
69
 72
65
 73
64
 74
64
 0
VERTEX
 8
MESH_149_F0
 10
0
 20
0
 30
0
 70
128
 71
66
 72
65
 73
69
 74
69
 0
VERTEX
 8
MESH_149_F0
 10
0
 20
0
 30
0
 70
128
 71
66
 72
69
 73
67
 74
67
 0
VERTEX
 8
MESH_149_F0
 10
0
 20
0
 30
0
 70
128
 71
69
 72
68
 73
67
 74
67
 0
VERTEX
 8
MESH_149_F0
 10
0
 20
0
 30
0
 70
128
 71
48
 72
26
 73
25
 74
25
 0
VERTEX
 8
MESH_149_F0
 10
0
 20
0
 30
0
 70
128
 71
47
 72
26
 73
48
 74
48
 0
VERTEX
 8
MESH_149_F0
 10
0
 20
0
 30
0
 70
128
 71
46
 72
26
 73
47
 74
47
 0
VERTEX
 8
MESH_149_F0
 10
0
 20
0
 30
0
 70
128
 71
45
 72
26
 73
46
 74
46
 0
VERTEX
 8
MESH_149_F0
 10
0
 20
0
 30
0
 70
128
 71
44
 72
26
 73
45
 74
45
 0
VERTEX
 8
MESH_149_F0
 10
0
 20
0
 30
0
 70
128
 71
43
 72
26
 73
44
 74
44
 0
VERTEX
 8
MESH_149_F0
 10
0
 20
0
 30
0
 70
128
 71
42
 72
26
 73
43
 74
43
 0
VERTEX
 8
MESH_149_F0
 10
0
 20
0
 30
0
 70
128
 71
41
 72
26
 73
42
 74
42
 0
VERTEX
 8
MESH_149_F0
 10
0
 20
0
 30
0
 70
128
 71
40
 72
26
 73
41
 74
41
 0
VERTEX
 8
MESH_149_F0
 10
0
 20
0
 30
0
 70
128
 71
39
 72
26
 73
40
 74
40
 0
VERTEX
 8
MESH_149_F0
 10
0
 20
0
 30
0
 70
128
 71
27
 72
26
 73
39
 74
39
 0
VERTEX
 8
MESH_149_F0
 10
0
 20
0
 30
0
 70
128
 71
27
 72
39
 73
28
 74
28
 0
VERTEX
 8
MESH_149_F0
 10
0
 20
0
 30
0
 70
128
 71
39
 72
29
 73
28
 74
28
 0
VERTEX
 8
MESH_149_F0
 10
0
 20
0
 30
0
 70
128
 71
30
 72
29
 73
39
 74
39
 0
VERTEX
 8
MESH_149_F0
 10
0
 20
0
 30
0
 70
128
 71
37
 72
30
 73
38
 74
38
 0
VERTEX
 8
MESH_149_F0
 10
0
 20
0
 30
0
 70
128
 71
30
 72
39
 73
38
 74
38
 0
VERTEX
 8
MESH_149_F0
 10
0
 20
0
 30
0
 70
128
 71
30
 72
32
 73
31
 74
31
 0
VERTEX
 8
MESH_149_F0
 10
0
 20
0
 30
0
 70
128
 71
33
 72
32
 73
30
 74
30
 0
VERTEX
 8
MESH_149_F0
 10
0
 20
0
 30
0
 70
128
 71
33
 72
30
 73
34
 74
34
 0
VERTEX
 8
MESH_149_F0
 10
0
 20
0
 30
0
 70
128
 71
30
 72
35
 73
34
 74
34
 0
VERTEX
 8
MESH_149_F0
 10
0
 20
0
 30
0
 70
128
 71
36
 72
35
 73
30
 74
30
 0
VERTEX
 8
MESH_149_F0
 10
0
 20
0
 30
0
 70
128
 71
36
 72
30
 73
37
 74
37
 0
VERTEX
 8
MESH_149_F0
 10
0
 20
0
 30
0
 70
128
 71
25
 72
70
 73
69
 74
69
 0
VERTEX
 8
MESH_149_F0
 10
0
 20
0
 30
0
 70
128
 71
24
 72
71
 73
70
 74
70
 0
VERTEX
 8
MESH_149_F0
 10
0
 20
0
 30
0
 70
128
 71
23
 72
72
 73
71
 74
71
 0
VERTEX
 8
MESH_149_F0
 10
0
 20
0
 30
0
 70
128
 71
22
 72
73
 73
72
 74
72
 0
VERTEX
 8
MESH_149_F0
 10
0
 20
0
 30
0
 70
128
 71
21
 72
74
 73
73
 74
73
 0
VERTEX
 8
MESH_149_F0
 10
0
 20
0
 30
0
 70
128
 71
20
 72
75
 73
74
 74
74
 0
VERTEX
 8
MESH_149_F0
 10
0
 20
0
 30
0
 70
128
 71
19
 72
76
 73
75
 74
75
 0
VERTEX
 8
MESH_149_F0
 10
0
 20
0
 30
0
 70
128
 71
18
 72
77
 73
76
 74
76
 0
VERTEX
 8
MESH_149_F0
 10
0
 20
0
 30
0
 70
128
 71
17
 72
78
 73
77
 74
77
 0
VERTEX
 8
MESH_149_F0
 10
0
 20
0
 30
0
 70
128
 71
16
 72
79
 73
78
 74
78
 0
VERTEX
 8
MESH_149_F0
 10
0
 20
0
 30
0
 70
128
 71
15
 72
80
 73
79
 74
79
 0
VERTEX
 8
MESH_149_F0
 10
0
 20
0
 30
0
 70
128
 71
14
 72
81
 73
80
 74
80
 0
VERTEX
 8
MESH_149_F0
 10
0
 20
0
 30
0
 70
128
 71
13
 72
82
 73
81
 74
81
 0
VERTEX
 8
MESH_149_F0
 10
0
 20
0
 30
0
 70
128
 71
12
 72
83
 73
82
 74
82
 0
VERTEX
 8
MESH_149_F0
 10
0
 20
0
 30
0
 70
128
 71
11
 72
84
 73
83
 74
83
 0
VERTEX
 8
MESH_149_F0
 10
0
 20
0
 30
0
 70
128
 71
10
 72
85
 73
84
 74
84
 0
VERTEX
 8
MESH_149_F0
 10
0
 20
0
 30
0
 70
128
 71
9
 72
86
 73
85
 74
85
 0
VERTEX
 8
MESH_149_F0
 10
0
 20
0
 30
0
 70
128
 71
8
 72
87
 73
86
 74
86
 0
VERTEX
 8
MESH_149_F0
 10
0
 20
0
 30
0
 70
128
 71
7
 72
88
 73
87
 74
87
 0
VERTEX
 8
MESH_149_F0
 10
0
 20
0
 30
0
 70
128
 71
6
 72
89
 73
88
 74
88
 0
VERTEX
 8
MESH_149_F0
 10
0
 20
0
 30
0
 70
128
 71
5
 72
90
 73
89
 74
89
 0
VERTEX
 8
MESH_149_F0
 10
0
 20
0
 30
0
 70
128
 71
4
 72
91
 73
90
 74
90
 0
VERTEX
 8
MESH_149_F0
 10
0
 20
0
 30
0
 70
128
 71
3
 72
92
 73
91
 74
91
 0
SEQEND
 0
POLYLINE
 8
MESH_148_F0
 66
1
 10
0.0
 20
0.0
 30
0.0
 70
64
 71
37
 72
35
 0
VERTEX
 8
MESH_148_F0
 10
-25.5
 20
-20
 30
0.5
 70
192
 0
VERTEX
 8
MESH_148_F0
 10
-25.5
 20
-24
 30
0.5
 70
192
 0
VERTEX
 8
MESH_148_F0
 10
-39.7439
 20
-24
 30
1.0117
 70
192
 0
VERTEX
 8
MESH_148_F0
 10
-53.8541
 20
-24
 30
2.5304
 70
192
 0
VERTEX
 8
MESH_148_F0
 10
-67.8319
 20
-24
 30
5.0557
 70
192
 0
VERTEX
 8
MESH_148_F0
 10
-81.61
 20
-24
 30
8.5742
 70
192
 0
VERTEX
 8
MESH_148_F0
 10
-95.0884
 20
-24
 30
13.0635
 70
192
 0
VERTEX
 8
MESH_148_F0
 10
-108.2081
 20
-24
 30
18.5018
 70
192
 0
VERTEX
 8
MESH_148_F0
 10
-120.9029
 20
-24
 30
24.8601
 70
192
 0
VERTEX
 8
MESH_148_F0
 10
-133.1133
 20
-24
 30
32.1073
 70
192
 0
VERTEX
 8
MESH_148_F0
 10
-144.7728
 20
-24
 30
40.2049
 70
192
 0
VERTEX
 8
MESH_148_F0
 10
-155.8252
 20
-24
 30
49.1128
 70
192
 0
VERTEX
 8
MESH_148_F0
 10
-166.2135
 20
-24
 30
58.7856
 70
192
 0
VERTEX
 8
MESH_148_F0
 10
-175.8863
 20
-24
 30
69.1738
 70
192
 0
VERTEX
 8
MESH_148_F0
 10
-184.7943
 20
-24
 30
80.2262
 70
192
 0
VERTEX
 8
MESH_148_F0
 10
-192.8921
 20
-24
 30
91.8856
 70
192
 0
VERTEX
 8
MESH_148_F0
 10
-200.1393
 20
-24
 30
104.0961
 70
192
 0
VERTEX
 8
MESH_148_F0
 10
-206.4978
 20
-24
 30
116.791
 70
192
 0
VERTEX
 8
MESH_148_F0
 10
-211.9362
 20
-24
 30
129.9107
 70
192
 0
VERTEX
 8
MESH_148_F0
 10
-216.4256
 20
-24
 30
143.3892
 70
192
 0
VERTEX
 8
MESH_148_F0
 10
-219.9441
 20
-24
 30
157.1675
 70
192
 0
VERTEX
 8
MESH_148_F0
 10
-222.4696
 20
-24
 30
171.1454
 70
192
 0
VERTEX
 8
MESH_148_F0
 10
-223.9882
 20
-24
 30
185.2559
 70
192
 0
VERTEX
 8
MESH_148_F0
 10
-224.5
 20
-24
 30
199.5
 70
192
 0
VERTEX
 8
MESH_148_F0
 10
-224.5
 20
-20
 30
199.5
 70
192
 0
VERTEX
 8
MESH_148_F0
 10
-223.0491
 20
-20
 30
175.5132
 70
192
 0
VERTEX
 8
MESH_148_F0
 10
-218.7174
 20
-20
 30
151.8762
 70
192
 0
VERTEX
 8
MESH_148_F0
 10
-211.5682
 20
-20
 30
128.9336
 70
192
 0
VERTEX
 8
MESH_148_F0
 10
-201.7057
 20
-20
 30
107.0201
 70
192
 0
VERTEX
 8
MESH_148_F0
 10
-189.2738
 20
-20
 30
86.4551
 70
192
 0
VERTEX
 8
MESH_148_F0
 10
-174.4536
 20
-20
 30
67.5386
 70
192
 0
VERTEX
 8
MESH_148_F0
 10
-157.4614
 20
-20
 30
50.5464
 70
192
 0
VERTEX
 8
MESH_148_F0
 10
-138.5449
 20
-20
 30
35.7262
 70
192
 0
VERTEX
 8
MESH_148_F0
 10
-117.9799
 20
-20
 30
23.2943
 70
192
 0
VERTEX
 8
MESH_148_F0
 10
-96.0664
 20
-20
 30
13.4318
 70
192
 0
VERTEX
 8
MESH_148_F0
 10
-73.1238
 20
-20
 30
6.2826
 70
192
 0
VERTEX
 8
MESH_148_F0
 10
-49.4868
 20
-20
 30
1.9509
 70
192
 0
VERTEX
 8
MESH_148_F0
 10
0
 20
0
 30
0
 70
128
 71
1
 72
3
 73
2
 74
2
 0
VERTEX
 8
MESH_148_F0
 10
0
 20
0
 30
0
 70
128
 71
37
 72
3
 73
1
 74
1
 0
VERTEX
 8
MESH_148_F0
 10
0
 20
0
 30
0
 70
128
 71
4
 72
3
 73
37
 74
37
 0
VERTEX
 8
MESH_148_F0
 10
0
 20
0
 30
0
 70
128
 71
4
 72
37
 73
5
 74
5
 0
VERTEX
 8
MESH_148_F0
 10
0
 20
0
 30
0
 70
128
 71
37
 72
36
 73
5
 74
5
 0
VERTEX
 8
MESH_148_F0
 10
0
 20
0
 30
0
 70
128
 71
36
 72
6
 73
5
 74
5
 0
VERTEX
 8
MESH_148_F0
 10
0
 20
0
 30
0
 70
128
 71
35
 72
6
 73
36
 74
36
 0
VERTEX
 8
MESH_148_F0
 10
0
 20
0
 30
0
 70
128
 71
7
 72
6
 73
35
 74
35
 0
VERTEX
 8
MESH_148_F0
 10
0
 20
0
 30
0
 70
128
 71
7
 72
35
 73
8
 74
8
 0
VERTEX
 8
MESH_148_F0
 10
0
 20
0
 30
0
 70
128
 71
35
 72
34
 73
8
 74
8
 0
VERTEX
 8
MESH_148_F0
 10
0
 20
0
 30
0
 70
128
 71
34
 72
9
 73
8
 74
8
 0
VERTEX
 8
MESH_148_F0
 10
0
 20
0
 30
0
 70
128
 71
10
 72
9
 73
34
 74
34
 0
VERTEX
 8
MESH_148_F0
 10
0
 20
0
 30
0
 70
128
 71
11
 72
10
 73
33
 74
33
 0
VERTEX
 8
MESH_148_F0
 10
0
 20
0
 30
0
 70
128
 71
12
 72
11
 73
32
 74
32
 0
VERTEX
 8
MESH_148_F0
 10
0
 20
0
 30
0
 70
128
 71
12
 72
32
 73
13
 74
13
 0
VERTEX
 8
MESH_148_F0
 10
0
 20
0
 30
0
 70
128
 71
32
 72
31
 73
13
 74
13
 0
VERTEX
 8
MESH_148_F0
 10
0
 20
0
 30
0
 70
128
 71
31
 72
14
 73
13
 74
13
 0
VERTEX
 8
MESH_148_F0
 10
0
 20
0
 30
0
 70
128
 71
15
 72
14
 73
31
 74
31
 0
VERTEX
 8
MESH_148_F0
 10
0
 20
0
 30
0
 70
128
 71
16
 72
15
 73
30
 74
30
 0
VERTEX
 8
MESH_148_F0
 10
0
 20
0
 30
0
 70
128
 71
17
 72
16
 73
29
 74
29
 0
VERTEX
 8
MESH_148_F0
 10
0
 20
0
 30
0
 70
128
 71
17
 72
29
 73
18
 74
18
 0
VERTEX
 8
MESH_148_F0
 10
0
 20
0
 30
0
 70
128
 71
29
 72
28
 73
18
 74
18
 0
VERTEX
 8
MESH_148_F0
 10
0
 20
0
 30
0
 70
128
 71
28
 72
19
 73
18
 74
18
 0
VERTEX
 8
MESH_148_F0
 10
0
 20
0
 30
0
 70
128
 71
20
 72
19
 73
28
 74
28
 0
VERTEX
 8
MESH_148_F0
 10
0
 20
0
 30
0
 70
128
 71
21
 72
20
 73
27
 74
27
 0
VERTEX
 8
MESH_148_F0
 10
0
 20
0
 30
0
 70
128
 71
21
 72
27
 73
22
 74
22
 0
VERTEX
 8
MESH_148_F0
 10
0
 20
0
 30
0
 70
128
 71
27
 72
26
 73
22
 74
22
 0
VERTEX
 8
MESH_148_F0
 10
0
 20
0
 30
0
 70
128
 71
26
 72
23
 73
22
 74
22
 0
VERTEX
 8
MESH_148_F0
 10
0
 20
0
 30
0
 70
128
 71
25
 72
23
 73
26
 74
26
 0
VERTEX
 8
MESH_148_F0
 10
0
 20
0
 30
0
 70
128
 71
24
 72
23
 73
25
 74
25
 0
VERTEX
 8
MESH_148_F0
 10
0
 20
0
 30
0
 70
128
 71
20
 72
28
 73
27
 74
27
 0
VERTEX
 8
MESH_148_F0
 10
0
 20
0
 30
0
 70
128
 71
16
 72
30
 73
29
 74
29
 0
VERTEX
 8
MESH_148_F0
 10
0
 20
0
 30
0
 70
128
 71
15
 72
31
 73
30
 74
30
 0
VERTEX
 8
MESH_148_F0
 10
0
 20
0
 30
0
 70
128
 71
11
 72
33
 73
32
 74
32
 0
VERTEX
 8
MESH_148_F0
 10
0
 20
0
 30
0
 70
128
 71
10
 72
34
 73
33
 74
33
 0
SEQEND
 0
POLYLINE
 8
MESH_147_F0
 66
1
 10
0.0
 20
0.0
 30
0.0
 70
64
 71
4
 72
2
 0
VERTEX
 8
MESH_147_F0
 10
-224.5
 20
-20
 30
199.5
 70
192
 0
VERTEX
 8
MESH_147_F0
 10
-224.5
 20
-24
 30
199.5
 70
192
 0
VERTEX
 8
MESH_147_F0
 10
-224.5
 20
-24
 30
500.5
 70
192
 0
VERTEX
 8
MESH_147_F0
 10
-224.5
 20
-20
 30
500.5
 70
192
 0
VERTEX
 8
MESH_147_F0
 10
0
 20
0
 30
0
 70
128
 71
4
 72
2
 73
1
 74
1
 0
VERTEX
 8
MESH_147_F0
 10
0
 20
0
 30
0
 70
128
 71
3
 72
2
 73
4
 74
4
 0
SEQEND
 0
POLYLINE
 8
MESH_146_F0
 66
1
 10
0.0
 20
0.0
 30
0.0
 70
64
 71
37
 72
35
 0
VERTEX
 8
MESH_146_F0
 10
-224.5
 20
-20
 30
500.5
 70
192
 0
VERTEX
 8
MESH_146_F0
 10
-224.5
 20
-24
 30
500.5
 70
192
 0
VERTEX
 8
MESH_146_F0
 10
-223.9883
 20
-24
 30
514.7438
 70
192
 0
VERTEX
 8
MESH_146_F0
 10
-222.4696
 20
-24
 30
528.8541
 70
192
 0
VERTEX
 8
MESH_146_F0
 10
-219.9442
 20
-24
 30
542.8318
 70
192
 0
VERTEX
 8
MESH_146_F0
 10
-216.4258
 20
-24
 30
556.61
 70
192
 0
VERTEX
 8
MESH_146_F0
 10
-211.9365
 20
-24
 30
570.0884
 70
192
 0
VERTEX
 8
MESH_146_F0
 10
-206.4982
 20
-24
 30
583.2081
 70
192
 0
VERTEX
 8
MESH_146_F0
 10
-200.1399
 20
-24
 30
595.9028
 70
192
 0
VERTEX
 8
MESH_146_F0
 10
-192.8927
 20
-24
 30
608.1133
 70
192
 0
VERTEX
 8
MESH_146_F0
 10
-184.7951
 20
-24
 30
619.7728
 70
192
 0
VERTEX
 8
MESH_146_F0
 10
-175.8872
 20
-24
 30
630.8252
 70
192
 0
VERTEX
 8
MESH_146_F0
 10
-166.2144
 20
-24
 30
641.2135
 70
192
 0
VERTEX
 8
MESH_146_F0
 10
-155.8262
 20
-24
 30
650.8864
 70
192
 0
VERTEX
 8
MESH_146_F0
 10
-144.7738
 20
-24
 30
659.7943
 70
192
 0
VERTEX
 8
MESH_146_F0
 10
-133.1144
 20
-24
 30
667.8921
 70
192
 0
VERTEX
 8
MESH_146_F0
 10
-120.9039
 20
-24
 30
675.1393
 70
192
 0
VERTEX
 8
MESH_146_F0
 10
-108.209
 20
-24
 30
681.4977
 70
192
 0
VERTEX
 8
MESH_146_F0
 10
-95.0893
 20
-24
 30
686.9362
 70
192
 0
VERTEX
 8
MESH_146_F0
 10
-81.6108
 20
-24
 30
691.4255
 70
192
 0
VERTEX
 8
MESH_146_F0
 10
-67.8324
 20
-24
 30
694.9441
 70
192
 0
VERTEX
 8
MESH_146_F0
 10
-53.8546
 20
-24
 30
697.4696
 70
192
 0
VERTEX
 8
MESH_146_F0
 10
-39.7441
 20
-24
 30
698.9882
 70
192
 0
VERTEX
 8
MESH_146_F0
 10
-25.5
 20
-24
 30
699.5
 70
192
 0
VERTEX
 8
MESH_146_F0
 10
-25.5
 20
-20
 30
699.5
 70
192
 0
VERTEX
 8
MESH_146_F0
 10
-49.4868
 20
-20
 30
698.0491
 70
192
 0
VERTEX
 8
MESH_146_F0
 10
-73.1238
 20
-20
 30
693.7174
 70
192
 0
VERTEX
 8
MESH_146_F0
 10
-96.0664
 20
-20
 30
686.5682
 70
192
 0
VERTEX
 8
MESH_146_F0
 10
-117.9799
 20
-20
 30
676.7057
 70
192
 0
VERTEX
 8
MESH_146_F0
 10
-138.5449
 20
-20
 30
664.2738
 70
192
 0
VERTEX
 8
MESH_146_F0
 10
-157.4614
 20
-20
 30
649.4536
 70
192
 0
VERTEX
 8
MESH_146_F0
 10
-174.4536
 20
-20
 30
632.4614
 70
192
 0
VERTEX
 8
MESH_146_F0
 10
-189.2738
 20
-20
 30
613.5449
 70
192
 0
VERTEX
 8
MESH_146_F0
 10
-201.7057
 20
-20
 30
592.9799
 70
192
 0
VERTEX
 8
MESH_146_F0
 10
-211.5682
 20
-20
 30
571.0663
 70
192
 0
VERTEX
 8
MESH_146_F0
 10
-218.7174
 20
-20
 30
548.1238
 70
192
 0
VERTEX
 8
MESH_146_F0
 10
-223.0491
 20
-20
 30
524.4868
 70
192
 0
VERTEX
 8
MESH_146_F0
 10
0
 20
0
 30
0
 70
128
 71
1
 72
3
 73
2
 74
2
 0
VERTEX
 8
MESH_146_F0
 10
0
 20
0
 30
0
 70
128
 71
37
 72
3
 73
1
 74
1
 0
VERTEX
 8
MESH_146_F0
 10
0
 20
0
 30
0
 70
128
 71
4
 72
3
 73
37
 74
37
 0
VERTEX
 8
MESH_146_F0
 10
0
 20
0
 30
0
 70
128
 71
4
 72
37
 73
5
 74
5
 0
VERTEX
 8
MESH_146_F0
 10
0
 20
0
 30
0
 70
128
 71
37
 72
36
 73
5
 74
5
 0
VERTEX
 8
MESH_146_F0
 10
0
 20
0
 30
0
 70
128
 71
36
 72
6
 73
5
 74
5
 0
VERTEX
 8
MESH_146_F0
 10
0
 20
0
 30
0
 70
128
 71
35
 72
6
 73
36
 74
36
 0
VERTEX
 8
MESH_146_F0
 10
0
 20
0
 30
0
 70
128
 71
7
 72
6
 73
35
 74
35
 0
VERTEX
 8
MESH_146_F0
 10
0
 20
0
 30
0
 70
128
 71
7
 72
35
 73
8
 74
8
 0
VERTEX
 8
MESH_146_F0
 10
0
 20
0
 30
0
 70
128
 71
35
 72
34
 73
8
 74
8
 0
VERTEX
 8
MESH_146_F0
 10
0
 20
0
 30
0
 70
128
 71
34
 72
9
 73
8
 74
8
 0
VERTEX
 8
MESH_146_F0
 10
0
 20
0
 30
0
 70
128
 71
10
 72
9
 73
34
 74
34
 0
VERTEX
 8
MESH_146_F0
 10
0
 20
0
 30
0
 70
128
 71
11
 72
10
 73
33
 74
33
 0
VERTEX
 8
MESH_146_F0
 10
0
 20
0
 30
0
 70
128
 71
12
 72
11
 73
32
 74
32
 0
VERTEX
 8
MESH_146_F0
 10
0
 20
0
 30
0
 70
128
 71
12
 72
32
 73
13
 74
13
 0
VERTEX
 8
MESH_146_F0
 10
0
 20
0
 30
0
 70
128
 71
32
 72
31
 73
13
 74
13
 0
VERTEX
 8
MESH_146_F0
 10
0
 20
0
 30
0
 70
128
 71
31
 72
14
 73
13
 74
13
 0
VERTEX
 8
MESH_146_F0
 10
0
 20
0
 30
0
 70
128
 71
15
 72
14
 73
31
 74
31
 0
VERTEX
 8
MESH_146_F0
 10
0
 20
0
 30
0
 70
128
 71
16
 72
15
 73
30
 74
30
 0
VERTEX
 8
MESH_146_F0
 10
0
 20
0
 30
0
 70
128
 71
17
 72
16
 73
29
 74
29
 0
VERTEX
 8
MESH_146_F0
 10
0
 20
0
 30
0
 70
128
 71
17
 72
29
 73
18
 74
18
 0
VERTEX
 8
MESH_146_F0
 10
0
 20
0
 30
0
 70
128
 71
29
 72
28
 73
18
 74
18
 0
VERTEX
 8
MESH_146_F0
 10
0
 20
0
 30
0
 70
128
 71
28
 72
19
 73
18
 74
18
 0
VERTEX
 8
MESH_146_F0
 10
0
 20
0
 30
0
 70
128
 71
20
 72
19
 73
28
 74
28
 0
VERTEX
 8
MESH_146_F0
 10
0
 20
0
 30
0
 70
128
 71
21
 72
20
 73
27
 74
27
 0
VERTEX
 8
MESH_146_F0
 10
0
 20
0
 30
0
 70
128
 71
21
 72
27
 73
22
 74
22
 0
VERTEX
 8
MESH_146_F0
 10
0
 20
0
 30
0
 70
128
 71
27
 72
26
 73
22
 74
22
 0
VERTEX
 8
MESH_146_F0
 10
0
 20
0
 30
0
 70
128
 71
26
 72
23
 73
22
 74
22
 0
VERTEX
 8
MESH_146_F0
 10
0
 20
0
 30
0
 70
128
 71
25
 72
23
 73
26
 74
26
 0
VERTEX
 8
MESH_146_F0
 10
0
 20
0
 30
0
 70
128
 71
24
 72
23
 73
25
 74
25
 0
VERTEX
 8
MESH_146_F0
 10
0
 20
0
 30
0
 70
128
 71
20
 72
28
 73
27
 74
27
 0
VERTEX
 8
MESH_146_F0
 10
0
 20
0
 30
0
 70
128
 71
16
 72
30
 73
29
 74
29
 0
VERTEX
 8
MESH_146_F0
 10
0
 20
0
 30
0
 70
128
 71
15
 72
31
 73
30
 74
30
 0
VERTEX
 8
MESH_146_F0
 10
0
 20
0
 30
0
 70
128
 71
11
 72
33
 73
32
 74
32
 0
VERTEX
 8
MESH_146_F0
 10
0
 20
0
 30
0
 70
128
 71
10
 72
34
 73
33
 74
33
 0
SEQEND
 0
POLYLINE
 8
MESH_145_F0
 66
1
 10
0.0
 20
0.0
 30
0.0
 70
64
 71
4
 72
2
 0
VERTEX
 8
MESH_145_F0
 10
-25.5
 20
-20
 30
699.5
 70
192
 0
VERTEX
 8
MESH_145_F0
 10
-25.5
 20
-24
 30
699.5
 70
192
 0
VERTEX
 8
MESH_145_F0
 10
25.5
 20
-24
 30
699.5
 70
192
 0
VERTEX
 8
MESH_145_F0
 10
25.5
 20
-20
 30
699.5
 70
192
 0
VERTEX
 8
MESH_145_F0
 10
0
 20
0
 30
0
 70
128
 71
4
 72
2
 73
1
 74
1
 0
VERTEX
 8
MESH_145_F0
 10
0
 20
0
 30
0
 70
128
 71
3
 72
2
 73
4
 74
4
 0
SEQEND
 0
POLYLINE
 8
MESH_144_F0
 66
1
 10
0.0
 20
0.0
 30
0.0
 70
64
 71
37
 72
35
 0
VERTEX
 8
MESH_144_F0
 10
25.5
 20
-20
 30
699.5
 70
192
 0
VERTEX
 8
MESH_144_F0
 10
25.5
 20
-24
 30
699.5
 70
192
 0
VERTEX
 8
MESH_144_F0
 10
39.7439
 20
-24
 30
698.9882
 70
192
 0
VERTEX
 8
MESH_144_F0
 10
53.8541
 20
-24
 30
697.4696
 70
192
 0
VERTEX
 8
MESH_144_F0
 10
67.8319
 20
-24
 30
694.9443
 70
192
 0
VERTEX
 8
MESH_144_F0
 10
81.61
 20
-24
 30
691.4258
 70
192
 0
VERTEX
 8
MESH_144_F0
 10
95.0884
 20
-24
 30
686.9365
 70
192
 0
VERTEX
 8
MESH_144_F0
 10
108.2081
 20
-24
 30
681.4982
 70
192
 0
VERTEX
 8
MESH_144_F0
 10
120.9029
 20
-24
 30
675.1398
 70
192
 0
VERTEX
 8
MESH_144_F0
 10
133.1133
 20
-24
 30
667.8928
 70
192
 0
VERTEX
 8
MESH_144_F0
 10
144.7728
 20
-24
 30
659.795
 70
192
 0
VERTEX
 8
MESH_144_F0
 10
155.8252
 20
-24
 30
650.8871
 70
192
 0
VERTEX
 8
MESH_144_F0
 10
166.2135
 20
-24
 30
641.2144
 70
192
 0
VERTEX
 8
MESH_144_F0
 10
175.8863
 20
-24
 30
630.8262
 70
192
 0
VERTEX
 8
MESH_144_F0
 10
184.7943
 20
-24
 30
619.7737
 70
192
 0
VERTEX
 8
MESH_144_F0
 10
192.8921
 20
-24
 30
608.1144
 70
192
 0
VERTEX
 8
MESH_144_F0
 10
200.1393
 20
-24
 30
595.9038
 70
192
 0
VERTEX
 8
MESH_144_F0
 10
206.4978
 20
-24
 30
583.209
 70
192
 0
VERTEX
 8
MESH_144_F0
 10
211.9362
 20
-24
 30
570.0893
 70
192
 0
VERTEX
 8
MESH_144_F0
 10
216.4256
 20
-24
 30
556.6108
 70
192
 0
VERTEX
 8
MESH_144_F0
 10
219.9441
 20
-24
 30
542.8325
 70
192
 0
VERTEX
 8
MESH_144_F0
 10
222.4696
 20
-24
 30
528.8546
 70
192
 0
VERTEX
 8
MESH_144_F0
 10
223.9882
 20
-24
 30
514.7441
 70
192
 0
VERTEX
 8
MESH_144_F0
 10
224.5
 20
-24
 30
500.5
 70
192
 0
VERTEX
 8
MESH_144_F0
 10
224.5
 20
-20
 30
500.5
 70
192
 0
VERTEX
 8
MESH_144_F0
 10
223.0491
 20
-20
 30
524.4868
 70
192
 0
VERTEX
 8
MESH_144_F0
 10
218.7174
 20
-20
 30
548.1238
 70
192
 0
VERTEX
 8
MESH_144_F0
 10
211.5682
 20
-20
 30
571.0663
 70
192
 0
VERTEX
 8
MESH_144_F0
 10
201.7057
 20
-20
 30
592.9799
 70
192
 0
VERTEX
 8
MESH_144_F0
 10
189.2738
 20
-20
 30
613.5449
 70
192
 0
VERTEX
 8
MESH_144_F0
 10
174.4536
 20
-20
 30
632.4614
 70
192
 0
VERTEX
 8
MESH_144_F0
 10
157.4614
 20
-20
 30
649.4536
 70
192
 0
VERTEX
 8
MESH_144_F0
 10
138.5449
 20
-20
 30
664.2738
 70
192
 0
VERTEX
 8
MESH_144_F0
 10
117.9799
 20
-20
 30
676.7057
 70
192
 0
VERTEX
 8
MESH_144_F0
 10
96.0664
 20
-20
 30
686.5682
 70
192
 0
VERTEX
 8
MESH_144_F0
 10
73.1238
 20
-20
 30
693.7174
 70
192
 0
VERTEX
 8
MESH_144_F0
 10
49.4868
 20
-20
 30
698.0491
 70
192
 0
VERTEX
 8
MESH_144_F0
 10
0
 20
0
 30
0
 70
128
 71
1
 72
3
 73
2
 74
2
 0
VERTEX
 8
MESH_144_F0
 10
0
 20
0
 30
0
 70
128
 71
37
 72
3
 73
1
 74
1
 0
VERTEX
 8
MESH_144_F0
 10
0
 20
0
 30
0
 70
128
 71
4
 72
3
 73
37
 74
37
 0
VERTEX
 8
MESH_144_F0
 10
0
 20
0
 30
0
 70
128
 71
4
 72
37
 73
5
 74
5
 0
VERTEX
 8
MESH_144_F0
 10
0
 20
0
 30
0
 70
128
 71
37
 72
36
 73
5
 74
5
 0
VERTEX
 8
MESH_144_F0
 10
0
 20
0
 30
0
 70
128
 71
36
 72
6
 73
5
 74
5
 0
VERTEX
 8
MESH_144_F0
 10
0
 20
0
 30
0
 70
128
 71
35
 72
6
 73
36
 74
36
 0
VERTEX
 8
MESH_144_F0
 10
0
 20
0
 30
0
 70
128
 71
7
 72
6
 73
35
 74
35
 0
VERTEX
 8
MESH_144_F0
 10
0
 20
0
 30
0
 70
128
 71
7
 72
35
 73
8
 74
8
 0
VERTEX
 8
MESH_144_F0
 10
0
 20
0
 30
0
 70
128
 71
35
 72
34
 73
8
 74
8
 0
VERTEX
 8
MESH_144_F0
 10
0
 20
0
 30
0
 70
128
 71
34
 72
9
 73
8
 74
8
 0
VERTEX
 8
MESH_144_F0
 10
0
 20
0
 30
0
 70
128
 71
10
 72
9
 73
34
 74
34
 0
VERTEX
 8
MESH_144_F0
 10
0
 20
0
 30
0
 70
128
 71
11
 72
10
 73
33
 74
33
 0
VERTEX
 8
MESH_144_F0
 10
0
 20
0
 30
0
 70
128
 71
12
 72
11
 73
32
 74
32
 0
VERTEX
 8
MESH_144_F0
 10
0
 20
0
 30
0
 70
128
 71
12
 72
32
 73
13
 74
13
 0
VERTEX
 8
MESH_144_F0
 10
0
 20
0
 30
0
 70
128
 71
32
 72
31
 73
13
 74
13
 0
VERTEX
 8
MESH_144_F0
 10
0
 20
0
 30
0
 70
128
 71
31
 72
14
 73
13
 74
13
 0
VERTEX
 8
MESH_144_F0
 10
0
 20
0
 30
0
 70
128
 71
15
 72
14
 73
31
 74
31
 0
VERTEX
 8
MESH_144_F0
 10
0
 20
0
 30
0
 70
128
 71
16
 72
15
 73
30
 74
30
 0
VERTEX
 8
MESH_144_F0
 10
0
 20
0
 30
0
 70
128
 71
17
 72
16
 73
29
 74
29
 0
VERTEX
 8
MESH_144_F0
 10
0
 20
0
 30
0
 70
128
 71
17
 72
29
 73
18
 74
18
 0
VERTEX
 8
MESH_144_F0
 10
0
 20
0
 30
0
 70
128
 71
29
 72
28
 73
18
 74
18
 0
VERTEX
 8
MESH_144_F0
 10
0
 20
0
 30
0
 70
128
 71
28
 72
19
 73
18
 74
18
 0
VERTEX
 8
MESH_144_F0
 10
0
 20
0
 30
0
 70
128
 71
20
 72
19
 73
28
 74
28
 0
VERTEX
 8
MESH_144_F0
 10
0
 20
0
 30
0
 70
128
 71
21
 72
20
 73
27
 74
27
 0
VERTEX
 8
MESH_144_F0
 10
0
 20
0
 30
0
 70
128
 71
21
 72
27
 73
22
 74
22
 0
VERTEX
 8
MESH_144_F0
 10
0
 20
0
 30
0
 70
128
 71
27
 72
26
 73
22
 74
22
 0
VERTEX
 8
MESH_144_F0
 10
0
 20
0
 30
0
 70
128
 71
26
 72
23
 73
22
 74
22
 0
VERTEX
 8
MESH_144_F0
 10
0
 20
0
 30
0
 70
128
 71
25
 72
23
 73
26
 74
26
 0
VERTEX
 8
MESH_144_F0
 10
0
 20
0
 30
0
 70
128
 71
24
 72
23
 73
25
 74
25
 0
VERTEX
 8
MESH_144_F0
 10
0
 20
0
 30
0
 70
128
 71
20
 72
28
 73
27
 74
27
 0
VERTEX
 8
MESH_144_F0
 10
0
 20
0
 30
0
 70
128
 71
16
 72
30
 73
29
 74
29
 0
VERTEX
 8
MESH_144_F0
 10
0
 20
0
 30
0
 70
128
 71
15
 72
31
 73
30
 74
30
 0
VERTEX
 8
MESH_144_F0
 10
0
 20
0
 30
0
 70
128
 71
11
 72
33
 73
32
 74
32
 0
VERTEX
 8
MESH_144_F0
 10
0
 20
0
 30
0
 70
128
 71
10
 72
34
 73
33
 74
33
 0
SEQEND
 0
POLYLINE
 8
MESH_143_F0
 66
1
 10
0.0
 20
0.0
 30
0.0
 70
64
 71
4
 72
2
 0
VERTEX
 8
MESH_143_F0
 10
224.5
 20
-20
 30
500.5
 70
192
 0
VERTEX
 8
MESH_143_F0
 10
224.5
 20
-24
 30
500.5
 70
192
 0
VERTEX
 8
MESH_143_F0
 10
224.5
 20
-24
 30
199.5
 70
192
 0
VERTEX
 8
MESH_143_F0
 10
224.5
 20
-20
 30
199.5
 70
192
 0
VERTEX
 8
MESH_143_F0
 10
0
 20
0
 30
0
 70
128
 71
4
 72
2
 73
1
 74
1
 0
VERTEX
 8
MESH_143_F0
 10
0
 20
0
 30
0
 70
128
 71
3
 72
2
 73
4
 74
4
 0
SEQEND
 0
POLYLINE
 8
MESH_142_F0
 66
1
 10
0.0
 20
0.0
 30
0.0
 70
64
 71
37
 72
35
 0
VERTEX
 8
MESH_142_F0
 10
224.5
 20
-20
 30
199.5
 70
192
 0
VERTEX
 8
MESH_142_F0
 10
224.5
 20
-24
 30
199.5
 70
192
 0
VERTEX
 8
MESH_142_F0
 10
223.9883
 20
-24
 30
185.2561
 70
192
 0
VERTEX
 8
MESH_142_F0
 10
222.4696
 20
-24
 30
171.1459
 70
192
 0
VERTEX
 8
MESH_142_F0
 10
219.9442
 20
-24
 30
157.1681
 70
192
 0
VERTEX
 8
MESH_142_F0
 10
216.4258
 20
-24
 30
143.39
 70
192
 0
VERTEX
 8
MESH_142_F0
 10
211.9365
 20
-24
 30
129.9116
 70
192
 0
VERTEX
 8
MESH_142_F0
 10
206.4982
 20
-24
 30
116.7919
 70
192
 0
VERTEX
 8
MESH_142_F0
 10
200.1399
 20
-24
 30
104.0971
 70
192
 0
VERTEX
 8
MESH_142_F0
 10
192.8927
 20
-24
 30
91.8866
 70
192
 0
VERTEX
 8
MESH_142_F0
 10
184.7951
 20
-24
 30
80.2272
 70
192
 0
VERTEX
 8
MESH_142_F0
 10
175.8872
 20
-24
 30
69.1748
 70
192
 0
VERTEX
 8
MESH_142_F0
 10
166.2144
 20
-24
 30
58.7865
 70
192
 0
VERTEX
 8
MESH_142_F0
 10
155.8262
 20
-24
 30
49.1137
 70
192
 0
VERTEX
 8
MESH_142_F0
 10
144.7738
 20
-24
 30
40.2057
 70
192
 0
VERTEX
 8
MESH_142_F0
 10
133.1144
 20
-24
 30
32.1079
 70
192
 0
VERTEX
 8
MESH_142_F0
 10
120.9039
 20
-24
 30
24.8607
 70
192
 0
VERTEX
 8
MESH_142_F0
 10
108.209
 20
-24
 30
18.5022
 70
192
 0
VERTEX
 8
MESH_142_F0
 10
95.0893
 20
-24
 30
13.0638
 70
192
 0
VERTEX
 8
MESH_142_F0
 10
81.6108
 20
-24
 30
8.5744
 70
192
 0
VERTEX
 8
MESH_142_F0
 10
67.8324
 20
-24
 30
5.0559
 70
192
 0
VERTEX
 8
MESH_142_F0
 10
53.8546
 20
-24
 30
2.5304
 70
192
 0
VERTEX
 8
MESH_142_F0
 10
39.7441
 20
-24
 30
1.0118
 70
192
 0
VERTEX
 8
MESH_142_F0
 10
25.5
 20
-24
 30
0.5
 70
192
 0
VERTEX
 8
MESH_142_F0
 10
25.5
 20
-20
 30
0.5
 70
192
 0
VERTEX
 8
MESH_142_F0
 10
49.4868
 20
-20
 30
1.9509
 70
192
 0
VERTEX
 8
MESH_142_F0
 10
73.1238
 20
-20
 30
6.2826
 70
192
 0
VERTEX
 8
MESH_142_F0
 10
96.0664
 20
-20
 30
13.4318
 70
192
 0
VERTEX
 8
MESH_142_F0
 10
117.9799
 20
-20
 30
23.2943
 70
192
 0
VERTEX
 8
MESH_142_F0
 10
138.5449
 20
-20
 30
35.7262
 70
192
 0
VERTEX
 8
MESH_142_F0
 10
157.4614
 20
-20
 30
50.5464
 70
192
 0
VERTEX
 8
MESH_142_F0
 10
174.4536
 20
-20
 30
67.5386
 70
192
 0
VERTEX
 8
MESH_142_F0
 10
189.2738
 20
-20
 30
86.4551
 70
192
 0
VERTEX
 8
MESH_142_F0
 10
201.7057
 20
-20
 30
107.0201
 70
192
 0
VERTEX
 8
MESH_142_F0
 10
211.5682
 20
-20
 30
128.9336
 70
192
 0
VERTEX
 8
MESH_142_F0
 10
218.7174
 20
-20
 30
151.8762
 70
192
 0
VERTEX
 8
MESH_142_F0
 10
223.0491
 20
-20
 30
175.5132
 70
192
 0
VERTEX
 8
MESH_142_F0
 10
0
 20
0
 30
0
 70
128
 71
1
 72
3
 73
2
 74
2
 0
VERTEX
 8
MESH_142_F0
 10
0
 20
0
 30
0
 70
128
 71
37
 72
3
 73
1
 74
1
 0
VERTEX
 8
MESH_142_F0
 10
0
 20
0
 30
0
 70
128
 71
4
 72
3
 73
37
 74
37
 0
VERTEX
 8
MESH_142_F0
 10
0
 20
0
 30
0
 70
128
 71
4
 72
37
 73
5
 74
5
 0
VERTEX
 8
MESH_142_F0
 10
0
 20
0
 30
0
 70
128
 71
37
 72
36
 73
5
 74
5
 0
VERTEX
 8
MESH_142_F0
 10
0
 20
0
 30
0
 70
128
 71
36
 72
6
 73
5
 74
5
 0
VERTEX
 8
MESH_142_F0
 10
0
 20
0
 30
0
 70
128
 71
35
 72
6
 73
36
 74
36
 0
VERTEX
 8
MESH_142_F0
 10
0
 20
0
 30
0
 70
128
 71
7
 72
6
 73
35
 74
35
 0
VERTEX
 8
MESH_142_F0
 10
0
 20
0
 30
0
 70
128
 71
7
 72
35
 73
8
 74
8
 0
VERTEX
 8
MESH_142_F0
 10
0
 20
0
 30
0
 70
128
 71
35
 72
34
 73
8
 74
8
 0
VERTEX
 8
MESH_142_F0
 10
0
 20
0
 30
0
 70
128
 71
34
 72
9
 73
8
 74
8
 0
VERTEX
 8
MESH_142_F0
 10
0
 20
0
 30
0
 70
128
 71
10
 72
9
 73
34
 74
34
 0
VERTEX
 8
MESH_142_F0
 10
0
 20
0
 30
0
 70
128
 71
11
 72
10
 73
33
 74
33
 0
VERTEX
 8
MESH_142_F0
 10
0
 20
0
 30
0
 70
128
 71
12
 72
11
 73
32
 74
32
 0
VERTEX
 8
MESH_142_F0
 10
0
 20
0
 30
0
 70
128
 71
12
 72
32
 73
13
 74
13
 0
VERTEX
 8
MESH_142_F0
 10
0
 20
0
 30
0
 70
128
 71
32
 72
31
 73
13
 74
13
 0
VERTEX
 8
MESH_142_F0
 10
0
 20
0
 30
0
 70
128
 71
31
 72
14
 73
13
 74
13
 0
VERTEX
 8
MESH_142_F0
 10
0
 20
0
 30
0
 70
128
 71
15
 72
14
 73
31
 74
31
 0
VERTEX
 8
MESH_142_F0
 10
0
 20
0
 30
0
 70
128
 71
16
 72
15
 73
30
 74
30
 0
VERTEX
 8
MESH_142_F0
 10
0
 20
0
 30
0
 70
128
 71
17
 72
16
 73
29
 74
29
 0
VERTEX
 8
MESH_142_F0
 10
0
 20
0
 30
0
 70
128
 71
17
 72
29
 73
18
 74
18
 0
VERTEX
 8
MESH_142_F0
 10
0
 20
0
 30
0
 70
128
 71
29
 72
28
 73
18
 74
18
 0
VERTEX
 8
MESH_142_F0
 10
0
 20
0
 30
0
 70
128
 71
28
 72
19
 73
18
 74
18
 0
VERTEX
 8
MESH_142_F0
 10
0
 20
0
 30
0
 70
128
 71
20
 72
19
 73
28
 74
28
 0
VERTEX
 8
MESH_142_F0
 10
0
 20
0
 30
0
 70
128
 71
21
 72
20
 73
27
 74
27
 0
VERTEX
 8
MESH_142_F0
 10
0
 20
0
 30
0
 70
128
 71
21
 72
27
 73
22
 74
22
 0
VERTEX
 8
MESH_142_F0
 10
0
 20
0
 30
0
 70
128
 71
27
 72
26
 73
22
 74
22
 0
VERTEX
 8
MESH_142_F0
 10
0
 20
0
 30
0
 70
128
 71
26
 72
23
 73
22
 74
22
 0
VERTEX
 8
MESH_142_F0
 10
0
 20
0
 30
0
 70
128
 71
25
 72
23
 73
26
 74
26
 0
VERTEX
 8
MESH_142_F0
 10
0
 20
0
 30
0
 70
128
 71
24
 72
23
 73
25
 74
25
 0
VERTEX
 8
MESH_142_F0
 10
0
 20
0
 30
0
 70
128
 71
20
 72
28
 73
27
 74
27
 0
VERTEX
 8
MESH_142_F0
 10
0
 20
0
 30
0
 70
128
 71
16
 72
30
 73
29
 74
29
 0
VERTEX
 8
MESH_142_F0
 10
0
 20
0
 30
0
 70
128
 71
15
 72
31
 73
30
 74
30
 0
VERTEX
 8
MESH_142_F0
 10
0
 20
0
 30
0
 70
128
 71
11
 72
33
 73
32
 74
32
 0
VERTEX
 8
MESH_142_F0
 10
0
 20
0
 30
0
 70
128
 71
10
 72
34
 73
33
 74
33
 0
SEQEND
 0
POLYLINE
 8
MESH_141_F0
 66
1
 10
0.0
 20
0.0
 30
0.0
 70
64
 71
4
 72
2
 0
VERTEX
 8
MESH_141_F0
 10
25.5
 20
-20
 30
0.5
 70
192
 0
VERTEX
 8
MESH_141_F0
 10
25.5
 20
-24
 30
0.5
 70
192
 0
VERTEX
 8
MESH_141_F0
 10
-25.5
 20
-24
 30
0.5
 70
192
 0
VERTEX
 8
MESH_141_F0
 10
-25.5
 20
-20
 30
0.5
 70
192
 0
VERTEX
 8
MESH_141_F0
 10
0
 20
0
 30
0
 70
128
 71
4
 72
2
 73
1
 74
1
 0
VERTEX
 8
MESH_141_F0
 10
0
 20
0
 30
0
 70
128
 71
3
 72
2
 73
4
 74
4
 0
SEQEND
 0
POLYLINE
 8
T7824_3DPL_F0
 66
1
 10
0.0
 20
0.0
 30
0.0
 70
64
 71
12
 72
6
 0
VERTEX
 8
T7824_3DPL_F0
 10
-10
 20
10
 30
0
 70
192
 0
VERTEX
 8
T7824_3DPL_F0
 10
-10
 20
-10
 30
0
 70
192
 0
VERTEX
 8
T7824_3DPL_F0
 10
10
 20
-10
 30
0
 70
192
 0
VERTEX
 8
T7824_3DPL_F0
 10
10
 20
10
 30
0
 70
192
 0
VERTEX
 8
T7824_3DPL_F0
 10
0
 20
10
 30
10
 70
192
 0
VERTEX
 8
T7824_3DPL_F0
 10
0
 20
-10
 30
10
 70
192
 0
VERTEX
 8
T7824_3DPL_F0
 10
0
 20
-10
 30
-10
 70
192
 0
VERTEX
 8
T7824_3DPL_F0
 10
0
 20
10
 30
-10
 70
192
 0
VERTEX
 8
T7824_3DPL_F0
 10
-10
 20
0
 30
10
 70
192
 0
VERTEX
 8
T7824_3DPL_F0
 10
10
 20
0
 30
10
 70
192
 0
VERTEX
 8
T7824_3DPL_F0
 10
10
 20
0
 30
-10
 70
192
 0
VERTEX
 8
T7824_3DPL_F0
 10
-10
 20
0
 30
-10
 70
192
 0
VERTEX
 8
T7824_3DPL_F0
 10
0
 20
0
 30
0
 70
128
 71
4
 72
2
 73
1
 74
1
 0
VERTEX
 8
T7824_3DPL_F0
 10
0
 20
0
 30
0
 70
128
 71
3
 72
2
 73
4
 74
4
 0
VERTEX
 8
T7824_3DPL_F0
 10
0
 20
0
 30
0
 70
128
 71
8
 72
6
 73
5
 74
5
 0
VERTEX
 8
T7824_3DPL_F0
 10
0
 20
0
 30
0
 70
128
 71
7
 72
6
 73
8
 74
8
 0
VERTEX
 8
T7824_3DPL_F0
 10
0
 20
0
 30
0
 70
128
 71
12
 72
10
 73
9
 74
9
 0
VERTEX
 8
T7824_3DPL_F0
 10
0
 20
0
 30
0
 70
128
 71
11
 72
10
 73
12
 74
12
 0
SEQEND
 0
ENDSEC
 0
EOF
