 0
SECTION
 2
HEADER
 9
$ACADVER
 1
AC1009
 0
ENDSEC
 0
SECTION
 2
TABLES
 0
TABLE
 2
LTYPE
 70
1
 0
LTYPE
 2
CONTINUOUS
 70
64
 3
solid line
 72
65
 73
0
 40
0.0
 0
ENDTAB
 0
TABLE
 2
LAYER
 70
6
 0
LAYER
 2
0
 70
0
 62
7
 6
CONTINUOUS
 0
LAYER
 2
MESH_184_F0
 70
64
 62
7
 6
CONTINUOUS
 0
LAYER
 2
MESH_183_F0
 70
64
 62
7
 6
CONTINUOUS
 0
LAYER
 2
MESH_182_F0
 70
64
 62
7
 6
CONTINUOUS
 0
LAYER
 2
MESH_181_F0
 70
64
 62
7
 6
CONTINUOUS
 0
LAYER
 2
MESH_180_F0
 70
64
 62
7
 6
CONTINUOUS
 0
LAYER
 2
MESH_179_F0
 70
64
 62
7
 6
CONTINUOUS
 0
LAYER
 2
MESH_178_F0
 70
64
 62
7
 6
CONTINUOUS
 0
LAYER
 2
MESH_177_F0
 70
64
 62
7
 6
CONTINUOUS
 0
LAYER
 2
MESH_176_F0
 70
64
 62
7
 6
CONTINUOUS
 0
LAYER
 2
MESH_175_F0
 70
64
 62
7
 6
CONTINUOUS
 0
LAYER
 2
MESH_174_F0
 70
64
 62
7
 6
CONTINUOUS
 0
LAYER
 2
MESH_173_F0
 70
64
 62
7
 6
CONTINUOUS
 0
LAYER
 2
MESH_172_F0
 70
64
 62
7
 6
CONTINUOUS
 0
LAYER
 2
MESH_171_F0
 70
64
 62
7
 6
CONTINUOUS
 0
LAYER
 2
MESH_170_F0
 70
64
 62
7
 6
CONTINUOUS
 0
LAYER
 2
MESH_169_F0
 70
64
 62
7
 6
CONTINUOUS
 0
LAYER
 2
MESH_168_F0
 70
64
 62
7
 6
CONTINUOUS
 0
LAYER
 2
MESH_167_F0
 70
64
 62
7
 6
CONTINUOUS
 0
LAYER
 2
MESH_166_F0
 70
64
 62
7
 6
CONTINUOUS
 0
LAYER
 2
MESH_165_F0
 70
64
 62
7
 6
CONTINUOUS
 0
LAYER
 2
MESH_164_F0
 70
64
 62
7
 6
CONTINUOUS
 0
LAYER
 2
MESH_163_F0
 70
64
 62
7
 6
CONTINUOUS
 0
LAYER
 2
MESH_162_F0
 70
64
 62
7
 6
CONTINUOUS
 0
LAYER
 2
MESH_161_F0
 70
64
 62
7
 6
CONTINUOUS
 0
LAYER
 2
MESH_160_F0
 70
64
 62
7
 6
CONTINUOUS
 0
LAYER
 2
MESH_159_F0
 70
64
 62
7
 6
CONTINUOUS
 0
LAYER
 2
MESH_158_F0
 70
64
 62
7
 6
CONTINUOUS
 0
LAYER
 2
MESH_157_F0
 70
64
 62
7
 6
CONTINUOUS
 0
LAYER
 2
MESH_156_F0
 70
64
 62
7
 6
CONTINUOUS
 0
LAYER
 2
MESH_155_F0
 70
64
 62
7
 6
CONTINUOUS
 0
LAYER
 2
MESH_154_F0
 70
64
 62
7
 6
CONTINUOUS
 0
LAYER
 2
MESH_153_F0
 70
64
 62
7
 6
CONTINUOUS
 0
LAYER
 2
T7827_3DPL_F0
 70
64
 62
7
 6
CONTINUOUS
 0
ENDTAB
 0
ENDSEC
 0
SECTION
 2
BLOCKS
 0
ENDSEC
 0
SECTION
 2
ENTITIES
 0
POLYLINE
 8
MESH_184_F0
 66
1
 10
0.0
 20
0.0
 30
0.0
 70
64
 71
8
 72
6
 0
VERTEX
 8
MESH_184_F0
 10
300
 20
-18
 30
580
 70
192
 0
VERTEX
 8
MESH_184_F0
 10
313.4126
 20
-18
 30
578.8676
 70
192
 0
VERTEX
 8
MESH_184_F0
 10
326.4456
 20
-18
 30
575.5025
 70
192
 0
VERTEX
 8
MESH_184_F0
 10
338.7298
 20
-18
 30
570
 70
192
 0
VERTEX
 8
MESH_184_F0
 10
-338.7298
 20
-18
 30
570
 70
192
 0
VERTEX
 8
MESH_184_F0
 10
-326.4456
 20
-18
 30
575.5025
 70
192
 0
VERTEX
 8
MESH_184_F0
 10
-313.4126
 20
-18
 30
578.8676
 70
192
 0
VERTEX
 8
MESH_184_F0
 10
-300
 20
-18
 30
580
 70
192
 0
VERTEX
 8
MESH_184_F0
 10
0
 20
0
 30
0
 70
128
 71
7
 72
1
 73
8
 74
8
 0
VERTEX
 8
MESH_184_F0
 10
0
 20
0
 30
0
 70
128
 71
2
 72
1
 73
7
 74
7
 0
VERTEX
 8
MESH_184_F0
 10
0
 20
0
 30
0
 70
128
 71
3
 72
2
 73
6
 74
6
 0
VERTEX
 8
MESH_184_F0
 10
0
 20
0
 30
0
 70
128
 71
4
 72
3
 73
5
 74
5
 0
VERTEX
 8
MESH_184_F0
 10
0
 20
0
 30
0
 70
128
 71
3
 72
6
 73
5
 74
5
 0
VERTEX
 8
MESH_184_F0
 10
0
 20
0
 30
0
 70
128
 71
2
 72
7
 73
6
 74
6
 0
SEQEND
 0
POLYLINE
 8
MESH_183_F0
 66
1
 10
0.0
 20
0.0
 30
0.0
 70
64
 71
24
 72
22
 0
VERTEX
 8
MESH_183_F0
 10
-380
 20
-17.8
 30
500
 70
192
 0
VERTEX
 8
MESH_183_F0
 10
-378.1906
 20
-17.8
 30
516.9183
 70
192
 0
VERTEX
 8
MESH_183_F0
 10
-372.8443
 20
-17.8
 30
533.0712
 70
192
 0
VERTEX
 8
MESH_183_F0
 10
-364.2029
 20
-17.8
 30
547.7282
 70
192
 0
VERTEX
 8
MESH_183_F0
 10
-352.6573
 20
-17.8
 30
560.2263
 70
192
 0
VERTEX
 8
MESH_183_F0
 10
-338.7298
 20
-17.8
 30
570
 70
192
 0
VERTEX
 8
MESH_183_F0
 10
338.7298
 20
-17.8
 30
570
 70
192
 0
VERTEX
 8
MESH_183_F0
 10
352.6573
 20
-17.8
 30
560.2263
 70
192
 0
VERTEX
 8
MESH_183_F0
 10
364.2029
 20
-17.8
 30
547.7282
 70
192
 0
VERTEX
 8
MESH_183_F0
 10
372.8443
 20
-17.8
 30
533.0712
 70
192
 0
VERTEX
 8
MESH_183_F0
 10
378.1906
 20
-17.8
 30
516.9183
 70
192
 0
VERTEX
 8
MESH_183_F0
 10
380
 20
-17.8
 30
500
 70
192
 0
VERTEX
 8
MESH_183_F0
 10
380
 20
-17.8
 30
200
 70
192
 0
VERTEX
 8
MESH_183_F0
 10
378.1906
 20
-17.8
 30
183.0817
 70
192
 0
VERTEX
 8
MESH_183_F0
 10
372.8443
 20
-17.8
 30
166.9288
 70
192
 0
VERTEX
 8
MESH_183_F0
 10
364.2029
 20
-17.8
 30
152.2718
 70
192
 0
VERTEX
 8
MESH_183_F0
 10
352.6573
 20
-17.8
 30
139.7737
 70
192
 0
VERTEX
 8
MESH_183_F0
 10
338.7298
 20
-17.8
 30
130
 70
192
 0
VERTEX
 8
MESH_183_F0
 10
-338.7298
 20
-17.8
 30
130
 70
192
 0
VERTEX
 8
MESH_183_F0
 10
-352.6573
 20
-17.8
 30
139.7737
 70
192
 0
VERTEX
 8
MESH_183_F0
 10
-364.2029
 20
-17.8
 30
152.2718
 70
192
 0
VERTEX
 8
MESH_183_F0
 10
-372.8443
 20
-17.8
 30
166.9288
 70
192
 0
VERTEX
 8
MESH_183_F0
 10
-378.1906
 20
-17.8
 30
183.0817
 70
192
 0
VERTEX
 8
MESH_183_F0
 10
-380
 20
-17.8
 30
200
 70
192
 0
VERTEX
 8
MESH_183_F0
 10
0
 20
0
 30
0
 70
128
 71
23
 72
1
 73
24
 74
24
 0
VERTEX
 8
MESH_183_F0
 10
0
 20
0
 30
0
 70
128
 71
2
 72
1
 73
23
 74
23
 0
VERTEX
 8
MESH_183_F0
 10
0
 20
0
 30
0
 70
128
 71
3
 72
2
 73
22
 74
22
 0
VERTEX
 8
MESH_183_F0
 10
0
 20
0
 30
0
 70
128
 71
13
 72
3
 73
21
 74
21
 0
VERTEX
 8
MESH_183_F0
 10
0
 20
0
 30
0
 70
128
 71
18
 72
13
 73
19
 74
19
 0
VERTEX
 8
MESH_183_F0
 10
0
 20
0
 30
0
 70
128
 71
13
 72
21
 73
19
 74
19
 0
VERTEX
 8
MESH_183_F0
 10
0
 20
0
 30
0
 70
128
 71
21
 72
20
 73
19
 74
19
 0
VERTEX
 8
MESH_183_F0
 10
0
 20
0
 30
0
 70
128
 71
3
 72
6
 73
4
 74
4
 0
VERTEX
 8
MESH_183_F0
 10
0
 20
0
 30
0
 70
128
 71
6
 72
5
 73
4
 74
4
 0
VERTEX
 8
MESH_183_F0
 10
0
 20
0
 30
0
 70
128
 71
12
 72
6
 73
3
 74
3
 0
VERTEX
 8
MESH_183_F0
 10
0
 20
0
 30
0
 70
128
 71
12
 72
3
 73
13
 74
13
 0
VERTEX
 8
MESH_183_F0
 10
0
 20
0
 30
0
 70
128
 71
7
 72
9
 73
8
 74
8
 0
VERTEX
 8
MESH_183_F0
 10
0
 20
0
 30
0
 70
128
 71
10
 72
9
 73
7
 74
7
 0
VERTEX
 8
MESH_183_F0
 10
0
 20
0
 30
0
 70
128
 71
10
 72
7
 73
11
 74
11
 0
VERTEX
 8
MESH_183_F0
 10
0
 20
0
 30
0
 70
128
 71
7
 72
12
 73
11
 74
11
 0
VERTEX
 8
MESH_183_F0
 10
0
 20
0
 30
0
 70
128
 71
6
 72
12
 73
7
 74
7
 0
VERTEX
 8
MESH_183_F0
 10
0
 20
0
 30
0
 70
128
 71
18
 72
14
 73
13
 74
13
 0
VERTEX
 8
MESH_183_F0
 10
0
 20
0
 30
0
 70
128
 71
15
 72
14
 73
18
 74
18
 0
VERTEX
 8
MESH_183_F0
 10
0
 20
0
 30
0
 70
128
 71
15
 72
18
 73
16
 74
16
 0
VERTEX
 8
MESH_183_F0
 10
0
 20
0
 30
0
 70
128
 71
18
 72
17
 73
16
 74
16
 0
VERTEX
 8
MESH_183_F0
 10
0
 20
0
 30
0
 70
128
 71
3
 72
22
 73
21
 74
21
 0
VERTEX
 8
MESH_183_F0
 10
0
 20
0
 30
0
 70
128
 71
2
 72
23
 73
22
 74
22
 0
SEQEND
 0
POLYLINE
 8
MESH_182_F0
 66
1
 10
0.0
 20
0.0
 30
0.0
 70
64
 71
4
 72
2
 0
VERTEX
 8
MESH_182_F0
 10
-380
 20
-17.8
 30
200
 70
192
 0
VERTEX
 8
MESH_182_F0
 10
-380
 20
0
 30
200
 70
192
 0
VERTEX
 8
MESH_182_F0
 10
-380
 20
0
 30
500
 70
192
 0
VERTEX
 8
MESH_182_F0
 10
-380
 20
-17.8
 30
500
 70
192
 0
VERTEX
 8
MESH_182_F0
 10
0
 20
0
 30
0
 70
128
 71
4
 72
2
 73
1
 74
1
 0
VERTEX
 8
MESH_182_F0
 10
0
 20
0
 30
0
 70
128
 71
3
 72
2
 73
4
 74
4
 0
SEQEND
 0
POLYLINE
 8
MESH_181_F0
 66
1
 10
0.0
 20
0.0
 30
0.0
 70
64
 71
8
 72
6
 0
VERTEX
 8
MESH_181_F0
 10
300
 20
-18
 30
120
 70
192
 0
VERTEX
 8
MESH_181_F0
 10
-300
 20
-18
 30
120
 70
192
 0
VERTEX
 8
MESH_181_F0
 10
-313.4126
 20
-18
 30
121.1324
 70
192
 0
VERTEX
 8
MESH_181_F0
 10
-326.4456
 20
-18
 30
124.4975
 70
192
 0
VERTEX
 8
MESH_181_F0
 10
-338.7298
 20
-18
 30
130
 70
192
 0
VERTEX
 8
MESH_181_F0
 10
338.7298
 20
-18
 30
130
 70
192
 0
VERTEX
 8
MESH_181_F0
 10
326.4456
 20
-18
 30
124.4975
 70
192
 0
VERTEX
 8
MESH_181_F0
 10
313.4126
 20
-18
 30
121.1324
 70
192
 0
VERTEX
 8
MESH_181_F0
 10
0
 20
0
 30
0
 70
128
 71
8
 72
2
 73
1
 74
1
 0
VERTEX
 8
MESH_181_F0
 10
0
 20
0
 30
0
 70
128
 71
3
 72
2
 73
8
 74
8
 0
VERTEX
 8
MESH_181_F0
 10
0
 20
0
 30
0
 70
128
 71
4
 72
3
 73
7
 74
7
 0
VERTEX
 8
MESH_181_F0
 10
0
 20
0
 30
0
 70
128
 71
5
 72
4
 73
6
 74
6
 0
VERTEX
 8
MESH_181_F0
 10
0
 20
0
 30
0
 70
128
 71
4
 72
7
 73
6
 74
6
 0
VERTEX
 8
MESH_181_F0
 10
0
 20
0
 30
0
 70
128
 71
3
 72
8
 73
7
 74
7
 0
SEQEND
 0
POLYLINE
 8
MESH_180_F0
 66
1
 10
0.0
 20
0.0
 30
0.0
 70
64
 71
4
 72
2
 0
VERTEX
 8
MESH_180_F0
 10
300
 20
-18
 30
120
 70
192
 0
VERTEX
 8
MESH_180_F0
 10
300
 20
0
 30
120
 70
192
 0
VERTEX
 8
MESH_180_F0
 10
-300
 20
0
 30
120
 70
192
 0
VERTEX
 8
MESH_180_F0
 10
-300
 20
-18
 30
120
 70
192
 0
VERTEX
 8
MESH_180_F0
 10
0
 20
0
 30
0
 70
128
 71
4
 72
2
 73
1
 74
1
 0
VERTEX
 8
MESH_180_F0
 10
0
 20
0
 30
0
 70
128
 71
3
 72
2
 73
4
 74
4
 0
SEQEND
 0
POLYLINE
 8
MESH_179_F0
 66
1
 10
0.0
 20
0.0
 30
0.0
 70
64
 71
22
 72
20
 0
VERTEX
 8
MESH_179_F0
 10
-300
 20
-18
 30
120
 70
192
 0
VERTEX
 8
MESH_179_F0
 10
-300
 20
0
 30
120
 70
192
 0
VERTEX
 8
MESH_179_F0
 10
-314.3792
 20
0
 30
121.3029
 70
192
 0
VERTEX
 8
MESH_179_F0
 10
-328.29
 20
0
 30
125.1691
 70
192
 0
VERTEX
 8
MESH_179_F0
 10
-341.2794
 20
0
 30
131.4726
 70
192
 0
VERTEX
 8
MESH_179_F0
 10
-352.9242
 20
0
 30
140.0081
 70
192
 0
VERTEX
 8
MESH_179_F0
 10
-355.3777
 20
0
 30
142.2651
 70
192
 0
VERTEX
 8
MESH_179_F0
 10
-357.7349
 20
0
 30
144.6223
 70
192
 0
VERTEX
 8
MESH_179_F0
 10
-359.9919
 20
0
 30
147.0757
 70
192
 0
VERTEX
 8
MESH_179_F0
 10
-368.5274
 20
0
 30
158.7206
 70
192
 0
VERTEX
 8
MESH_179_F0
 10
-374.8309
 20
0
 30
171.71
 70
192
 0
VERTEX
 8
MESH_179_F0
 10
-378.6971
 20
0
 30
185.6208
 70
192
 0
VERTEX
 8
MESH_179_F0
 10
-380
 20
0
 30
200
 70
192
 0
VERTEX
 8
MESH_179_F0
 10
-380
 20
-17.8
 30
200
 70
192
 0
VERTEX
 8
MESH_179_F0
 10
-378.1906
 20
-17.8
 30
183.0817
 70
192
 0
VERTEX
 8
MESH_179_F0
 10
-372.8443
 20
-17.8
 30
166.9288
 70
192
 0
VERTEX
 8
MESH_179_F0
 10
-364.2029
 20
-17.8
 30
152.2718
 70
192
 0
VERTEX
 8
MESH_179_F0
 10
-352.6573
 20
-17.8
 30
139.7737
 70
192
 0
VERTEX
 8
MESH_179_F0
 10
-338.7298
 20
-17.8
 30
130
 70
192
 0
VERTEX
 8
MESH_179_F0
 10
-338.7298
 20
-18
 30
130
 70
192
 0
VERTEX
 8
MESH_179_F0
 10
-326.4456
 20
-18
 30
124.4975
 70
192
 0
VERTEX
 8
MESH_179_F0
 10
-313.4126
 20
-18
 30
121.1324
 70
192
 0
VERTEX
 8
MESH_179_F0
 10
0
 20
0
 30
0
 70
128
 71
22
 72
2
 73
1
 74
1
 0
VERTEX
 8
MESH_179_F0
 10
0
 20
0
 30
0
 70
128
 71
3
 72
2
 73
22
 74
22
 0
VERTEX
 8
MESH_179_F0
 10
0
 20
0
 30
0
 70
128
 71
4
 72
3
 73
21
 74
21
 0
VERTEX
 8
MESH_179_F0
 10
0
 20
0
 30
0
 70
128
 71
5
 72
4
 73
19
 74
19
 0
VERTEX
 8
MESH_179_F0
 10
0
 20
0
 30
0
 70
128
 71
6
 72
5
 73
18
 74
18
 0
VERTEX
 8
MESH_179_F0
 10
0
 20
0
 30
0
 70
128
 71
6
 72
18
 73
7
 74
7
 0
VERTEX
 8
MESH_179_F0
 10
0
 20
0
 30
0
 70
128
 71
18
 72
8
 73
7
 74
7
 0
VERTEX
 8
MESH_179_F0
 10
0
 20
0
 30
0
 70
128
 71
9
 72
8
 73
18
 74
18
 0
VERTEX
 8
MESH_179_F0
 10
0
 20
0
 30
0
 70
128
 71
10
 72
9
 73
17
 74
17
 0
VERTEX
 8
MESH_179_F0
 10
0
 20
0
 30
0
 70
128
 71
11
 72
10
 73
16
 74
16
 0
VERTEX
 8
MESH_179_F0
 10
0
 20
0
 30
0
 70
128
 71
12
 72
11
 73
15
 74
15
 0
VERTEX
 8
MESH_179_F0
 10
0
 20
0
 30
0
 70
128
 71
13
 72
12
 73
14
 74
14
 0
VERTEX
 8
MESH_179_F0
 10
0
 20
0
 30
0
 70
128
 71
12
 72
15
 73
14
 74
14
 0
VERTEX
 8
MESH_179_F0
 10
0
 20
0
 30
0
 70
128
 71
11
 72
16
 73
15
 74
15
 0
VERTEX
 8
MESH_179_F0
 10
0
 20
0
 30
0
 70
128
 71
10
 72
17
 73
16
 74
16
 0
VERTEX
 8
MESH_179_F0
 10
0
 20
0
 30
0
 70
128
 71
9
 72
18
 73
17
 74
17
 0
VERTEX
 8
MESH_179_F0
 10
0
 20
0
 30
0
 70
128
 71
5
 72
19
 73
18
 74
18
 0
VERTEX
 8
MESH_179_F0
 10
0
 20
0
 30
0
 70
128
 71
19
 72
21
 73
20
 74
20
 0
VERTEX
 8
MESH_179_F0
 10
0
 20
0
 30
0
 70
128
 71
4
 72
21
 73
19
 74
19
 0
VERTEX
 8
MESH_179_F0
 10
0
 20
0
 30
0
 70
128
 71
3
 72
22
 73
21
 74
21
 0
SEQEND
 0
POLYLINE
 8
MESH_178_F0
 66
1
 10
0.0
 20
0.0
 30
0.0
 70
64
 71
4
 72
2
 0
VERTEX
 8
MESH_178_F0
 10
-338.7298
 20
-18
 30
130
 70
192
 0
VERTEX
 8
MESH_178_F0
 10
-338.7298
 20
-17.8
 30
130
 70
192
 0
VERTEX
 8
MESH_178_F0
 10
338.7298
 20
-17.8
 30
130
 70
192
 0
VERTEX
 8
MESH_178_F0
 10
338.7298
 20
-18
 30
130
 70
192
 0
VERTEX
 8
MESH_178_F0
 10
0
 20
0
 30
0
 70
128
 71
1
 72
3
 73
2
 74
2
 0
VERTEX
 8
MESH_178_F0
 10
0
 20
0
 30
0
 70
128
 71
4
 72
3
 73
1
 74
1
 0
SEQEND
 0
POLYLINE
 8
MESH_177_F0
 66
1
 10
0.0
 20
0.0
 30
0.0
 70
64
 71
19
 72
17
 0
VERTEX
 8
MESH_177_F0
 10
338.7298
 20
-18
 30
130
 70
192
 0
VERTEX
 8
MESH_177_F0
 10
338.7298
 20
-17.8
 30
130
 70
192
 0
VERTEX
 8
MESH_177_F0
 10
352.6573
 20
-17.8
 30
139.7737
 70
192
 0
VERTEX
 8
MESH_177_F0
 10
364.2029
 20
-17.8
 30
152.2718
 70
192
 0
VERTEX
 8
MESH_177_F0
 10
372.8443
 20
-17.8
 30
166.9288
 70
192
 0
VERTEX
 8
MESH_177_F0
 10
378.1906
 20
-17.8
 30
183.0817
 70
192
 0
VERTEX
 8
MESH_177_F0
 10
380
 20
-17.8
 30
200
 70
192
 0
VERTEX
 8
MESH_177_F0
 10
380
 20
0
 30
200
 70
192
 0
VERTEX
 8
MESH_177_F0
 10
378.4627
 20
0
 30
184.3926
 70
192
 0
VERTEX
 8
MESH_177_F0
 10
373.9102
 20
0
 30
169.3853
 70
192
 0
VERTEX
 8
MESH_177_F0
 10
366.5174
 20
0
 30
155.5544
 70
192
 0
VERTEX
 8
MESH_177_F0
 10
356.5685
 20
0
 30
143.4315
 70
192
 0
VERTEX
 8
MESH_177_F0
 10
344.4456
 20
0
 30
133.4826
 70
192
 0
VERTEX
 8
MESH_177_F0
 10
330.6147
 20
0
 30
126.0897
 70
192
 0
VERTEX
 8
MESH_177_F0
 10
315.6074
 20
0
 30
121.5372
 70
192
 0
VERTEX
 8
MESH_177_F0
 10
300
 20
0
 30
120
 70
192
 0
VERTEX
 8
MESH_177_F0
 10
300
 20
-18
 30
120
 70
192
 0
VERTEX
 8
MESH_177_F0
 10
313.4126
 20
-18
 30
121.1324
 70
192
 0
VERTEX
 8
MESH_177_F0
 10
326.4456
 20
-18
 30
124.4975
 70
192
 0
VERTEX
 8
MESH_177_F0
 10
0
 20
0
 30
0
 70
128
 71
19
 72
2
 73
1
 74
1
 0
VERTEX
 8
MESH_177_F0
 10
0
 20
0
 30
0
 70
128
 71
14
 72
2
 73
19
 74
19
 0
VERTEX
 8
MESH_177_F0
 10
0
 20
0
 30
0
 70
128
 71
14
 72
19
 73
15
 74
15
 0
VERTEX
 8
MESH_177_F0
 10
0
 20
0
 30
0
 70
128
 71
19
 72
18
 73
15
 74
15
 0
VERTEX
 8
MESH_177_F0
 10
0
 20
0
 30
0
 70
128
 71
18
 72
16
 73
15
 74
15
 0
VERTEX
 8
MESH_177_F0
 10
0
 20
0
 30
0
 70
128
 71
17
 72
16
 73
18
 74
18
 0
VERTEX
 8
MESH_177_F0
 10
0
 20
0
 30
0
 70
128
 71
13
 72
2
 73
14
 74
14
 0
VERTEX
 8
MESH_177_F0
 10
0
 20
0
 30
0
 70
128
 71
3
 72
2
 73
13
 74
13
 0
VERTEX
 8
MESH_177_F0
 10
0
 20
0
 30
0
 70
128
 71
4
 72
3
 73
12
 74
12
 0
VERTEX
 8
MESH_177_F0
 10
0
 20
0
 30
0
 70
128
 71
5
 72
4
 73
11
 74
11
 0
VERTEX
 8
MESH_177_F0
 10
0
 20
0
 30
0
 70
128
 71
6
 72
5
 73
10
 74
10
 0
VERTEX
 8
MESH_177_F0
 10
0
 20
0
 30
0
 70
128
 71
7
 72
6
 73
9
 74
9
 0
VERTEX
 8
MESH_177_F0
 10
0
 20
0
 30
0
 70
128
 71
7
 72
9
 73
8
 74
8
 0
VERTEX
 8
MESH_177_F0
 10
0
 20
0
 30
0
 70
128
 71
6
 72
10
 73
9
 74
9
 0
VERTEX
 8
MESH_177_F0
 10
0
 20
0
 30
0
 70
128
 71
5
 72
11
 73
10
 74
10
 0
VERTEX
 8
MESH_177_F0
 10
0
 20
0
 30
0
 70
128
 71
4
 72
12
 73
11
 74
11
 0
VERTEX
 8
MESH_177_F0
 10
0
 20
0
 30
0
 70
128
 71
3
 72
13
 73
12
 74
12
 0
SEQEND
 0
POLYLINE
 8
MESH_176_F0
 66
1
 10
0.0
 20
0.0
 30
0.0
 70
64
 71
4
 72
2
 0
VERTEX
 8
MESH_176_F0
 10
380
 20
-17.8
 30
500
 70
192
 0
VERTEX
 8
MESH_176_F0
 10
380
 20
0
 30
500
 70
192
 0
VERTEX
 8
MESH_176_F0
 10
380
 20
0
 30
200
 70
192
 0
VERTEX
 8
MESH_176_F0
 10
380
 20
-17.8
 30
200
 70
192
 0
VERTEX
 8
MESH_176_F0
 10
0
 20
0
 30
0
 70
128
 71
4
 72
2
 73
1
 74
1
 0
VERTEX
 8
MESH_176_F0
 10
0
 20
0
 30
0
 70
128
 71
3
 72
2
 73
4
 74
4
 0
SEQEND
 0
POLYLINE
 8
MESH_175_F0
 66
1
 10
0.0
 20
0.0
 30
0.0
 70
64
 71
22
 72
20
 0
VERTEX
 8
MESH_175_F0
 10
300
 20
-18
 30
580
 70
192
 0
VERTEX
 8
MESH_175_F0
 10
300
 20
0
 30
580
 70
192
 0
VERTEX
 8
MESH_175_F0
 10
314.3792
 20
0
 30
578.6971
 70
192
 0
VERTEX
 8
MESH_175_F0
 10
328.29
 20
0
 30
574.8309
 70
192
 0
VERTEX
 8
MESH_175_F0
 10
341.2794
 20
0
 30
568.5274
 70
192
 0
VERTEX
 8
MESH_175_F0
 10
352.9242
 20
0
 30
559.9919
 70
192
 0
VERTEX
 8
MESH_175_F0
 10
355.3777
 20
0
 30
557.7349
 70
192
 0
VERTEX
 8
MESH_175_F0
 10
357.7349
 20
0
 30
555.3776
 70
192
 0
VERTEX
 8
MESH_175_F0
 10
359.9919
 20
0
 30
552.9243
 70
192
 0
VERTEX
 8
MESH_175_F0
 10
368.5274
 20
0
 30
541.2794
 70
192
 0
VERTEX
 8
MESH_175_F0
 10
374.8309
 20
0
 30
528.29
 70
192
 0
VERTEX
 8
MESH_175_F0
 10
378.6971
 20
0
 30
514.3792
 70
192
 0
VERTEX
 8
MESH_175_F0
 10
380
 20
0
 30
500
 70
192
 0
VERTEX
 8
MESH_175_F0
 10
380
 20
-17.8
 30
500
 70
192
 0
VERTEX
 8
MESH_175_F0
 10
378.1906
 20
-17.8
 30
516.9183
 70
192
 0
VERTEX
 8
MESH_175_F0
 10
372.8443
 20
-17.8
 30
533.0712
 70
192
 0
VERTEX
 8
MESH_175_F0
 10
364.2029
 20
-17.8
 30
547.7282
 70
192
 0
VERTEX
 8
MESH_175_F0
 10
352.6573
 20
-17.8
 30
560.2263
 70
192
 0
VERTEX
 8
MESH_175_F0
 10
338.7298
 20
-17.8
 30
570
 70
192
 0
VERTEX
 8
MESH_175_F0
 10
338.7298
 20
-18
 30
570
 70
192
 0
VERTEX
 8
MESH_175_F0
 10
326.4456
 20
-18
 30
575.5025
 70
192
 0
VERTEX
 8
MESH_175_F0
 10
313.4126
 20
-18
 30
578.8676
 70
192
 0
VERTEX
 8
MESH_175_F0
 10
0
 20
0
 30
0
 70
128
 71
22
 72
2
 73
1
 74
1
 0
VERTEX
 8
MESH_175_F0
 10
0
 20
0
 30
0
 70
128
 71
3
 72
2
 73
22
 74
22
 0
VERTEX
 8
MESH_175_F0
 10
0
 20
0
 30
0
 70
128
 71
4
 72
3
 73
21
 74
21
 0
VERTEX
 8
MESH_175_F0
 10
0
 20
0
 30
0
 70
128
 71
5
 72
4
 73
19
 74
19
 0
VERTEX
 8
MESH_175_F0
 10
0
 20
0
 30
0
 70
128
 71
6
 72
5
 73
18
 74
18
 0
VERTEX
 8
MESH_175_F0
 10
0
 20
0
 30
0
 70
128
 71
6
 72
18
 73
7
 74
7
 0
VERTEX
 8
MESH_175_F0
 10
0
 20
0
 30
0
 70
128
 71
18
 72
8
 73
7
 74
7
 0
VERTEX
 8
MESH_175_F0
 10
0
 20
0
 30
0
 70
128
 71
9
 72
8
 73
18
 74
18
 0
VERTEX
 8
MESH_175_F0
 10
0
 20
0
 30
0
 70
128
 71
10
 72
9
 73
17
 74
17
 0
VERTEX
 8
MESH_175_F0
 10
0
 20
0
 30
0
 70
128
 71
11
 72
10
 73
16
 74
16
 0
VERTEX
 8
MESH_175_F0
 10
0
 20
0
 30
0
 70
128
 71
12
 72
11
 73
15
 74
15
 0
VERTEX
 8
MESH_175_F0
 10
0
 20
0
 30
0
 70
128
 71
13
 72
12
 73
14
 74
14
 0
VERTEX
 8
MESH_175_F0
 10
0
 20
0
 30
0
 70
128
 71
12
 72
15
 73
14
 74
14
 0
VERTEX
 8
MESH_175_F0
 10
0
 20
0
 30
0
 70
128
 71
11
 72
16
 73
15
 74
15
 0
VERTEX
 8
MESH_175_F0
 10
0
 20
0
 30
0
 70
128
 71
10
 72
17
 73
16
 74
16
 0
VERTEX
 8
MESH_175_F0
 10
0
 20
0
 30
0
 70
128
 71
9
 72
18
 73
17
 74
17
 0
VERTEX
 8
MESH_175_F0
 10
0
 20
0
 30
0
 70
128
 71
5
 72
19
 73
18
 74
18
 0
VERTEX
 8
MESH_175_F0
 10
0
 20
0
 30
0
 70
128
 71
19
 72
21
 73
20
 74
20
 0
VERTEX
 8
MESH_175_F0
 10
0
 20
0
 30
0
 70
128
 71
4
 72
21
 73
19
 74
19
 0
VERTEX
 8
MESH_175_F0
 10
0
 20
0
 30
0
 70
128
 71
3
 72
22
 73
21
 74
21
 0
SEQEND
 0
POLYLINE
 8
MESH_174_F0
 66
1
 10
0.0
 20
0.0
 30
0.0
 70
64
 71
4
 72
2
 0
VERTEX
 8
MESH_174_F0
 10
338.7298
 20
-18
 30
570
 70
192
 0
VERTEX
 8
MESH_174_F0
 10
338.7298
 20
-17.8
 30
570
 70
192
 0
VERTEX
 8
MESH_174_F0
 10
-338.7298
 20
-17.8
 30
570
 70
192
 0
VERTEX
 8
MESH_174_F0
 10
-338.7298
 20
-18
 30
570
 70
192
 0
VERTEX
 8
MESH_174_F0
 10
0
 20
0
 30
0
 70
128
 71
4
 72
2
 73
1
 74
1
 0
VERTEX
 8
MESH_174_F0
 10
0
 20
0
 30
0
 70
128
 71
3
 72
2
 73
4
 74
4
 0
SEQEND
 0
POLYLINE
 8
MESH_173_F0
 66
1
 10
0.0
 20
0.0
 30
0.0
 70
64
 71
22
 72
20
 0
VERTEX
 8
MESH_173_F0
 10
-338.7298
 20
-18
 30
570
 70
192
 0
VERTEX
 8
MESH_173_F0
 10
-338.7298
 20
-17.8
 30
570
 70
192
 0
VERTEX
 8
MESH_173_F0
 10
-352.6573
 20
-17.8
 30
560.2263
 70
192
 0
VERTEX
 8
MESH_173_F0
 10
-364.2029
 20
-17.8
 30
547.7282
 70
192
 0
VERTEX
 8
MESH_173_F0
 10
-372.8443
 20
-17.8
 30
533.0712
 70
192
 0
VERTEX
 8
MESH_173_F0
 10
-378.1906
 20
-17.8
 30
516.9183
 70
192
 0
VERTEX
 8
MESH_173_F0
 10
-380
 20
-17.8
 30
500
 70
192
 0
VERTEX
 8
MESH_173_F0
 10
-380
 20
0
 30
500
 70
192
 0
VERTEX
 8
MESH_173_F0
 10
-378.6971
 20
0
 30
514.3792
 70
192
 0
VERTEX
 8
MESH_173_F0
 10
-374.8309
 20
0
 30
528.29
 70
192
 0
VERTEX
 8
MESH_173_F0
 10
-368.5274
 20
0
 30
541.2794
 70
192
 0
VERTEX
 8
MESH_173_F0
 10
-359.9919
 20
0
 30
552.9243
 70
192
 0
VERTEX
 8
MESH_173_F0
 10
-357.7349
 20
0
 30
555.3776
 70
192
 0
VERTEX
 8
MESH_173_F0
 10
-355.3777
 20
0
 30
557.7349
 70
192
 0
VERTEX
 8
MESH_173_F0
 10
-352.9242
 20
0
 30
559.9919
 70
192
 0
VERTEX
 8
MESH_173_F0
 10
-341.2794
 20
0
 30
568.5274
 70
192
 0
VERTEX
 8
MESH_173_F0
 10
-328.29
 20
0
 30
574.8309
 70
192
 0
VERTEX
 8
MESH_173_F0
 10
-314.3792
 20
0
 30
578.6971
 70
192
 0
VERTEX
 8
MESH_173_F0
 10
-300
 20
0
 30
580
 70
192
 0
VERTEX
 8
MESH_173_F0
 10
-300
 20
-18
 30
580
 70
192
 0
VERTEX
 8
MESH_173_F0
 10
-313.4126
 20
-18
 30
578.8676
 70
192
 0
VERTEX
 8
MESH_173_F0
 10
-326.4456
 20
-18
 30
575.5025
 70
192
 0
VERTEX
 8
MESH_173_F0
 10
0
 20
0
 30
0
 70
128
 71
22
 72
2
 73
1
 74
1
 0
VERTEX
 8
MESH_173_F0
 10
0
 20
0
 30
0
 70
128
 71
17
 72
2
 73
22
 74
22
 0
VERTEX
 8
MESH_173_F0
 10
0
 20
0
 30
0
 70
128
 71
17
 72
22
 73
18
 74
18
 0
VERTEX
 8
MESH_173_F0
 10
0
 20
0
 30
0
 70
128
 71
22
 72
21
 73
18
 74
18
 0
VERTEX
 8
MESH_173_F0
 10
0
 20
0
 30
0
 70
128
 71
21
 72
19
 73
18
 74
18
 0
VERTEX
 8
MESH_173_F0
 10
0
 20
0
 30
0
 70
128
 71
20
 72
19
 73
21
 74
21
 0
VERTEX
 8
MESH_173_F0
 10
0
 20
0
 30
0
 70
128
 71
16
 72
2
 73
17
 74
17
 0
VERTEX
 8
MESH_173_F0
 10
0
 20
0
 30
0
 70
128
 71
3
 72
2
 73
16
 74
16
 0
VERTEX
 8
MESH_173_F0
 10
0
 20
0
 30
0
 70
128
 71
14
 72
3
 73
15
 74
15
 0
VERTEX
 8
MESH_173_F0
 10
0
 20
0
 30
0
 70
128
 71
3
 72
16
 73
15
 74
15
 0
VERTEX
 8
MESH_173_F0
 10
0
 20
0
 30
0
 70
128
 71
13
 72
3
 73
14
 74
14
 0
VERTEX
 8
MESH_173_F0
 10
0
 20
0
 30
0
 70
128
 71
4
 72
3
 73
13
 74
13
 0
VERTEX
 8
MESH_173_F0
 10
0
 20
0
 30
0
 70
128
 71
11
 72
4
 73
12
 74
12
 0
VERTEX
 8
MESH_173_F0
 10
0
 20
0
 30
0
 70
128
 71
4
 72
13
 73
12
 74
12
 0
VERTEX
 8
MESH_173_F0
 10
0
 20
0
 30
0
 70
128
 71
11
 72
5
 73
4
 74
4
 0
VERTEX
 8
MESH_173_F0
 10
0
 20
0
 30
0
 70
128
 71
10
 72
5
 73
11
 74
11
 0
VERTEX
 8
MESH_173_F0
 10
0
 20
0
 30
0
 70
128
 71
6
 72
5
 73
10
 74
10
 0
VERTEX
 8
MESH_173_F0
 10
0
 20
0
 30
0
 70
128
 71
7
 72
6
 73
9
 74
9
 0
VERTEX
 8
MESH_173_F0
 10
0
 20
0
 30
0
 70
128
 71
7
 72
9
 73
8
 74
8
 0
VERTEX
 8
MESH_173_F0
 10
0
 20
0
 30
0
 70
128
 71
6
 72
10
 73
9
 74
9
 0
SEQEND
 0
POLYLINE
 8
MESH_172_F0
 66
1
 10
0.0
 20
0.0
 30
0.0
 70
64
 71
4
 72
2
 0
VERTEX
 8
MESH_172_F0
 10
-300
 20
-18
 30
580
 70
192
 0
VERTEX
 8
MESH_172_F0
 10
-300
 20
0
 30
580
 70
192
 0
VERTEX
 8
MESH_172_F0
 10
300
 20
0
 30
580
 70
192
 0
VERTEX
 8
MESH_172_F0
 10
300
 20
-18
 30
580
 70
192
 0
VERTEX
 8
MESH_172_F0
 10
0
 20
0
 30
0
 70
128
 71
4
 72
2
 73
1
 74
1
 0
VERTEX
 8
MESH_172_F0
 10
0
 20
0
 30
0
 70
128
 71
3
 72
2
 73
4
 74
4
 0
SEQEND
 0
POLYLINE
 8
MESH_171_F0
 66
1
 10
0.0
 20
0.0
 30
0.0
 70
64
 71
81
 72
81
 0
VERTEX
 8
MESH_171_F0
 10
300
 20
0
 30
580
 70
192
 0
VERTEX
 8
MESH_171_F0
 10
-300
 20
0
 30
580
 70
192
 0
VERTEX
 8
MESH_171_F0
 10
-314.3792
 20
0
 30
578.6971
 70
192
 0
VERTEX
 8
MESH_171_F0
 10
-328.29
 20
0
 30
574.8309
 70
192
 0
VERTEX
 8
MESH_171_F0
 10
-341.2794
 20
0
 30
568.5274
 70
192
 0
VERTEX
 8
MESH_171_F0
 10
-352.9242
 20
0
 30
559.9919
 70
192
 0
VERTEX
 8
MESH_171_F0
 10
-355.3777
 20
0
 30
557.7349
 70
192
 0
VERTEX
 8
MESH_171_F0
 10
-357.7349
 20
0
 30
555.3776
 70
192
 0
VERTEX
 8
MESH_171_F0
 10
-359.9919
 20
0
 30
552.9243
 70
192
 0
VERTEX
 8
MESH_171_F0
 10
-368.5274
 20
0
 30
541.2794
 70
192
 0
VERTEX
 8
MESH_171_F0
 10
-374.8309
 20
0
 30
528.29
 70
192
 0
VERTEX
 8
MESH_171_F0
 10
-378.6971
 20
0
 30
514.3792
 70
192
 0
VERTEX
 8
MESH_171_F0
 10
-380
 20
0
 30
500
 70
192
 0
VERTEX
 8
MESH_171_F0
 10
-380
 20
0
 30
200
 70
192
 0
VERTEX
 8
MESH_171_F0
 10
-378.6971
 20
0
 30
185.6208
 70
192
 0
VERTEX
 8
MESH_171_F0
 10
-374.8309
 20
0
 30
171.71
 70
192
 0
VERTEX
 8
MESH_171_F0
 10
-368.5274
 20
0
 30
158.7206
 70
192
 0
VERTEX
 8
MESH_171_F0
 10
-359.9919
 20
0
 30
147.0757
 70
192
 0
VERTEX
 8
MESH_171_F0
 10
-357.7349
 20
0
 30
144.6223
 70
192
 0
VERTEX
 8
MESH_171_F0
 10
-355.3777
 20
0
 30
142.2651
 70
192
 0
VERTEX
 8
MESH_171_F0
 10
-352.9242
 20
0
 30
140.0081
 70
192
 0
VERTEX
 8
MESH_171_F0
 10
-341.2794
 20
0
 30
131.4726
 70
192
 0
VERTEX
 8
MESH_171_F0
 10
-328.29
 20
0
 30
125.1691
 70
192
 0
VERTEX
 8
MESH_171_F0
 10
-314.3792
 20
0
 30
121.3029
 70
192
 0
VERTEX
 8
MESH_171_F0
 10
-300
 20
0
 30
120
 70
192
 0
VERTEX
 8
MESH_171_F0
 10
300
 20
0
 30
120
 70
192
 0
VERTEX
 8
MESH_171_F0
 10
315.6074
 20
0
 30
121.5372
 70
192
 0
VERTEX
 8
MESH_171_F0
 10
330.6147
 20
0
 30
126.0897
 70
192
 0
VERTEX
 8
MESH_171_F0
 10
344.4456
 20
0
 30
133.4826
 70
192
 0
VERTEX
 8
MESH_171_F0
 10
356.5685
 20
0
 30
143.4315
 70
192
 0
VERTEX
 8
MESH_171_F0
 10
366.5174
 20
0
 30
155.5544
 70
192
 0
VERTEX
 8
MESH_171_F0
 10
373.9102
 20
0
 30
169.3853
 70
192
 0
VERTEX
 8
MESH_171_F0
 10
378.4627
 20
0
 30
184.3926
 70
192
 0
VERTEX
 8
MESH_171_F0
 10
380
 20
0
 30
200
 70
192
 0
VERTEX
 8
MESH_171_F0
 10
380
 20
0
 30
500
 70
192
 0
VERTEX
 8
MESH_171_F0
 10
378.6971
 20
0
 30
514.3792
 70
192
 0
VERTEX
 8
MESH_171_F0
 10
374.8309
 20
0
 30
528.29
 70
192
 0
VERTEX
 8
MESH_171_F0
 10
368.5274
 20
0
 30
541.2794
 70
192
 0
VERTEX
 8
MESH_171_F0
 10
359.9919
 20
0
 30
552.9243
 70
192
 0
VERTEX
 8
MESH_171_F0
 10
357.7349
 20
0
 30
555.3776
 70
192
 0
VERTEX
 8
MESH_171_F0
 10
355.3777
 20
0
 30
557.7349
 70
192
 0
VERTEX
 8
MESH_171_F0
 10
352.9242
 20
0
 30
559.9919
 70
192
 0
VERTEX
 8
MESH_171_F0
 10
341.2794
 20
0
 30
568.5274
 70
192
 0
VERTEX
 8
MESH_171_F0
 10
328.29
 20
0
 30
574.8309
 70
192
 0
VERTEX
 8
MESH_171_F0
 10
314.3792
 20
0
 30
578.6971
 70
192
 0
VERTEX
 8
MESH_171_F0
 10
-300
 20
0
 30
700
 70
192
 0
VERTEX
 8
MESH_171_F0
 10
300
 20
0
 30
700
 70
192
 0
VERTEX
 8
MESH_171_F0
 10
339.0077
 20
0
 30
696.158
 70
192
 0
VERTEX
 8
MESH_171_F0
 10
376.5397
 20
0
 30
684.7751
 70
192
 0
VERTEX
 8
MESH_171_F0
 10
411.1136
 20
0
 30
666.2936
 70
192
 0
VERTEX
 8
MESH_171_F0
 10
441.4213
 20
0
 30
641.4213
 70
192
 0
VERTEX
 8
MESH_171_F0
 10
466.2936
 20
0
 30
611.1136
 70
192
 0
VERTEX
 8
MESH_171_F0
 10
484.7751
 20
0
 30
576.5397
 70
192
 0
VERTEX
 8
MESH_171_F0
 10
496.1581
 20
0
 30
539.0077
 70
192
 0
VERTEX
 8
MESH_171_F0
 10
500
 20
0
 30
500
 70
192
 0
VERTEX
 8
MESH_171_F0
 10
500
 20
0
 30
200
 70
192
 0
VERTEX
 8
MESH_171_F0
 10
496.1581
 20
0
 30
160.9923
 70
192
 0
VERTEX
 8
MESH_171_F0
 10
484.7751
 20
0
 30
123.4603
 70
192
 0
VERTEX
 8
MESH_171_F0
 10
466.2936
 20
0
 30
88.8864
 70
192
 0
VERTEX
 8
MESH_171_F0
 10
441.4213
 20
0
 30
58.5787
 70
192
 0
VERTEX
 8
MESH_171_F0
 10
411.1136
 20
0
 30
33.7064
 70
192
 0
VERTEX
 8
MESH_171_F0
 10
376.5397
 20
0
 30
15.2249
 70
192
 0
VERTEX
 8
MESH_171_F0
 10
339.0077
 20
0
 30
3.8419
 70
192
 0
VERTEX
 8
MESH_171_F0
 10
300
 20
0
 30
0
 70
192
 0
VERTEX
 8
MESH_171_F0
 10
-300
 20
0
 30
0
 70
192
 0
VERTEX
 8
MESH_171_F0
 10
-339.0077
 20
0
 30
3.8419
 70
192
 0
VERTEX
 8
MESH_171_F0
 10
-376.5397
 20
0
 30
15.2249
 70
192
 0
VERTEX
 8
MESH_171_F0
 10
-411.1136
 20
0
 30
33.7064
 70
192
 0
VERTEX
 8
MESH_171_F0
 10
-441.4213
 20
0
 30
58.5787
 70
192
 0
VERTEX
 8
MESH_171_F0
 10
-466.2936
 20
0
 30
88.8864
 70
192
 0
VERTEX
 8
MESH_171_F0
 10
-484.7751
 20
0
 30
123.4603
 70
192
 0
VERTEX
 8
MESH_171_F0
 10
-496.1581
 20
0
 30
160.9923
 70
192
 0
VERTEX
 8
MESH_171_F0
 10
-500
 20
0
 30
200
 70
192
 0
VERTEX
 8
MESH_171_F0
 10
-500
 20
0
 30
500
 70
192
 0
VERTEX
 8
MESH_171_F0
 10
-496.1581
 20
0
 30
539.0077
 70
192
 0
VERTEX
 8
MESH_171_F0
 10
-484.7751
 20
0
 30
576.5397
 70
192
 0
VERTEX
 8
MESH_171_F0
 10
-466.2936
 20
0
 30
611.1136
 70
192
 0
VERTEX
 8
MESH_171_F0
 10
-441.4213
 20
0
 30
641.4213
 70
192
 0
VERTEX
 8
MESH_171_F0
 10
-411.1136
 20
0
 30
666.2936
 70
192
 0
VERTEX
 8
MESH_171_F0
 10
-376.5397
 20
0
 30
684.7751
 70
192
 0
VERTEX
 8
MESH_171_F0
 10
-339.0077
 20
0
 30
696.158
 70
192
 0
VERTEX
 8
MESH_171_F0
 10
0
 20
0
 30
0
 70
128
 71
2
 72
46
 73
81
 74
81
 0
VERTEX
 8
MESH_171_F0
 10
0
 20
0
 30
0
 70
128
 71
3
 72
2
 73
80
 74
80
 0
VERTEX
 8
MESH_171_F0
 10
0
 20
0
 30
0
 70
128
 71
4
 72
3
 73
79
 74
79
 0
VERTEX
 8
MESH_171_F0
 10
0
 20
0
 30
0
 70
128
 71
5
 72
4
 73
78
 74
78
 0
VERTEX
 8
MESH_171_F0
 10
0
 20
0
 30
0
 70
128
 71
6
 72
5
 73
77
 74
77
 0
VERTEX
 8
MESH_171_F0
 10
0
 20
0
 30
0
 70
128
 71
6
 72
77
 73
7
 74
7
 0
VERTEX
 8
MESH_171_F0
 10
0
 20
0
 30
0
 70
128
 71
77
 72
8
 73
7
 74
7
 0
VERTEX
 8
MESH_171_F0
 10
0
 20
0
 30
0
 70
128
 71
76
 72
8
 73
77
 74
77
 0
VERTEX
 8
MESH_171_F0
 10
0
 20
0
 30
0
 70
128
 71
9
 72
8
 73
76
 74
76
 0
VERTEX
 8
MESH_171_F0
 10
0
 20
0
 30
0
 70
128
 71
9
 72
76
 73
10
 74
10
 0
VERTEX
 8
MESH_171_F0
 10
0
 20
0
 30
0
 70
128
 71
76
 72
75
 73
10
 74
10
 0
VERTEX
 8
MESH_171_F0
 10
0
 20
0
 30
0
 70
128
 71
75
 72
11
 73
10
 74
10
 0
VERTEX
 8
MESH_171_F0
 10
0
 20
0
 30
0
 70
128
 71
12
 72
11
 73
75
 74
75
 0
VERTEX
 8
MESH_171_F0
 10
0
 20
0
 30
0
 70
128
 71
13
 72
12
 73
74
 74
74
 0
VERTEX
 8
MESH_171_F0
 10
0
 20
0
 30
0
 70
128
 71
14
 72
13
 73
73
 74
73
 0
VERTEX
 8
MESH_171_F0
 10
0
 20
0
 30
0
 70
128
 71
14
 72
73
 73
15
 74
15
 0
VERTEX
 8
MESH_171_F0
 10
0
 20
0
 30
0
 70
128
 71
73
 72
72
 73
15
 74
15
 0
VERTEX
 8
MESH_171_F0
 10
0
 20
0
 30
0
 70
128
 71
72
 72
16
 73
15
 74
15
 0
VERTEX
 8
MESH_171_F0
 10
0
 20
0
 30
0
 70
128
 71
17
 72
16
 73
72
 74
72
 0
VERTEX
 8
MESH_171_F0
 10
0
 20
0
 30
0
 70
128
 71
18
 72
17
 73
71
 74
71
 0
VERTEX
 8
MESH_171_F0
 10
0
 20
0
 30
0
 70
128
 71
18
 72
71
 73
19
 74
19
 0
VERTEX
 8
MESH_171_F0
 10
0
 20
0
 30
0
 70
128
 71
71
 72
70
 73
19
 74
19
 0
VERTEX
 8
MESH_171_F0
 10
0
 20
0
 30
0
 70
128
 71
70
 72
20
 73
19
 74
19
 0
VERTEX
 8
MESH_171_F0
 10
0
 20
0
 30
0
 70
128
 71
21
 72
20
 73
70
 74
70
 0
VERTEX
 8
MESH_171_F0
 10
0
 20
0
 30
0
 70
128
 71
21
 72
70
 73
22
 74
22
 0
VERTEX
 8
MESH_171_F0
 10
0
 20
0
 30
0
 70
128
 71
70
 72
69
 73
22
 74
22
 0
VERTEX
 8
MESH_171_F0
 10
0
 20
0
 30
0
 70
128
 71
69
 72
23
 73
22
 74
22
 0
VERTEX
 8
MESH_171_F0
 10
0
 20
0
 30
0
 70
128
 71
68
 72
23
 73
69
 74
69
 0
VERTEX
 8
MESH_171_F0
 10
0
 20
0
 30
0
 70
128
 71
24
 72
23
 73
68
 74
68
 0
VERTEX
 8
MESH_171_F0
 10
0
 20
0
 30
0
 70
128
 71
25
 72
24
 73
67
 74
67
 0
VERTEX
 8
MESH_171_F0
 10
0
 20
0
 30
0
 70
128
 71
65
 72
25
 73
66
 74
66
 0
VERTEX
 8
MESH_171_F0
 10
0
 20
0
 30
0
 70
128
 71
25
 72
67
 73
66
 74
66
 0
VERTEX
 8
MESH_171_F0
 10
0
 20
0
 30
0
 70
128
 71
65
 72
26
 73
25
 74
25
 0
VERTEX
 8
MESH_171_F0
 10
0
 20
0
 30
0
 70
128
 71
64
 72
26
 73
65
 74
65
 0
VERTEX
 8
MESH_171_F0
 10
0
 20
0
 30
0
 70
128
 71
63
 72
26
 73
64
 74
64
 0
VERTEX
 8
MESH_171_F0
 10
0
 20
0
 30
0
 70
128
 71
62
 72
26
 73
63
 74
63
 0
VERTEX
 8
MESH_171_F0
 10
0
 20
0
 30
0
 70
128
 71
27
 72
26
 73
62
 74
62
 0
VERTEX
 8
MESH_171_F0
 10
0
 20
0
 30
0
 70
128
 71
28
 72
27
 73
61
 74
61
 0
VERTEX
 8
MESH_171_F0
 10
0
 20
0
 30
0
 70
128
 71
29
 72
28
 73
60
 74
60
 0
VERTEX
 8
MESH_171_F0
 10
0
 20
0
 30
0
 70
128
 71
30
 72
29
 73
59
 74
59
 0
VERTEX
 8
MESH_171_F0
 10
0
 20
0
 30
0
 70
128
 71
31
 72
30
 73
58
 74
58
 0
VERTEX
 8
MESH_171_F0
 10
0
 20
0
 30
0
 70
128
 71
32
 72
31
 73
57
 74
57
 0
VERTEX
 8
MESH_171_F0
 10
0
 20
0
 30
0
 70
128
 71
32
 72
57
 73
33
 74
33
 0
VERTEX
 8
MESH_171_F0
 10
0
 20
0
 30
0
 70
128
 71
57
 72
56
 73
33
 74
33
 0
VERTEX
 8
MESH_171_F0
 10
0
 20
0
 30
0
 70
128
 71
56
 72
34
 73
33
 74
33
 0
VERTEX
 8
MESH_171_F0
 10
0
 20
0
 30
0
 70
128
 71
55
 72
34
 73
56
 74
56
 0
VERTEX
 8
MESH_171_F0
 10
0
 20
0
 30
0
 70
128
 71
35
 72
34
 73
55
 74
55
 0
VERTEX
 8
MESH_171_F0
 10
0
 20
0
 30
0
 70
128
 71
35
 72
55
 73
36
 74
36
 0
VERTEX
 8
MESH_171_F0
 10
0
 20
0
 30
0
 70
128
 71
55
 72
54
 73
36
 74
36
 0
VERTEX
 8
MESH_171_F0
 10
0
 20
0
 30
0
 70
128
 71
54
 72
37
 73
36
 74
36
 0
VERTEX
 8
MESH_171_F0
 10
0
 20
0
 30
0
 70
128
 71
38
 72
37
 73
54
 74
54
 0
VERTEX
 8
MESH_171_F0
 10
0
 20
0
 30
0
 70
128
 71
39
 72
38
 73
53
 74
53
 0
VERTEX
 8
MESH_171_F0
 10
0
 20
0
 30
0
 70
128
 71
39
 72
53
 73
40
 74
40
 0
VERTEX
 8
MESH_171_F0
 10
0
 20
0
 30
0
 70
128
 71
53
 72
52
 73
40
 74
40
 0
VERTEX
 8
MESH_171_F0
 10
0
 20
0
 30
0
 70
128
 71
52
 72
41
 73
40
 74
40
 0
VERTEX
 8
MESH_171_F0
 10
0
 20
0
 30
0
 70
128
 71
42
 72
41
 73
52
 74
52
 0
VERTEX
 8
MESH_171_F0
 10
0
 20
0
 30
0
 70
128
 71
42
 72
52
 73
43
 74
43
 0
VERTEX
 8
MESH_171_F0
 10
0
 20
0
 30
0
 70
128
 71
52
 72
51
 73
43
 74
43
 0
VERTEX
 8
MESH_171_F0
 10
0
 20
0
 30
0
 70
128
 71
51
 72
44
 73
43
 74
43
 0
VERTEX
 8
MESH_171_F0
 10
0
 20
0
 30
0
 70
128
 71
50
 72
44
 73
51
 74
51
 0
VERTEX
 8
MESH_171_F0
 10
0
 20
0
 30
0
 70
128
 71
45
 72
44
 73
50
 74
50
 0
VERTEX
 8
MESH_171_F0
 10
0
 20
0
 30
0
 70
128
 71
1
 72
45
 73
49
 74
49
 0
VERTEX
 8
MESH_171_F0
 10
0
 20
0
 30
0
 70
128
 71
47
 72
1
 73
48
 74
48
 0
VERTEX
 8
MESH_171_F0
 10
0
 20
0
 30
0
 70
128
 71
1
 72
49
 73
48
 74
48
 0
VERTEX
 8
MESH_171_F0
 10
0
 20
0
 30
0
 70
128
 71
2
 72
47
 73
46
 74
46
 0
VERTEX
 8
MESH_171_F0
 10
0
 20
0
 30
0
 70
128
 71
1
 72
47
 73
2
 74
2
 0
VERTEX
 8
MESH_171_F0
 10
0
 20
0
 30
0
 70
128
 71
45
 72
50
 73
49
 74
49
 0
VERTEX
 8
MESH_171_F0
 10
0
 20
0
 30
0
 70
128
 71
38
 72
54
 73
53
 74
53
 0
VERTEX
 8
MESH_171_F0
 10
0
 20
0
 30
0
 70
128
 71
31
 72
58
 73
57
 74
57
 0
VERTEX
 8
MESH_171_F0
 10
0
 20
0
 30
0
 70
128
 71
30
 72
59
 73
58
 74
58
 0
VERTEX
 8
MESH_171_F0
 10
0
 20
0
 30
0
 70
128
 71
29
 72
60
 73
59
 74
59
 0
VERTEX
 8
MESH_171_F0
 10
0
 20
0
 30
0
 70
128
 71
28
 72
61
 73
60
 74
60
 0
VERTEX
 8
MESH_171_F0
 10
0
 20
0
 30
0
 70
128
 71
27
 72
62
 73
61
 74
61
 0
VERTEX
 8
MESH_171_F0
 10
0
 20
0
 30
0
 70
128
 71
24
 72
68
 73
67
 74
67
 0
VERTEX
 8
MESH_171_F0
 10
0
 20
0
 30
0
 70
128
 71
17
 72
72
 73
71
 74
71
 0
VERTEX
 8
MESH_171_F0
 10
0
 20
0
 30
0
 70
128
 71
13
 72
74
 73
73
 74
73
 0
VERTEX
 8
MESH_171_F0
 10
0
 20
0
 30
0
 70
128
 71
12
 72
75
 73
74
 74
74
 0
VERTEX
 8
MESH_171_F0
 10
0
 20
0
 30
0
 70
128
 71
5
 72
78
 73
77
 74
77
 0
VERTEX
 8
MESH_171_F0
 10
0
 20
0
 30
0
 70
128
 71
4
 72
79
 73
78
 74
78
 0
VERTEX
 8
MESH_171_F0
 10
0
 20
0
 30
0
 70
128
 71
3
 72
80
 73
79
 74
79
 0
VERTEX
 8
MESH_171_F0
 10
0
 20
0
 30
0
 70
128
 71
2
 72
81
 73
80
 74
80
 0
SEQEND
 0
POLYLINE
 8
MESH_170_F0
 66
1
 10
0.0
 20
0.0
 30
0.0
 70
64
 71
18
 72
16
 0
VERTEX
 8
MESH_170_F0
 10
-500
 20
0
 30
500
 70
192
 0
VERTEX
 8
MESH_170_F0
 10
-500
 20
-18
 30
500
 70
192
 0
VERTEX
 8
MESH_170_F0
 10
-496.1581
 20
-18
 30
539.0077
 70
192
 0
VERTEX
 8
MESH_170_F0
 10
-484.7751
 20
-18
 30
576.5397
 70
192
 0
VERTEX
 8
MESH_170_F0
 10
-466.2936
 20
-18
 30
611.1136
 70
192
 0
VERTEX
 8
MESH_170_F0
 10
-441.4213
 20
-18
 30
641.4213
 70
192
 0
VERTEX
 8
MESH_170_F0
 10
-411.1136
 20
-18
 30
666.2936
 70
192
 0
VERTEX
 8
MESH_170_F0
 10
-376.5397
 20
-18
 30
684.7751
 70
192
 0
VERTEX
 8
MESH_170_F0
 10
-339.0077
 20
-18
 30
696.158
 70
192
 0
VERTEX
 8
MESH_170_F0
 10
-300
 20
-18
 30
700
 70
192
 0
VERTEX
 8
MESH_170_F0
 10
-300
 20
0
 30
700
 70
192
 0
VERTEX
 8
MESH_170_F0
 10
-339.0077
 20
0
 30
696.158
 70
192
 0
VERTEX
 8
MESH_170_F0
 10
-376.5397
 20
0
 30
684.7751
 70
192
 0
VERTEX
 8
MESH_170_F0
 10
-411.1136
 20
0
 30
666.2936
 70
192
 0
VERTEX
 8
MESH_170_F0
 10
-441.4213
 20
0
 30
641.4213
 70
192
 0
VERTEX
 8
MESH_170_F0
 10
-466.2936
 20
0
 30
611.1136
 70
192
 0
VERTEX
 8
MESH_170_F0
 10
-484.7751
 20
0
 30
576.5397
 70
192
 0
VERTEX
 8
MESH_170_F0
 10
-496.1581
 20
0
 30
539.0077
 70
192
 0
VERTEX
 8
MESH_170_F0
 10
0
 20
0
 30
0
 70
128
 71
1
 72
3
 73
2
 74
2
 0
VERTEX
 8
MESH_170_F0
 10
0
 20
0
 30
0
 70
128
 71
18
 72
3
 73
1
 74
1
 0
VERTEX
 8
MESH_170_F0
 10
0
 20
0
 30
0
 70
128
 71
4
 72
3
 73
18
 74
18
 0
VERTEX
 8
MESH_170_F0
 10
0
 20
0
 30
0
 70
128
 71
5
 72
4
 73
17
 74
17
 0
VERTEX
 8
MESH_170_F0
 10
0
 20
0
 30
0
 70
128
 71
6
 72
5
 73
16
 74
16
 0
VERTEX
 8
MESH_170_F0
 10
0
 20
0
 30
0
 70
128
 71
7
 72
6
 73
15
 74
15
 0
VERTEX
 8
MESH_170_F0
 10
0
 20
0
 30
0
 70
128
 71
13
 72
7
 73
14
 74
14
 0
VERTEX
 8
MESH_170_F0
 10
0
 20
0
 30
0
 70
128
 71
7
 72
15
 73
14
 74
14
 0
VERTEX
 8
MESH_170_F0
 10
0
 20
0
 30
0
 70
128
 71
13
 72
8
 73
7
 74
7
 0
VERTEX
 8
MESH_170_F0
 10
0
 20
0
 30
0
 70
128
 71
9
 72
8
 73
13
 74
13
 0
VERTEX
 8
MESH_170_F0
 10
0
 20
0
 30
0
 70
128
 71
10
 72
9
 73
12
 74
12
 0
VERTEX
 8
MESH_170_F0
 10
0
 20
0
 30
0
 70
128
 71
10
 72
12
 73
11
 74
11
 0
VERTEX
 8
MESH_170_F0
 10
0
 20
0
 30
0
 70
128
 71
9
 72
13
 73
12
 74
12
 0
VERTEX
 8
MESH_170_F0
 10
0
 20
0
 30
0
 70
128
 71
6
 72
16
 73
15
 74
15
 0
VERTEX
 8
MESH_170_F0
 10
0
 20
0
 30
0
 70
128
 71
5
 72
17
 73
16
 74
16
 0
VERTEX
 8
MESH_170_F0
 10
0
 20
0
 30
0
 70
128
 71
4
 72
18
 73
17
 74
17
 0
SEQEND
 0
POLYLINE
 8
MESH_169_F0
 66
1
 10
0.0
 20
0.0
 30
0.0
 70
64
 71
4
 72
2
 0
VERTEX
 8
MESH_169_F0
 10
-300
 20
0
 30
700
 70
192
 0
VERTEX
 8
MESH_169_F0
 10
-300
 20
-18
 30
700
 70
192
 0
VERTEX
 8
MESH_169_F0
 10
300
 20
-18
 30
700
 70
192
 0
VERTEX
 8
MESH_169_F0
 10
300
 20
0
 30
700
 70
192
 0
VERTEX
 8
MESH_169_F0
 10
0
 20
0
 30
0
 70
128
 71
4
 72
2
 73
1
 74
1
 0
VERTEX
 8
MESH_169_F0
 10
0
 20
0
 30
0
 70
128
 71
3
 72
2
 73
4
 74
4
 0
SEQEND
 0
POLYLINE
 8
MESH_168_F0
 66
1
 10
0.0
 20
0.0
 30
0.0
 70
64
 71
18
 72
16
 0
VERTEX
 8
MESH_168_F0
 10
300
 20
0
 30
700
 70
192
 0
VERTEX
 8
MESH_168_F0
 10
300
 20
-18
 30
700
 70
192
 0
VERTEX
 8
MESH_168_F0
 10
339.0077
 20
-18
 30
696.158
 70
192
 0
VERTEX
 8
MESH_168_F0
 10
376.5397
 20
-18
 30
684.7751
 70
192
 0
VERTEX
 8
MESH_168_F0
 10
411.1136
 20
-18
 30
666.2936
 70
192
 0
VERTEX
 8
MESH_168_F0
 10
441.4213
 20
-18
 30
641.4213
 70
192
 0
VERTEX
 8
MESH_168_F0
 10
466.2936
 20
-18
 30
611.1136
 70
192
 0
VERTEX
 8
MESH_168_F0
 10
484.7751
 20
-18
 30
576.5397
 70
192
 0
VERTEX
 8
MESH_168_F0
 10
496.1581
 20
-18
 30
539.0077
 70
192
 0
VERTEX
 8
MESH_168_F0
 10
500
 20
-18
 30
500
 70
192
 0
VERTEX
 8
MESH_168_F0
 10
500
 20
0
 30
500
 70
192
 0
VERTEX
 8
MESH_168_F0
 10
496.1581
 20
0
 30
539.0077
 70
192
 0
VERTEX
 8
MESH_168_F0
 10
484.7751
 20
0
 30
576.5397
 70
192
 0
VERTEX
 8
MESH_168_F0
 10
466.2936
 20
0
 30
611.1136
 70
192
 0
VERTEX
 8
MESH_168_F0
 10
441.4213
 20
0
 30
641.4213
 70
192
 0
VERTEX
 8
MESH_168_F0
 10
411.1136
 20
0
 30
666.2936
 70
192
 0
VERTEX
 8
MESH_168_F0
 10
376.5397
 20
0
 30
684.7751
 70
192
 0
VERTEX
 8
MESH_168_F0
 10
339.0077
 20
0
 30
696.158
 70
192
 0
VERTEX
 8
MESH_168_F0
 10
0
 20
0
 30
0
 70
128
 71
1
 72
3
 73
2
 74
2
 0
VERTEX
 8
MESH_168_F0
 10
0
 20
0
 30
0
 70
128
 71
18
 72
3
 73
1
 74
1
 0
VERTEX
 8
MESH_168_F0
 10
0
 20
0
 30
0
 70
128
 71
4
 72
3
 73
18
 74
18
 0
VERTEX
 8
MESH_168_F0
 10
0
 20
0
 30
0
 70
128
 71
5
 72
4
 73
17
 74
17
 0
VERTEX
 8
MESH_168_F0
 10
0
 20
0
 30
0
 70
128
 71
6
 72
5
 73
16
 74
16
 0
VERTEX
 8
MESH_168_F0
 10
0
 20
0
 30
0
 70
128
 71
7
 72
6
 73
15
 74
15
 0
VERTEX
 8
MESH_168_F0
 10
0
 20
0
 30
0
 70
128
 71
8
 72
7
 73
14
 74
14
 0
VERTEX
 8
MESH_168_F0
 10
0
 20
0
 30
0
 70
128
 71
9
 72
8
 73
13
 74
13
 0
VERTEX
 8
MESH_168_F0
 10
0
 20
0
 30
0
 70
128
 71
11
 72
9
 73
12
 74
12
 0
VERTEX
 8
MESH_168_F0
 10
0
 20
0
 30
0
 70
128
 71
9
 72
13
 73
12
 74
12
 0
VERTEX
 8
MESH_168_F0
 10
0
 20
0
 30
0
 70
128
 71
11
 72
10
 73
9
 74
9
 0
VERTEX
 8
MESH_168_F0
 10
0
 20
0
 30
0
 70
128
 71
8
 72
14
 73
13
 74
13
 0
VERTEX
 8
MESH_168_F0
 10
0
 20
0
 30
0
 70
128
 71
7
 72
15
 73
14
 74
14
 0
VERTEX
 8
MESH_168_F0
 10
0
 20
0
 30
0
 70
128
 71
6
 72
16
 73
15
 74
15
 0
VERTEX
 8
MESH_168_F0
 10
0
 20
0
 30
0
 70
128
 71
5
 72
17
 73
16
 74
16
 0
VERTEX
 8
MESH_168_F0
 10
0
 20
0
 30
0
 70
128
 71
4
 72
18
 73
17
 74
17
 0
SEQEND
 0
POLYLINE
 8
MESH_167_F0
 66
1
 10
0.0
 20
0.0
 30
0.0
 70
64
 71
4
 72
2
 0
VERTEX
 8
MESH_167_F0
 10
500
 20
0
 30
500
 70
192
 0
VERTEX
 8
MESH_167_F0
 10
500
 20
-18
 30
500
 70
192
 0
VERTEX
 8
MESH_167_F0
 10
500
 20
-18
 30
200
 70
192
 0
VERTEX
 8
MESH_167_F0
 10
500
 20
0
 30
200
 70
192
 0
VERTEX
 8
MESH_167_F0
 10
0
 20
0
 30
0
 70
128
 71
4
 72
2
 73
1
 74
1
 0
VERTEX
 8
MESH_167_F0
 10
0
 20
0
 30
0
 70
128
 71
3
 72
2
 73
4
 74
4
 0
SEQEND
 0
POLYLINE
 8
MESH_166_F0
 66
1
 10
0.0
 20
0.0
 30
0.0
 70
64
 71
18
 72
16
 0
VERTEX
 8
MESH_166_F0
 10
500
 20
0
 30
200
 70
192
 0
VERTEX
 8
MESH_166_F0
 10
500
 20
-18
 30
200
 70
192
 0
VERTEX
 8
MESH_166_F0
 10
496.1581
 20
-18
 30
160.9923
 70
192
 0
VERTEX
 8
MESH_166_F0
 10
484.7751
 20
-18
 30
123.4603
 70
192
 0
VERTEX
 8
MESH_166_F0
 10
466.2936
 20
-18
 30
88.8864
 70
192
 0
VERTEX
 8
MESH_166_F0
 10
441.4213
 20
-18
 30
58.5787
 70
192
 0
VERTEX
 8
MESH_166_F0
 10
411.1136
 20
-18
 30
33.7064
 70
192
 0
VERTEX
 8
MESH_166_F0
 10
376.5397
 20
-18
 30
15.2249
 70
192
 0
VERTEX
 8
MESH_166_F0
 10
339.0077
 20
-18
 30
3.8419
 70
192
 0
VERTEX
 8
MESH_166_F0
 10
300
 20
-18
 30
0
 70
192
 0
VERTEX
 8
MESH_166_F0
 10
300
 20
0
 30
0
 70
192
 0
VERTEX
 8
MESH_166_F0
 10
339.0077
 20
0
 30
3.8419
 70
192
 0
VERTEX
 8
MESH_166_F0
 10
376.5397
 20
0
 30
15.2249
 70
192
 0
VERTEX
 8
MESH_166_F0
 10
411.1136
 20
0
 30
33.7064
 70
192
 0
VERTEX
 8
MESH_166_F0
 10
441.4213
 20
0
 30
58.5787
 70
192
 0
VERTEX
 8
MESH_166_F0
 10
466.2936
 20
0
 30
88.8864
 70
192
 0
VERTEX
 8
MESH_166_F0
 10
484.7751
 20
0
 30
123.4603
 70
192
 0
VERTEX
 8
MESH_166_F0
 10
496.1581
 20
0
 30
160.9923
 70
192
 0
VERTEX
 8
MESH_166_F0
 10
0
 20
0
 30
0
 70
128
 71
18
 72
2
 73
1
 74
1
 0
VERTEX
 8
MESH_166_F0
 10
0
 20
0
 30
0
 70
128
 71
3
 72
2
 73
18
 74
18
 0
VERTEX
 8
MESH_166_F0
 10
0
 20
0
 30
0
 70
128
 71
3
 72
18
 73
4
 74
4
 0
VERTEX
 8
MESH_166_F0
 10
0
 20
0
 30
0
 70
128
 71
18
 72
17
 73
4
 74
4
 0
VERTEX
 8
MESH_166_F0
 10
0
 20
0
 30
0
 70
128
 71
17
 72
5
 73
4
 74
4
 0
VERTEX
 8
MESH_166_F0
 10
0
 20
0
 30
0
 70
128
 71
16
 72
5
 73
17
 74
17
 0
VERTEX
 8
MESH_166_F0
 10
0
 20
0
 30
0
 70
128
 71
6
 72
5
 73
16
 74
16
 0
VERTEX
 8
MESH_166_F0
 10
0
 20
0
 30
0
 70
128
 71
7
 72
6
 73
15
 74
15
 0
VERTEX
 8
MESH_166_F0
 10
0
 20
0
 30
0
 70
128
 71
8
 72
7
 73
14
 74
14
 0
VERTEX
 8
MESH_166_F0
 10
0
 20
0
 30
0
 70
128
 71
9
 72
8
 73
13
 74
13
 0
VERTEX
 8
MESH_166_F0
 10
0
 20
0
 30
0
 70
128
 71
10
 72
9
 73
12
 74
12
 0
VERTEX
 8
MESH_166_F0
 10
0
 20
0
 30
0
 70
128
 71
10
 72
12
 73
11
 74
11
 0
VERTEX
 8
MESH_166_F0
 10
0
 20
0
 30
0
 70
128
 71
9
 72
13
 73
12
 74
12
 0
VERTEX
 8
MESH_166_F0
 10
0
 20
0
 30
0
 70
128
 71
8
 72
14
 73
13
 74
13
 0
VERTEX
 8
MESH_166_F0
 10
0
 20
0
 30
0
 70
128
 71
7
 72
15
 73
14
 74
14
 0
VERTEX
 8
MESH_166_F0
 10
0
 20
0
 30
0
 70
128
 71
6
 72
16
 73
15
 74
15
 0
SEQEND
 0
POLYLINE
 8
MESH_165_F0
 66
1
 10
0.0
 20
0.0
 30
0.0
 70
64
 71
4
 72
2
 0
VERTEX
 8
MESH_165_F0
 10
300
 20
0
 30
0
 70
192
 0
VERTEX
 8
MESH_165_F0
 10
300
 20
-18
 30
0
 70
192
 0
VERTEX
 8
MESH_165_F0
 10
-300
 20
-18
 30
0
 70
192
 0
VERTEX
 8
MESH_165_F0
 10
-300
 20
0
 30
0
 70
192
 0
VERTEX
 8
MESH_165_F0
 10
0
 20
0
 30
0
 70
128
 71
4
 72
2
 73
1
 74
1
 0
VERTEX
 8
MESH_165_F0
 10
0
 20
0
 30
0
 70
128
 71
3
 72
2
 73
4
 74
4
 0
SEQEND
 0
POLYLINE
 8
MESH_164_F0
 66
1
 10
0.0
 20
0.0
 30
0.0
 70
64
 71
18
 72
16
 0
VERTEX
 8
MESH_164_F0
 10
-300
 20
0
 30
0
 70
192
 0
VERTEX
 8
MESH_164_F0
 10
-300
 20
-18
 30
0
 70
192
 0
VERTEX
 8
MESH_164_F0
 10
-339.0077
 20
-18
 30
3.8419
 70
192
 0
VERTEX
 8
MESH_164_F0
 10
-376.5397
 20
-18
 30
15.2249
 70
192
 0
VERTEX
 8
MESH_164_F0
 10
-411.1136
 20
-18
 30
33.7064
 70
192
 0
VERTEX
 8
MESH_164_F0
 10
-441.4213
 20
-18
 30
58.5787
 70
192
 0
VERTEX
 8
MESH_164_F0
 10
-466.2936
 20
-18
 30
88.8864
 70
192
 0
VERTEX
 8
MESH_164_F0
 10
-484.7751
 20
-18
 30
123.4603
 70
192
 0
VERTEX
 8
MESH_164_F0
 10
-496.1581
 20
-18
 30
160.9923
 70
192
 0
VERTEX
 8
MESH_164_F0
 10
-500
 20
-18
 30
200
 70
192
 0
VERTEX
 8
MESH_164_F0
 10
-500
 20
0
 30
200
 70
192
 0
VERTEX
 8
MESH_164_F0
 10
-496.1581
 20
0
 30
160.9923
 70
192
 0
VERTEX
 8
MESH_164_F0
 10
-484.7751
 20
0
 30
123.4603
 70
192
 0
VERTEX
 8
MESH_164_F0
 10
-466.2936
 20
0
 30
88.8864
 70
192
 0
VERTEX
 8
MESH_164_F0
 10
-441.4213
 20
0
 30
58.5787
 70
192
 0
VERTEX
 8
MESH_164_F0
 10
-411.1136
 20
0
 30
33.7064
 70
192
 0
VERTEX
 8
MESH_164_F0
 10
-376.5397
 20
0
 30
15.2249
 70
192
 0
VERTEX
 8
MESH_164_F0
 10
-339.0077
 20
0
 30
3.8419
 70
192
 0
VERTEX
 8
MESH_164_F0
 10
0
 20
0
 30
0
 70
128
 71
1
 72
3
 73
2
 74
2
 0
VERTEX
 8
MESH_164_F0
 10
0
 20
0
 30
0
 70
128
 71
18
 72
3
 73
1
 74
1
 0
VERTEX
 8
MESH_164_F0
 10
0
 20
0
 30
0
 70
128
 71
4
 72
3
 73
18
 74
18
 0
VERTEX
 8
MESH_164_F0
 10
0
 20
0
 30
0
 70
128
 71
16
 72
4
 73
17
 74
17
 0
VERTEX
 8
MESH_164_F0
 10
0
 20
0
 30
0
 70
128
 71
4
 72
18
 73
17
 74
17
 0
VERTEX
 8
MESH_164_F0
 10
0
 20
0
 30
0
 70
128
 71
16
 72
5
 73
4
 74
4
 0
VERTEX
 8
MESH_164_F0
 10
0
 20
0
 30
0
 70
128
 71
6
 72
5
 73
16
 74
16
 0
VERTEX
 8
MESH_164_F0
 10
0
 20
0
 30
0
 70
128
 71
7
 72
6
 73
15
 74
15
 0
VERTEX
 8
MESH_164_F0
 10
0
 20
0
 30
0
 70
128
 71
8
 72
7
 73
14
 74
14
 0
VERTEX
 8
MESH_164_F0
 10
0
 20
0
 30
0
 70
128
 71
9
 72
8
 73
13
 74
13
 0
VERTEX
 8
MESH_164_F0
 10
0
 20
0
 30
0
 70
128
 71
10
 72
9
 73
12
 74
12
 0
VERTEX
 8
MESH_164_F0
 10
0
 20
0
 30
0
 70
128
 71
10
 72
12
 73
11
 74
11
 0
VERTEX
 8
MESH_164_F0
 10
0
 20
0
 30
0
 70
128
 71
9
 72
13
 73
12
 74
12
 0
VERTEX
 8
MESH_164_F0
 10
0
 20
0
 30
0
 70
128
 71
8
 72
14
 73
13
 74
13
 0
VERTEX
 8
MESH_164_F0
 10
0
 20
0
 30
0
 70
128
 71
7
 72
15
 73
14
 74
14
 0
VERTEX
 8
MESH_164_F0
 10
0
 20
0
 30
0
 70
128
 71
6
 72
16
 73
15
 74
15
 0
SEQEND
 0
POLYLINE
 8
MESH_163_F0
 66
1
 10
0.0
 20
0.0
 30
0.0
 70
64
 71
4
 72
2
 0
VERTEX
 8
MESH_163_F0
 10
-500
 20
0
 30
200
 70
192
 0
VERTEX
 8
MESH_163_F0
 10
-500
 20
-18
 30
200
 70
192
 0
VERTEX
 8
MESH_163_F0
 10
-500
 20
-18
 30
500
 70
192
 0
VERTEX
 8
MESH_163_F0
 10
-500
 20
0
 30
500
 70
192
 0
VERTEX
 8
MESH_163_F0
 10
0
 20
0
 30
0
 70
128
 71
4
 72
2
 73
1
 74
1
 0
VERTEX
 8
MESH_163_F0
 10
0
 20
0
 30
0
 70
128
 71
3
 72
2
 73
4
 74
4
 0
SEQEND
 0
POLYLINE
 8
MESH_162_F0
 66
1
 10
0.0
 20
0.0
 30
0.0
 70
64
 71
72
 72
72
 0
VERTEX
 8
MESH_162_F0
 10
300.5
 20
-18
 30
699.5
 70
192
 0
VERTEX
 8
MESH_162_F0
 10
339.323
 20
-18
 30
695.6763
 70
192
 0
VERTEX
 8
MESH_162_F0
 10
376.654
 20
-18
 30
684.352
 70
192
 0
VERTEX
 8
MESH_162_F0
 10
411.0585
 20
-18
 30
665.9625
 70
192
 0
VERTEX
 8
MESH_162_F0
 10
441.2142
 20
-18
 30
641.2142
 70
192
 0
VERTEX
 8
MESH_162_F0
 10
465.9624
 20
-18
 30
611.0585
 70
192
 0
VERTEX
 8
MESH_162_F0
 10
484.352
 20
-18
 30
576.654
 70
192
 0
VERTEX
 8
MESH_162_F0
 10
495.6763
 20
-18
 30
539.323
 70
192
 0
VERTEX
 8
MESH_162_F0
 10
499.5
 20
-18
 30
500.5
 70
192
 0
VERTEX
 8
MESH_162_F0
 10
499.5
 20
-18
 30
199.5
 70
192
 0
VERTEX
 8
MESH_162_F0
 10
495.6763
 20
-18
 30
160.677
 70
192
 0
VERTEX
 8
MESH_162_F0
 10
484.352
 20
-18
 30
123.346
 70
192
 0
VERTEX
 8
MESH_162_F0
 10
465.9624
 20
-18
 30
88.9415
 70
192
 0
VERTEX
 8
MESH_162_F0
 10
441.2142
 20
-18
 30
58.7858
 70
192
 0
VERTEX
 8
MESH_162_F0
 10
411.0585
 20
-18
 30
34.0375
 70
192
 0
VERTEX
 8
MESH_162_F0
 10
376.654
 20
-18
 30
15.648
 70
192
 0
VERTEX
 8
MESH_162_F0
 10
339.323
 20
-18
 30
4.3237
 70
192
 0
VERTEX
 8
MESH_162_F0
 10
300.5
 20
-18
 30
0.5
 70
192
 0
VERTEX
 8
MESH_162_F0
 10
-300.5
 20
-18
 30
0.5
 70
192
 0
VERTEX
 8
MESH_162_F0
 10
-339.323
 20
-18
 30
4.3237
 70
192
 0
VERTEX
 8
MESH_162_F0
 10
-376.654
 20
-18
 30
15.648
 70
192
 0
VERTEX
 8
MESH_162_F0
 10
-411.0585
 20
-18
 30
34.0375
 70
192
 0
VERTEX
 8
MESH_162_F0
 10
-441.2142
 20
-18
 30
58.7858
 70
192
 0
VERTEX
 8
MESH_162_F0
 10
-465.9624
 20
-18
 30
88.9415
 70
192
 0
VERTEX
 8
MESH_162_F0
 10
-484.352
 20
-18
 30
123.346
 70
192
 0
VERTEX
 8
MESH_162_F0
 10
-495.6763
 20
-18
 30
160.677
 70
192
 0
VERTEX
 8
MESH_162_F0
 10
-499.5
 20
-18
 30
199.5
 70
192
 0
VERTEX
 8
MESH_162_F0
 10
-499.5
 20
-18
 30
500.5
 70
192
 0
VERTEX
 8
MESH_162_F0
 10
-495.6763
 20
-18
 30
539.323
 70
192
 0
VERTEX
 8
MESH_162_F0
 10
-484.352
 20
-18
 30
576.654
 70
192
 0
VERTEX
 8
MESH_162_F0
 10
-465.9624
 20
-18
 30
611.0585
 70
192
 0
VERTEX
 8
MESH_162_F0
 10
-441.2142
 20
-18
 30
641.2142
 70
192
 0
VERTEX
 8
MESH_162_F0
 10
-411.0585
 20
-18
 30
665.9625
 70
192
 0
VERTEX
 8
MESH_162_F0
 10
-376.654
 20
-18
 30
684.352
 70
192
 0
VERTEX
 8
MESH_162_F0
 10
-339.323
 20
-18
 30
695.6763
 70
192
 0
VERTEX
 8
MESH_162_F0
 10
-300.5
 20
-18
 30
699.5
 70
192
 0
VERTEX
 8
MESH_162_F0
 10
-500
 20
-18
 30
500
 70
192
 0
VERTEX
 8
MESH_162_F0
 10
-500
 20
-18
 30
200
 70
192
 0
VERTEX
 8
MESH_162_F0
 10
-496.1581
 20
-18
 30
160.9923
 70
192
 0
VERTEX
 8
MESH_162_F0
 10
-484.7751
 20
-18
 30
123.4603
 70
192
 0
VERTEX
 8
MESH_162_F0
 10
-466.2936
 20
-18
 30
88.8864
 70
192
 0
VERTEX
 8
MESH_162_F0
 10
-441.4213
 20
-18
 30
58.5787
 70
192
 0
VERTEX
 8
MESH_162_F0
 10
-411.1136
 20
-18
 30
33.7064
 70
192
 0
VERTEX
 8
MESH_162_F0
 10
-376.5397
 20
-18
 30
15.2249
 70
192
 0
VERTEX
 8
MESH_162_F0
 10
-339.0077
 20
-18
 30
3.8419
 70
192
 0
VERTEX
 8
MESH_162_F0
 10
-300
 20
-18
 30
0
 70
192
 0
VERTEX
 8
MESH_162_F0
 10
300
 20
-18
 30
0
 70
192
 0
VERTEX
 8
MESH_162_F0
 10
339.0077
 20
-18
 30
3.8419
 70
192
 0
VERTEX
 8
MESH_162_F0
 10
376.5397
 20
-18
 30
15.2249
 70
192
 0
VERTEX
 8
MESH_162_F0
 10
411.1136
 20
-18
 30
33.7064
 70
192
 0
VERTEX
 8
MESH_162_F0
 10
441.4213
 20
-18
 30
58.5787
 70
192
 0
VERTEX
 8
MESH_162_F0
 10
466.2936
 20
-18
 30
88.8864
 70
192
 0
VERTEX
 8
MESH_162_F0
 10
484.7751
 20
-18
 30
123.4603
 70
192
 0
VERTEX
 8
MESH_162_F0
 10
496.1581
 20
-18
 30
160.9923
 70
192
 0
VERTEX
 8
MESH_162_F0
 10
500
 20
-18
 30
200
 70
192
 0
VERTEX
 8
MESH_162_F0
 10
500
 20
-18
 30
500
 70
192
 0
VERTEX
 8
MESH_162_F0
 10
496.1581
 20
-18
 30
539.0077
 70
192
 0
VERTEX
 8
MESH_162_F0
 10
484.7751
 20
-18
 30
576.5397
 70
192
 0
VERTEX
 8
MESH_162_F0
 10
466.2936
 20
-18
 30
611.1136
 70
192
 0
VERTEX
 8
MESH_162_F0
 10
441.4213
 20
-18
 30
641.4213
 70
192
 0
VERTEX
 8
MESH_162_F0
 10
411.1136
 20
-18
 30
666.2936
 70
192
 0
VERTEX
 8
MESH_162_F0
 10
376.5397
 20
-18
 30
684.7751
 70
192
 0
VERTEX
 8
MESH_162_F0
 10
339.0077
 20
-18
 30
696.158
 70
192
 0
VERTEX
 8
MESH_162_F0
 10
300
 20
-18
 30
700
 70
192
 0
VERTEX
 8
MESH_162_F0
 10
-300
 20
-18
 30
700
 70
192
 0
VERTEX
 8
MESH_162_F0
 10
-339.0077
 20
-18
 30
696.158
 70
192
 0
VERTEX
 8
MESH_162_F0
 10
-376.5397
 20
-18
 30
684.7751
 70
192
 0
VERTEX
 8
MESH_162_F0
 10
-411.1136
 20
-18
 30
666.2936
 70
192
 0
VERTEX
 8
MESH_162_F0
 10
-441.4213
 20
-18
 30
641.4213
 70
192
 0
VERTEX
 8
MESH_162_F0
 10
-466.2936
 20
-18
 30
611.1136
 70
192
 0
VERTEX
 8
MESH_162_F0
 10
-484.7751
 20
-18
 30
576.5397
 70
192
 0
VERTEX
 8
MESH_162_F0
 10
-496.1581
 20
-18
 30
539.0077
 70
192
 0
VERTEX
 8
MESH_162_F0
 10
0
 20
0
 30
0
 70
128
 71
6
 72
58
 73
7
 74
7
 0
VERTEX
 8
MESH_162_F0
 10
0
 20
0
 30
0
 70
128
 71
58
 72
8
 73
7
 74
7
 0
VERTEX
 8
MESH_162_F0
 10
0
 20
0
 30
0
 70
128
 71
57
 72
8
 73
58
 74
58
 0
VERTEX
 8
MESH_162_F0
 10
0
 20
0
 30
0
 70
128
 71
9
 72
8
 73
57
 74
57
 0
VERTEX
 8
MESH_162_F0
 10
0
 20
0
 30
0
 70
128
 71
10
 72
9
 73
56
 74
56
 0
VERTEX
 8
MESH_162_F0
 10
0
 20
0
 30
0
 70
128
 71
54
 72
10
 73
55
 74
55
 0
VERTEX
 8
MESH_162_F0
 10
0
 20
0
 30
0
 70
128
 71
10
 72
56
 73
55
 74
55
 0
VERTEX
 8
MESH_162_F0
 10
0
 20
0
 30
0
 70
128
 71
5
 72
59
 73
6
 74
6
 0
VERTEX
 8
MESH_162_F0
 10
0
 20
0
 30
0
 70
128
 71
59
 72
58
 73
6
 74
6
 0
VERTEX
 8
MESH_162_F0
 10
0
 20
0
 30
0
 70
128
 71
4
 72
60
 73
5
 74
5
 0
VERTEX
 8
MESH_162_F0
 10
0
 20
0
 30
0
 70
128
 71
60
 72
59
 73
5
 74
5
 0
VERTEX
 8
MESH_162_F0
 10
0
 20
0
 30
0
 70
128
 71
54
 72
11
 73
10
 74
10
 0
VERTEX
 8
MESH_162_F0
 10
0
 20
0
 30
0
 70
128
 71
53
 72
11
 73
54
 74
54
 0
VERTEX
 8
MESH_162_F0
 10
0
 20
0
 30
0
 70
128
 71
12
 72
11
 73
53
 74
53
 0
VERTEX
 8
MESH_162_F0
 10
0
 20
0
 30
0
 70
128
 71
13
 72
12
 73
52
 74
52
 0
VERTEX
 8
MESH_162_F0
 10
0
 20
0
 30
0
 70
128
 71
13
 72
52
 73
14
 74
14
 0
VERTEX
 8
MESH_162_F0
 10
0
 20
0
 30
0
 70
128
 71
52
 72
51
 73
14
 74
14
 0
VERTEX
 8
MESH_162_F0
 10
0
 20
0
 30
0
 70
128
 71
51
 72
15
 73
14
 74
14
 0
VERTEX
 8
MESH_162_F0
 10
0
 20
0
 30
0
 70
128
 71
50
 72
15
 73
51
 74
51
 0
VERTEX
 8
MESH_162_F0
 10
0
 20
0
 30
0
 70
128
 71
16
 72
15
 73
50
 74
50
 0
VERTEX
 8
MESH_162_F0
 10
0
 20
0
 30
0
 70
128
 71
17
 72
16
 73
49
 74
49
 0
VERTEX
 8
MESH_162_F0
 10
0
 20
0
 30
0
 70
128
 71
18
 72
17
 73
48
 74
48
 0
VERTEX
 8
MESH_162_F0
 10
0
 20
0
 30
0
 70
128
 71
19
 72
18
 73
47
 74
47
 0
VERTEX
 8
MESH_162_F0
 10
0
 20
0
 30
0
 70
128
 71
45
 72
19
 73
46
 74
46
 0
VERTEX
 8
MESH_162_F0
 10
0
 20
0
 30
0
 70
128
 71
19
 72
47
 73
46
 74
46
 0
VERTEX
 8
MESH_162_F0
 10
0
 20
0
 30
0
 70
128
 71
45
 72
20
 73
19
 74
19
 0
VERTEX
 8
MESH_162_F0
 10
0
 20
0
 30
0
 70
128
 71
44
 72
20
 73
45
 74
45
 0
VERTEX
 8
MESH_162_F0
 10
0
 20
0
 30
0
 70
128
 71
21
 72
20
 73
44
 74
44
 0
VERTEX
 8
MESH_162_F0
 10
0
 20
0
 30
0
 70
128
 71
22
 72
21
 73
43
 74
43
 0
VERTEX
 8
MESH_162_F0
 10
0
 20
0
 30
0
 70
128
 71
23
 72
22
 73
42
 74
42
 0
VERTEX
 8
MESH_162_F0
 10
0
 20
0
 30
0
 70
128
 71
24
 72
23
 73
41
 74
41
 0
VERTEX
 8
MESH_162_F0
 10
0
 20
0
 30
0
 70
128
 71
24
 72
41
 73
25
 74
25
 0
VERTEX
 8
MESH_162_F0
 10
0
 20
0
 30
0
 70
128
 71
41
 72
40
 73
25
 74
25
 0
VERTEX
 8
MESH_162_F0
 10
0
 20
0
 30
0
 70
128
 71
40
 72
26
 73
25
 74
25
 0
VERTEX
 8
MESH_162_F0
 10
0
 20
0
 30
0
 70
128
 71
39
 72
26
 73
40
 74
40
 0
VERTEX
 8
MESH_162_F0
 10
0
 20
0
 30
0
 70
128
 71
27
 72
26
 73
39
 74
39
 0
VERTEX
 8
MESH_162_F0
 10
0
 20
0
 30
0
 70
128
 71
37
 72
27
 73
38
 74
38
 0
VERTEX
 8
MESH_162_F0
 10
0
 20
0
 30
0
 70
128
 71
27
 72
39
 73
38
 74
38
 0
VERTEX
 8
MESH_162_F0
 10
0
 20
0
 30
0
 70
128
 71
37
 72
28
 73
27
 74
27
 0
VERTEX
 8
MESH_162_F0
 10
0
 20
0
 30
0
 70
128
 71
72
 72
28
 73
37
 74
37
 0
VERTEX
 8
MESH_162_F0
 10
0
 20
0
 30
0
 70
128
 71
29
 72
28
 73
72
 74
72
 0
VERTEX
 8
MESH_162_F0
 10
0
 20
0
 30
0
 70
128
 71
30
 72
29
 73
71
 74
71
 0
VERTEX
 8
MESH_162_F0
 10
0
 20
0
 30
0
 70
128
 71
30
 72
71
 73
31
 74
31
 0
VERTEX
 8
MESH_162_F0
 10
0
 20
0
 30
0
 70
128
 71
71
 72
70
 73
31
 74
31
 0
VERTEX
 8
MESH_162_F0
 10
0
 20
0
 30
0
 70
128
 71
70
 72
32
 73
31
 74
31
 0
VERTEX
 8
MESH_162_F0
 10
0
 20
0
 30
0
 70
128
 71
69
 72
32
 73
70
 74
70
 0
VERTEX
 8
MESH_162_F0
 10
0
 20
0
 30
0
 70
128
 71
33
 72
32
 73
69
 74
69
 0
VERTEX
 8
MESH_162_F0
 10
0
 20
0
 30
0
 70
128
 71
34
 72
33
 73
68
 74
68
 0
VERTEX
 8
MESH_162_F0
 10
0
 20
0
 30
0
 70
128
 71
35
 72
34
 73
67
 74
67
 0
VERTEX
 8
MESH_162_F0
 10
0
 20
0
 30
0
 70
128
 71
36
 72
35
 73
66
 74
66
 0
VERTEX
 8
MESH_162_F0
 10
0
 20
0
 30
0
 70
128
 71
1
 72
36
 73
65
 74
65
 0
VERTEX
 8
MESH_162_F0
 10
0
 20
0
 30
0
 70
128
 71
63
 72
1
 73
64
 74
64
 0
VERTEX
 8
MESH_162_F0
 10
0
 20
0
 30
0
 70
128
 71
1
 72
65
 73
64
 74
64
 0
VERTEX
 8
MESH_162_F0
 10
0
 20
0
 30
0
 70
128
 71
23
 72
42
 73
41
 74
41
 0
VERTEX
 8
MESH_162_F0
 10
0
 20
0
 30
0
 70
128
 71
22
 72
43
 73
42
 74
42
 0
VERTEX
 8
MESH_162_F0
 10
0
 20
0
 30
0
 70
128
 71
21
 72
44
 73
43
 74
43
 0
VERTEX
 8
MESH_162_F0
 10
0
 20
0
 30
0
 70
128
 71
18
 72
48
 73
47
 74
47
 0
VERTEX
 8
MESH_162_F0
 10
0
 20
0
 30
0
 70
128
 71
17
 72
49
 73
48
 74
48
 0
VERTEX
 8
MESH_162_F0
 10
0
 20
0
 30
0
 70
128
 71
16
 72
50
 73
49
 74
49
 0
VERTEX
 8
MESH_162_F0
 10
0
 20
0
 30
0
 70
128
 71
12
 72
53
 73
52
 74
52
 0
VERTEX
 8
MESH_162_F0
 10
0
 20
0
 30
0
 70
128
 71
9
 72
57
 73
56
 74
56
 0
VERTEX
 8
MESH_162_F0
 10
0
 20
0
 30
0
 70
128
 71
4
 72
61
 73
60
 74
60
 0
VERTEX
 8
MESH_162_F0
 10
0
 20
0
 30
0
 70
128
 71
3
 72
61
 73
4
 74
4
 0
VERTEX
 8
MESH_162_F0
 10
0
 20
0
 30
0
 70
128
 71
62
 72
61
 73
3
 74
3
 0
VERTEX
 8
MESH_162_F0
 10
0
 20
0
 30
0
 70
128
 71
63
 72
62
 73
2
 74
2
 0
VERTEX
 8
MESH_162_F0
 10
0
 20
0
 30
0
 70
128
 71
63
 72
2
 73
1
 74
1
 0
VERTEX
 8
MESH_162_F0
 10
0
 20
0
 30
0
 70
128
 71
36
 72
66
 73
65
 74
65
 0
VERTEX
 8
MESH_162_F0
 10
0
 20
0
 30
0
 70
128
 71
35
 72
67
 73
66
 74
66
 0
VERTEX
 8
MESH_162_F0
 10
0
 20
0
 30
0
 70
128
 71
34
 72
68
 73
67
 74
67
 0
VERTEX
 8
MESH_162_F0
 10
0
 20
0
 30
0
 70
128
 71
33
 72
69
 73
68
 74
68
 0
VERTEX
 8
MESH_162_F0
 10
0
 20
0
 30
0
 70
128
 71
29
 72
72
 73
71
 74
71
 0
VERTEX
 8
MESH_162_F0
 10
0
 20
0
 30
0
 70
128
 71
2
 72
62
 73
3
 74
3
 0
SEQEND
 0
POLYLINE
 8
MESH_161_F0
 66
1
 10
0.0
 20
0.0
 30
0.0
 70
64
 71
36
 72
34
 0
VERTEX
 8
MESH_161_F0
 10
-300.5
 20
-22
 30
0.5
 70
192
 0
VERTEX
 8
MESH_161_F0
 10
300.5
 20
-22
 30
0.5
 70
192
 0
VERTEX
 8
MESH_161_F0
 10
339.3127
 20
-22
 30
4.3227
 70
192
 0
VERTEX
 8
MESH_161_F0
 10
376.657
 20
-22
 30
15.6488
 70
192
 0
VERTEX
 8
MESH_161_F0
 10
411.058
 20
-22
 30
34.0378
 70
192
 0
VERTEX
 8
MESH_161_F0
 10
441.2141
 20
-22
 30
58.7859
 70
192
 0
VERTEX
 8
MESH_161_F0
 10
465.9622
 20
-22
 30
88.942
 70
192
 0
VERTEX
 8
MESH_161_F0
 10
484.3512
 20
-22
 30
123.343
 70
192
 0
VERTEX
 8
MESH_161_F0
 10
495.6772
 20
-22
 30
160.6873
 70
192
 0
VERTEX
 8
MESH_161_F0
 10
499.5
 20
-22
 30
199.5
 70
192
 0
VERTEX
 8
MESH_161_F0
 10
499.5
 20
-22
 30
500.5
 70
192
 0
VERTEX
 8
MESH_161_F0
 10
495.6772
 20
-22
 30
539.3127
 70
192
 0
VERTEX
 8
MESH_161_F0
 10
484.3512
 20
-22
 30
576.657
 70
192
 0
VERTEX
 8
MESH_161_F0
 10
465.9622
 20
-22
 30
611.058
 70
192
 0
VERTEX
 8
MESH_161_F0
 10
441.2141
 20
-22
 30
641.2142
 70
192
 0
VERTEX
 8
MESH_161_F0
 10
411.058
 20
-22
 30
665.9622
 70
192
 0
VERTEX
 8
MESH_161_F0
 10
376.657
 20
-22
 30
684.3512
 70
192
 0
VERTEX
 8
MESH_161_F0
 10
339.3127
 20
-22
 30
695.6772
 70
192
 0
VERTEX
 8
MESH_161_F0
 10
300.5
 20
-22
 30
699.5
 70
192
 0
VERTEX
 8
MESH_161_F0
 10
-300.5
 20
-22
 30
699.5
 70
192
 0
VERTEX
 8
MESH_161_F0
 10
-339.3127
 20
-22
 30
695.6772
 70
192
 0
VERTEX
 8
MESH_161_F0
 10
-376.657
 20
-22
 30
684.3512
 70
192
 0
VERTEX
 8
MESH_161_F0
 10
-411.058
 20
-22
 30
665.9622
 70
192
 0
VERTEX
 8
MESH_161_F0
 10
-441.2141
 20
-22
 30
641.2142
 70
192
 0
VERTEX
 8
MESH_161_F0
 10
-465.9622
 20
-22
 30
611.058
 70
192
 0
VERTEX
 8
MESH_161_F0
 10
-484.3512
 20
-22
 30
576.657
 70
192
 0
VERTEX
 8
MESH_161_F0
 10
-495.6772
 20
-22
 30
539.3127
 70
192
 0
VERTEX
 8
MESH_161_F0
 10
-499.5
 20
-22
 30
500.5
 70
192
 0
VERTEX
 8
MESH_161_F0
 10
-499.5
 20
-22
 30
199.5
 70
192
 0
VERTEX
 8
MESH_161_F0
 10
-495.6772
 20
-22
 30
160.6873
 70
192
 0
VERTEX
 8
MESH_161_F0
 10
-484.3512
 20
-22
 30
123.343
 70
192
 0
VERTEX
 8
MESH_161_F0
 10
-465.9622
 20
-22
 30
88.942
 70
192
 0
VERTEX
 8
MESH_161_F0
 10
-441.2141
 20
-22
 30
58.7859
 70
192
 0
VERTEX
 8
MESH_161_F0
 10
-411.058
 20
-22
 30
34.0378
 70
192
 0
VERTEX
 8
MESH_161_F0
 10
-376.657
 20
-22
 30
15.6488
 70
192
 0
VERTEX
 8
MESH_161_F0
 10
-339.3127
 20
-22
 30
4.3227
 70
192
 0
VERTEX
 8
MESH_161_F0
 10
0
 20
0
 30
0
 70
128
 71
36
 72
2
 73
1
 74
1
 0
VERTEX
 8
MESH_161_F0
 10
0
 20
0
 30
0
 70
128
 71
29
 72
2
 73
36
 74
36
 0
VERTEX
 8
MESH_161_F0
 10
0
 20
0
 30
0
 70
128
 71
29
 72
36
 73
30
 74
30
 0
VERTEX
 8
MESH_161_F0
 10
0
 20
0
 30
0
 70
128
 71
36
 72
31
 73
30
 74
30
 0
VERTEX
 8
MESH_161_F0
 10
0
 20
0
 30
0
 70
128
 71
32
 72
31
 73
36
 74
36
 0
VERTEX
 8
MESH_161_F0
 10
0
 20
0
 30
0
 70
128
 71
32
 72
36
 73
33
 74
33
 0
VERTEX
 8
MESH_161_F0
 10
0
 20
0
 30
0
 70
128
 71
36
 72
34
 73
33
 74
33
 0
VERTEX
 8
MESH_161_F0
 10
0
 20
0
 30
0
 70
128
 71
35
 72
34
 73
36
 74
36
 0
VERTEX
 8
MESH_161_F0
 10
0
 20
0
 30
0
 70
128
 71
2
 72
4
 73
3
 74
3
 0
VERTEX
 8
MESH_161_F0
 10
0
 20
0
 30
0
 70
128
 71
5
 72
4
 73
2
 74
2
 0
VERTEX
 8
MESH_161_F0
 10
0
 20
0
 30
0
 70
128
 71
5
 72
2
 73
6
 74
6
 0
VERTEX
 8
MESH_161_F0
 10
0
 20
0
 30
0
 70
128
 71
2
 72
7
 73
6
 74
6
 0
VERTEX
 8
MESH_161_F0
 10
0
 20
0
 30
0
 70
128
 71
8
 72
7
 73
2
 74
2
 0
VERTEX
 8
MESH_161_F0
 10
0
 20
0
 30
0
 70
128
 71
8
 72
2
 73
9
 74
9
 0
VERTEX
 8
MESH_161_F0
 10
0
 20
0
 30
0
 70
128
 71
2
 72
10
 73
9
 74
9
 0
VERTEX
 8
MESH_161_F0
 10
0
 20
0
 30
0
 70
128
 71
29
 72
10
 73
2
 74
2
 0
VERTEX
 8
MESH_161_F0
 10
0
 20
0
 30
0
 70
128
 71
28
 72
10
 73
29
 74
29
 0
VERTEX
 8
MESH_161_F0
 10
0
 20
0
 30
0
 70
128
 71
11
 72
10
 73
28
 74
28
 0
VERTEX
 8
MESH_161_F0
 10
0
 20
0
 30
0
 70
128
 71
19
 72
11
 73
20
 74
20
 0
VERTEX
 8
MESH_161_F0
 10
0
 20
0
 30
0
 70
128
 71
11
 72
28
 73
20
 74
20
 0
VERTEX
 8
MESH_161_F0
 10
0
 20
0
 30
0
 70
128
 71
28
 72
27
 73
20
 74
20
 0
VERTEX
 8
MESH_161_F0
 10
0
 20
0
 30
0
 70
128
 71
27
 72
26
 73
20
 74
20
 0
VERTEX
 8
MESH_161_F0
 10
0
 20
0
 30
0
 70
128
 71
26
 72
25
 73
20
 74
20
 0
VERTEX
 8
MESH_161_F0
 10
0
 20
0
 30
0
 70
128
 71
25
 72
24
 73
20
 74
20
 0
VERTEX
 8
MESH_161_F0
 10
0
 20
0
 30
0
 70
128
 71
24
 72
23
 73
20
 74
20
 0
VERTEX
 8
MESH_161_F0
 10
0
 20
0
 30
0
 70
128
 71
23
 72
22
 73
20
 74
20
 0
VERTEX
 8
MESH_161_F0
 10
0
 20
0
 30
0
 70
128
 71
22
 72
21
 73
20
 74
20
 0
VERTEX
 8
MESH_161_F0
 10
0
 20
0
 30
0
 70
128
 71
19
 72
12
 73
11
 74
11
 0
VERTEX
 8
MESH_161_F0
 10
0
 20
0
 30
0
 70
128
 71
13
 72
12
 73
19
 74
19
 0
VERTEX
 8
MESH_161_F0
 10
0
 20
0
 30
0
 70
128
 71
13
 72
19
 73
14
 74
14
 0
VERTEX
 8
MESH_161_F0
 10
0
 20
0
 30
0
 70
128
 71
19
 72
15
 73
14
 74
14
 0
VERTEX
 8
MESH_161_F0
 10
0
 20
0
 30
0
 70
128
 71
16
 72
15
 73
19
 74
19
 0
VERTEX
 8
MESH_161_F0
 10
0
 20
0
 30
0
 70
128
 71
16
 72
19
 73
17
 74
17
 0
VERTEX
 8
MESH_161_F0
 10
0
 20
0
 30
0
 70
128
 71
19
 72
18
 73
17
 74
17
 0
SEQEND
 0
POLYLINE
 8
MESH_160_F0
 66
1
 10
0.0
 20
0.0
 30
0.0
 70
64
 71
18
 72
16
 0
VERTEX
 8
MESH_160_F0
 10
300.5
 20
-18
 30
699.5
 70
192
 0
VERTEX
 8
MESH_160_F0
 10
300.5
 20
-22
 30
699.5
 70
192
 0
VERTEX
 8
MESH_160_F0
 10
339.3127
 20
-22
 30
695.6772
 70
192
 0
VERTEX
 8
MESH_160_F0
 10
376.657
 20
-22
 30
684.3512
 70
192
 0
VERTEX
 8
MESH_160_F0
 10
411.058
 20
-22
 30
665.9622
 70
192
 0
VERTEX
 8
MESH_160_F0
 10
441.2141
 20
-22
 30
641.2142
 70
192
 0
VERTEX
 8
MESH_160_F0
 10
465.9622
 20
-22
 30
611.058
 70
192
 0
VERTEX
 8
MESH_160_F0
 10
484.3512
 20
-22
 30
576.657
 70
192
 0
VERTEX
 8
MESH_160_F0
 10
495.6772
 20
-22
 30
539.3127
 70
192
 0
VERTEX
 8
MESH_160_F0
 10
499.5
 20
-22
 30
500.5
 70
192
 0
VERTEX
 8
MESH_160_F0
 10
499.5
 20
-18
 30
500.5
 70
192
 0
VERTEX
 8
MESH_160_F0
 10
495.6763
 20
-18
 30
539.323
 70
192
 0
VERTEX
 8
MESH_160_F0
 10
484.352
 20
-18
 30
576.654
 70
192
 0
VERTEX
 8
MESH_160_F0
 10
465.9624
 20
-18
 30
611.0585
 70
192
 0
VERTEX
 8
MESH_160_F0
 10
441.2142
 20
-18
 30
641.2142
 70
192
 0
VERTEX
 8
MESH_160_F0
 10
411.0585
 20
-18
 30
665.9625
 70
192
 0
VERTEX
 8
MESH_160_F0
 10
376.654
 20
-18
 30
684.352
 70
192
 0
VERTEX
 8
MESH_160_F0
 10
339.323
 20
-18
 30
695.6763
 70
192
 0
VERTEX
 8
MESH_160_F0
 10
0
 20
0
 30
0
 70
128
 71
1
 72
3
 73
2
 74
2
 0
VERTEX
 8
MESH_160_F0
 10
0
 20
0
 30
0
 70
128
 71
18
 72
3
 73
1
 74
1
 0
VERTEX
 8
MESH_160_F0
 10
0
 20
0
 30
0
 70
128
 71
4
 72
3
 73
18
 74
18
 0
VERTEX
 8
MESH_160_F0
 10
0
 20
0
 30
0
 70
128
 71
5
 72
4
 73
17
 74
17
 0
VERTEX
 8
MESH_160_F0
 10
0
 20
0
 30
0
 70
128
 71
6
 72
5
 73
16
 74
16
 0
VERTEX
 8
MESH_160_F0
 10
0
 20
0
 30
0
 70
128
 71
7
 72
6
 73
15
 74
15
 0
VERTEX
 8
MESH_160_F0
 10
0
 20
0
 30
0
 70
128
 71
8
 72
7
 73
14
 74
14
 0
VERTEX
 8
MESH_160_F0
 10
0
 20
0
 30
0
 70
128
 71
9
 72
8
 73
13
 74
13
 0
VERTEX
 8
MESH_160_F0
 10
0
 20
0
 30
0
 70
128
 71
11
 72
9
 73
12
 74
12
 0
VERTEX
 8
MESH_160_F0
 10
0
 20
0
 30
0
 70
128
 71
9
 72
13
 73
12
 74
12
 0
VERTEX
 8
MESH_160_F0
 10
0
 20
0
 30
0
 70
128
 71
11
 72
10
 73
9
 74
9
 0
VERTEX
 8
MESH_160_F0
 10
0
 20
0
 30
0
 70
128
 71
8
 72
14
 73
13
 74
13
 0
VERTEX
 8
MESH_160_F0
 10
0
 20
0
 30
0
 70
128
 71
7
 72
15
 73
14
 74
14
 0
VERTEX
 8
MESH_160_F0
 10
0
 20
0
 30
0
 70
128
 71
6
 72
16
 73
15
 74
15
 0
VERTEX
 8
MESH_160_F0
 10
0
 20
0
 30
0
 70
128
 71
5
 72
17
 73
16
 74
16
 0
VERTEX
 8
MESH_160_F0
 10
0
 20
0
 30
0
 70
128
 71
4
 72
18
 73
17
 74
17
 0
SEQEND
 0
POLYLINE
 8
MESH_159_F0
 66
1
 10
0.0
 20
0.0
 30
0.0
 70
64
 71
4
 72
2
 0
VERTEX
 8
MESH_159_F0
 10
499.5
 20
-18
 30
500.5
 70
192
 0
VERTEX
 8
MESH_159_F0
 10
499.5
 20
-22
 30
500.5
 70
192
 0
VERTEX
 8
MESH_159_F0
 10
499.5
 20
-22
 30
199.5
 70
192
 0
VERTEX
 8
MESH_159_F0
 10
499.5
 20
-18
 30
199.5
 70
192
 0
VERTEX
 8
MESH_159_F0
 10
0
 20
0
 30
0
 70
128
 71
4
 72
2
 73
1
 74
1
 0
VERTEX
 8
MESH_159_F0
 10
0
 20
0
 30
0
 70
128
 71
3
 72
2
 73
4
 74
4
 0
SEQEND
 0
POLYLINE
 8
MESH_158_F0
 66
1
 10
0.0
 20
0.0
 30
0.0
 70
64
 71
18
 72
16
 0
VERTEX
 8
MESH_158_F0
 10
499.5
 20
-18
 30
199.5
 70
192
 0
VERTEX
 8
MESH_158_F0
 10
499.5
 20
-22
 30
199.5
 70
192
 0
VERTEX
 8
MESH_158_F0
 10
495.6772
 20
-22
 30
160.6873
 70
192
 0
VERTEX
 8
MESH_158_F0
 10
484.3512
 20
-22
 30
123.343
 70
192
 0
VERTEX
 8
MESH_158_F0
 10
465.9622
 20
-22
 30
88.942
 70
192
 0
VERTEX
 8
MESH_158_F0
 10
441.2141
 20
-22
 30
58.7859
 70
192
 0
VERTEX
 8
MESH_158_F0
 10
411.058
 20
-22
 30
34.0378
 70
192
 0
VERTEX
 8
MESH_158_F0
 10
376.657
 20
-22
 30
15.6488
 70
192
 0
VERTEX
 8
MESH_158_F0
 10
339.3127
 20
-22
 30
4.3227
 70
192
 0
VERTEX
 8
MESH_158_F0
 10
300.5
 20
-22
 30
0.5
 70
192
 0
VERTEX
 8
MESH_158_F0
 10
300.5
 20
-18
 30
0.5
 70
192
 0
VERTEX
 8
MESH_158_F0
 10
339.323
 20
-18
 30
4.3237
 70
192
 0
VERTEX
 8
MESH_158_F0
 10
376.654
 20
-18
 30
15.648
 70
192
 0
VERTEX
 8
MESH_158_F0
 10
411.0585
 20
-18
 30
34.0375
 70
192
 0
VERTEX
 8
MESH_158_F0
 10
441.2142
 20
-18
 30
58.7858
 70
192
 0
VERTEX
 8
MESH_158_F0
 10
465.9624
 20
-18
 30
88.9415
 70
192
 0
VERTEX
 8
MESH_158_F0
 10
484.352
 20
-18
 30
123.346
 70
192
 0
VERTEX
 8
MESH_158_F0
 10
495.6763
 20
-18
 30
160.677
 70
192
 0
VERTEX
 8
MESH_158_F0
 10
0
 20
0
 30
0
 70
128
 71
1
 72
3
 73
2
 74
2
 0
VERTEX
 8
MESH_158_F0
 10
0
 20
0
 30
0
 70
128
 71
18
 72
3
 73
1
 74
1
 0
VERTEX
 8
MESH_158_F0
 10
0
 20
0
 30
0
 70
128
 71
4
 72
3
 73
18
 74
18
 0
VERTEX
 8
MESH_158_F0
 10
0
 20
0
 30
0
 70
128
 71
5
 72
4
 73
17
 74
17
 0
VERTEX
 8
MESH_158_F0
 10
0
 20
0
 30
0
 70
128
 71
6
 72
5
 73
16
 74
16
 0
VERTEX
 8
MESH_158_F0
 10
0
 20
0
 30
0
 70
128
 71
7
 72
6
 73
15
 74
15
 0
VERTEX
 8
MESH_158_F0
 10
0
 20
0
 30
0
 70
128
 71
8
 72
7
 73
14
 74
14
 0
VERTEX
 8
MESH_158_F0
 10
0
 20
0
 30
0
 70
128
 71
9
 72
8
 73
13
 74
13
 0
VERTEX
 8
MESH_158_F0
 10
0
 20
0
 30
0
 70
128
 71
10
 72
9
 73
12
 74
12
 0
VERTEX
 8
MESH_158_F0
 10
0
 20
0
 30
0
 70
128
 71
10
 72
12
 73
11
 74
11
 0
VERTEX
 8
MESH_158_F0
 10
0
 20
0
 30
0
 70
128
 71
9
 72
13
 73
12
 74
12
 0
VERTEX
 8
MESH_158_F0
 10
0
 20
0
 30
0
 70
128
 71
8
 72
14
 73
13
 74
13
 0
VERTEX
 8
MESH_158_F0
 10
0
 20
0
 30
0
 70
128
 71
7
 72
15
 73
14
 74
14
 0
VERTEX
 8
MESH_158_F0
 10
0
 20
0
 30
0
 70
128
 71
6
 72
16
 73
15
 74
15
 0
VERTEX
 8
MESH_158_F0
 10
0
 20
0
 30
0
 70
128
 71
5
 72
17
 73
16
 74
16
 0
VERTEX
 8
MESH_158_F0
 10
0
 20
0
 30
0
 70
128
 71
4
 72
18
 73
17
 74
17
 0
SEQEND
 0
POLYLINE
 8
MESH_157_F0
 66
1
 10
0.0
 20
0.0
 30
0.0
 70
64
 71
4
 72
2
 0
VERTEX
 8
MESH_157_F0
 10
300.5
 20
-18
 30
0.5
 70
192
 0
VERTEX
 8
MESH_157_F0
 10
300.5
 20
-22
 30
0.5
 70
192
 0
VERTEX
 8
MESH_157_F0
 10
-300.5
 20
-22
 30
0.5
 70
192
 0
VERTEX
 8
MESH_157_F0
 10
-300.5
 20
-18
 30
0.5
 70
192
 0
VERTEX
 8
MESH_157_F0
 10
0
 20
0
 30
0
 70
128
 71
4
 72
2
 73
1
 74
1
 0
VERTEX
 8
MESH_157_F0
 10
0
 20
0
 30
0
 70
128
 71
3
 72
2
 73
4
 74
4
 0
SEQEND
 0
POLYLINE
 8
MESH_156_F0
 66
1
 10
0.0
 20
0.0
 30
0.0
 70
64
 71
18
 72
16
 0
VERTEX
 8
MESH_156_F0
 10
-300.5
 20
-18
 30
0.5
 70
192
 0
VERTEX
 8
MESH_156_F0
 10
-300.5
 20
-22
 30
0.5
 70
192
 0
VERTEX
 8
MESH_156_F0
 10
-339.3127
 20
-22
 30
4.3227
 70
192
 0
VERTEX
 8
MESH_156_F0
 10
-376.657
 20
-22
 30
15.6488
 70
192
 0
VERTEX
 8
MESH_156_F0
 10
-411.058
 20
-22
 30
34.0378
 70
192
 0
VERTEX
 8
MESH_156_F0
 10
-441.2141
 20
-22
 30
58.7859
 70
192
 0
VERTEX
 8
MESH_156_F0
 10
-465.9622
 20
-22
 30
88.942
 70
192
 0
VERTEX
 8
MESH_156_F0
 10
-484.3512
 20
-22
 30
123.343
 70
192
 0
VERTEX
 8
MESH_156_F0
 10
-495.6772
 20
-22
 30
160.6873
 70
192
 0
VERTEX
 8
MESH_156_F0
 10
-499.5
 20
-22
 30
199.5
 70
192
 0
VERTEX
 8
MESH_156_F0
 10
-499.5
 20
-18
 30
199.5
 70
192
 0
VERTEX
 8
MESH_156_F0
 10
-495.6763
 20
-18
 30
160.677
 70
192
 0
VERTEX
 8
MESH_156_F0
 10
-484.352
 20
-18
 30
123.346
 70
192
 0
VERTEX
 8
MESH_156_F0
 10
-465.9624
 20
-18
 30
88.9415
 70
192
 0
VERTEX
 8
MESH_156_F0
 10
-441.2142
 20
-18
 30
58.7858
 70
192
 0
VERTEX
 8
MESH_156_F0
 10
-411.0585
 20
-18
 30
34.0375
 70
192
 0
VERTEX
 8
MESH_156_F0
 10
-376.654
 20
-18
 30
15.648
 70
192
 0
VERTEX
 8
MESH_156_F0
 10
-339.323
 20
-18
 30
4.3237
 70
192
 0
VERTEX
 8
MESH_156_F0
 10
0
 20
0
 30
0
 70
128
 71
1
 72
3
 73
2
 74
2
 0
VERTEX
 8
MESH_156_F0
 10
0
 20
0
 30
0
 70
128
 71
18
 72
3
 73
1
 74
1
 0
VERTEX
 8
MESH_156_F0
 10
0
 20
0
 30
0
 70
128
 71
4
 72
3
 73
18
 74
18
 0
VERTEX
 8
MESH_156_F0
 10
0
 20
0
 30
0
 70
128
 71
5
 72
4
 73
17
 74
17
 0
VERTEX
 8
MESH_156_F0
 10
0
 20
0
 30
0
 70
128
 71
6
 72
5
 73
16
 74
16
 0
VERTEX
 8
MESH_156_F0
 10
0
 20
0
 30
0
 70
128
 71
7
 72
6
 73
15
 74
15
 0
VERTEX
 8
MESH_156_F0
 10
0
 20
0
 30
0
 70
128
 71
8
 72
7
 73
14
 74
14
 0
VERTEX
 8
MESH_156_F0
 10
0
 20
0
 30
0
 70
128
 71
9
 72
8
 73
13
 74
13
 0
VERTEX
 8
MESH_156_F0
 10
0
 20
0
 30
0
 70
128
 71
10
 72
9
 73
12
 74
12
 0
VERTEX
 8
MESH_156_F0
 10
0
 20
0
 30
0
 70
128
 71
10
 72
12
 73
11
 74
11
 0
VERTEX
 8
MESH_156_F0
 10
0
 20
0
 30
0
 70
128
 71
9
 72
13
 73
12
 74
12
 0
VERTEX
 8
MESH_156_F0
 10
0
 20
0
 30
0
 70
128
 71
8
 72
14
 73
13
 74
13
 0
VERTEX
 8
MESH_156_F0
 10
0
 20
0
 30
0
 70
128
 71
7
 72
15
 73
14
 74
14
 0
VERTEX
 8
MESH_156_F0
 10
0
 20
0
 30
0
 70
128
 71
6
 72
16
 73
15
 74
15
 0
VERTEX
 8
MESH_156_F0
 10
0
 20
0
 30
0
 70
128
 71
5
 72
17
 73
16
 74
16
 0
VERTEX
 8
MESH_156_F0
 10
0
 20
0
 30
0
 70
128
 71
4
 72
18
 73
17
 74
17
 0
SEQEND
 0
POLYLINE
 8
MESH_155_F0
 66
1
 10
0.0
 20
0.0
 30
0.0
 70
64
 71
4
 72
2
 0
VERTEX
 8
MESH_155_F0
 10
-499.5
 20
-18
 30
199.5
 70
192
 0
VERTEX
 8
MESH_155_F0
 10
-499.5
 20
-22
 30
199.5
 70
192
 0
VERTEX
 8
MESH_155_F0
 10
-499.5
 20
-22
 30
500.5
 70
192
 0
VERTEX
 8
MESH_155_F0
 10
-499.5
 20
-18
 30
500.5
 70
192
 0
VERTEX
 8
MESH_155_F0
 10
0
 20
0
 30
0
 70
128
 71
1
 72
3
 73
2
 74
2
 0
VERTEX
 8
MESH_155_F0
 10
0
 20
0
 30
0
 70
128
 71
4
 72
3
 73
1
 74
1
 0
SEQEND
 0
POLYLINE
 8
MESH_154_F0
 66
1
 10
0.0
 20
0.0
 30
0.0
 70
64
 71
18
 72
16
 0
VERTEX
 8
MESH_154_F0
 10
-499.5
 20
-18
 30
500.5
 70
192
 0
VERTEX
 8
MESH_154_F0
 10
-499.5
 20
-22
 30
500.5
 70
192
 0
VERTEX
 8
MESH_154_F0
 10
-495.6772
 20
-22
 30
539.3127
 70
192
 0
VERTEX
 8
MESH_154_F0
 10
-484.3512
 20
-22
 30
576.657
 70
192
 0
VERTEX
 8
MESH_154_F0
 10
-465.9622
 20
-22
 30
611.058
 70
192
 0
VERTEX
 8
MESH_154_F0
 10
-441.2141
 20
-22
 30
641.2142
 70
192
 0
VERTEX
 8
MESH_154_F0
 10
-411.058
 20
-22
 30
665.9622
 70
192
 0
VERTEX
 8
MESH_154_F0
 10
-376.657
 20
-22
 30
684.3512
 70
192
 0
VERTEX
 8
MESH_154_F0
 10
-339.3127
 20
-22
 30
695.6772
 70
192
 0
VERTEX
 8
MESH_154_F0
 10
-300.5
 20
-22
 30
699.5
 70
192
 0
VERTEX
 8
MESH_154_F0
 10
-300.5
 20
-18
 30
699.5
 70
192
 0
VERTEX
 8
MESH_154_F0
 10
-339.323
 20
-18
 30
695.6763
 70
192
 0
VERTEX
 8
MESH_154_F0
 10
-376.654
 20
-18
 30
684.352
 70
192
 0
VERTEX
 8
MESH_154_F0
 10
-411.0585
 20
-18
 30
665.9625
 70
192
 0
VERTEX
 8
MESH_154_F0
 10
-441.2142
 20
-18
 30
641.2142
 70
192
 0
VERTEX
 8
MESH_154_F0
 10
-465.9624
 20
-18
 30
611.0585
 70
192
 0
VERTEX
 8
MESH_154_F0
 10
-484.352
 20
-18
 30
576.654
 70
192
 0
VERTEX
 8
MESH_154_F0
 10
-495.6763
 20
-18
 30
539.323
 70
192
 0
VERTEX
 8
MESH_154_F0
 10
0
 20
0
 30
0
 70
128
 71
1
 72
3
 73
2
 74
2
 0
VERTEX
 8
MESH_154_F0
 10
0
 20
0
 30
0
 70
128
 71
18
 72
3
 73
1
 74
1
 0
VERTEX
 8
MESH_154_F0
 10
0
 20
0
 30
0
 70
128
 71
4
 72
3
 73
18
 74
18
 0
VERTEX
 8
MESH_154_F0
 10
0
 20
0
 30
0
 70
128
 71
5
 72
4
 73
17
 74
17
 0
VERTEX
 8
MESH_154_F0
 10
0
 20
0
 30
0
 70
128
 71
6
 72
5
 73
16
 74
16
 0
VERTEX
 8
MESH_154_F0
 10
0
 20
0
 30
0
 70
128
 71
7
 72
6
 73
15
 74
15
 0
VERTEX
 8
MESH_154_F0
 10
0
 20
0
 30
0
 70
128
 71
8
 72
7
 73
14
 74
14
 0
VERTEX
 8
MESH_154_F0
 10
0
 20
0
 30
0
 70
128
 71
9
 72
8
 73
13
 74
13
 0
VERTEX
 8
MESH_154_F0
 10
0
 20
0
 30
0
 70
128
 71
10
 72
9
 73
12
 74
12
 0
VERTEX
 8
MESH_154_F0
 10
0
 20
0
 30
0
 70
128
 71
10
 72
12
 73
11
 74
11
 0
VERTEX
 8
MESH_154_F0
 10
0
 20
0
 30
0
 70
128
 71
9
 72
13
 73
12
 74
12
 0
VERTEX
 8
MESH_154_F0
 10
0
 20
0
 30
0
 70
128
 71
8
 72
14
 73
13
 74
13
 0
VERTEX
 8
MESH_154_F0
 10
0
 20
0
 30
0
 70
128
 71
7
 72
15
 73
14
 74
14
 0
VERTEX
 8
MESH_154_F0
 10
0
 20
0
 30
0
 70
128
 71
6
 72
16
 73
15
 74
15
 0
VERTEX
 8
MESH_154_F0
 10
0
 20
0
 30
0
 70
128
 71
5
 72
17
 73
16
 74
16
 0
VERTEX
 8
MESH_154_F0
 10
0
 20
0
 30
0
 70
128
 71
4
 72
18
 73
17
 74
17
 0
SEQEND
 0
POLYLINE
 8
MESH_153_F0
 66
1
 10
0.0
 20
0.0
 30
0.0
 70
64
 71
4
 72
2
 0
VERTEX
 8
MESH_153_F0
 10
-300.5
 20
-18
 30
699.5
 70
192
 0
VERTEX
 8
MESH_153_F0
 10
-300.5
 20
-22
 30
699.5
 70
192
 0
VERTEX
 8
MESH_153_F0
 10
300.5
 20
-22
 30
699.5
 70
192
 0
VERTEX
 8
MESH_153_F0
 10
300.5
 20
-18
 30
699.5
 70
192
 0
VERTEX
 8
MESH_153_F0
 10
0
 20
0
 30
0
 70
128
 71
4
 72
2
 73
1
 74
1
 0
VERTEX
 8
MESH_153_F0
 10
0
 20
0
 30
0
 70
128
 71
3
 72
2
 73
4
 74
4
 0
SEQEND
 0
POLYLINE
 8
T7827_3DPL_F0
 66
1
 10
0.0
 20
0.0
 30
0.0
 70
64
 71
12
 72
6
 0
VERTEX
 8
T7827_3DPL_F0
 10
-10
 20
10
 30
0
 70
192
 0
VERTEX
 8
T7827_3DPL_F0
 10
-10
 20
-10
 30
0
 70
192
 0
VERTEX
 8
T7827_3DPL_F0
 10
10
 20
-10
 30
0
 70
192
 0
VERTEX
 8
T7827_3DPL_F0
 10
10
 20
10
 30
0
 70
192
 0
VERTEX
 8
T7827_3DPL_F0
 10
0
 20
10
 30
10
 70
192
 0
VERTEX
 8
T7827_3DPL_F0
 10
0
 20
-10
 30
10
 70
192
 0
VERTEX
 8
T7827_3DPL_F0
 10
0
 20
-10
 30
-10
 70
192
 0
VERTEX
 8
T7827_3DPL_F0
 10
0
 20
10
 30
-10
 70
192
 0
VERTEX
 8
T7827_3DPL_F0
 10
-10
 20
0
 30
10
 70
192
 0
VERTEX
 8
T7827_3DPL_F0
 10
10
 20
0
 30
10
 70
192
 0
VERTEX
 8
T7827_3DPL_F0
 10
10
 20
0
 30
-10
 70
192
 0
VERTEX
 8
T7827_3DPL_F0
 10
-10
 20
0
 30
-10
 70
192
 0
VERTEX
 8
T7827_3DPL_F0
 10
0
 20
0
 30
0
 70
128
 71
4
 72
2
 73
1
 74
1
 0
VERTEX
 8
T7827_3DPL_F0
 10
0
 20
0
 30
0
 70
128
 71
3
 72
2
 73
4
 74
4
 0
VERTEX
 8
T7827_3DPL_F0
 10
0
 20
0
 30
0
 70
128
 71
8
 72
6
 73
5
 74
5
 0
VERTEX
 8
T7827_3DPL_F0
 10
0
 20
0
 30
0
 70
128
 71
7
 72
6
 73
8
 74
8
 0
VERTEX
 8
T7827_3DPL_F0
 10
0
 20
0
 30
0
 70
128
 71
12
 72
10
 73
9
 74
9
 0
VERTEX
 8
T7827_3DPL_F0
 10
0
 20
0
 30
0
 70
128
 71
11
 72
10
 73
12
 74
12
 0
SEQEND
 0
ENDSEC
 0
EOF
