 0
SECTION
 2
HEADER
 9
$ACADVER
 1
AC1009
 0
ENDSEC
 0
SECTION
 2
TABLES
 0
TABLE
 2
LTYPE
 70
1
 0
LTYPE
 2
CONTINUOUS
 70
64
 3
solid line
 72
65
 73
0
 40
0.0
 0
ENDTAB
 0
TABLE
 2
LAYER
 70
6
 0
LAYER
 2
0
 70
0
 62
7
 6
CONTINUOUS
 0
LAYER
 2
MESH_519_F0
 70
64
 62
7
 6
CONTINUOUS
 0
LAYER
 2
MESH_518_F0
 70
64
 62
7
 6
CONTINUOUS
 0
LAYER
 2
MESH_517_F0
 70
64
 62
7
 6
CONTINUOUS
 0
LAYER
 2
MESH_516_F0
 70
64
 62
7
 6
CONTINUOUS
 0
LAYER
 2
MESH_515_F0
 70
64
 62
7
 6
CONTINUOUS
 0
LAYER
 2
MESH_514_F0
 70
64
 62
7
 6
CONTINUOUS
 0
LAYER
 2
MESH_513_F0
 70
64
 62
7
 6
CONTINUOUS
 0
LAYER
 2
MESH_512_F0
 70
64
 62
7
 6
CONTINUOUS
 0
LAYER
 2
MESH_511_F0
 70
64
 62
7
 6
CONTINUOUS
 0
LAYER
 2
MESH_510_F0
 70
64
 62
7
 6
CONTINUOUS
 0
LAYER
 2
MESH_508_F0
 70
64
 62
7
 6
CONTINUOUS
 0
LAYER
 2
MESH_507_F0
 70
64
 62
7
 6
CONTINUOUS
 0
LAYER
 2
MESH_506_F0
 70
64
 62
7
 6
CONTINUOUS
 0
LAYER
 2
MESH_505_F0
 70
64
 62
7
 6
CONTINUOUS
 0
LAYER
 2
MESH_504_F0
 70
64
 62
7
 6
CONTINUOUS
 0
LAYER
 2
MESH_503_F0
 70
64
 62
7
 6
CONTINUOUS
 0
LAYER
 2
MESH_501_F0
 70
64
 62
7
 6
CONTINUOUS
 0
LAYER
 2
MESH_500_F0
 70
64
 62
7
 6
CONTINUOUS
 0
LAYER
 2
MESH_499_F0
 70
64
 62
7
 6
CONTINUOUS
 0
LAYER
 2
MESH_498_F0
 70
64
 62
7
 6
CONTINUOUS
 0
LAYER
 2
MESH_497_F0
 70
64
 62
7
 6
CONTINUOUS
 0
LAYER
 2
MESH_496_F0
 70
64
 62
7
 6
CONTINUOUS
 0
LAYER
 2
MESH_494_F0
 70
64
 62
7
 6
CONTINUOUS
 0
LAYER
 2
MESH_493_F0
 70
64
 62
7
 6
CONTINUOUS
 0
LAYER
 2
MESH_492_F0
 70
64
 62
7
 6
CONTINUOUS
 0
LAYER
 2
MESH_491_F0
 70
64
 62
7
 6
CONTINUOUS
 0
LAYER
 2
MESH_490_F0
 70
64
 62
7
 6
CONTINUOUS
 0
LAYER
 2
MESH_489_F0
 70
64
 62
7
 6
CONTINUOUS
 0
LAYER
 2
MESH_488_F0
 70
64
 62
7
 6
CONTINUOUS
 0
LAYER
 2
MESH_487_F0
 70
64
 62
7
 6
CONTINUOUS
 0
LAYER
 2
MESH_486_F0
 70
64
 62
7
 6
CONTINUOUS
 0
LAYER
 2
MESH_485_F0
 70
64
 62
7
 6
CONTINUOUS
 0
LAYER
 2
MESH_484_F0
 70
64
 62
7
 6
CONTINUOUS
 0
LAYER
 2
MESH_483_F0
 70
64
 62
7
 6
CONTINUOUS
 0
LAYER
 2
MESH_482_F0
 70
64
 62
7
 6
CONTINUOUS
 0
LAYER
 2
MESH_481_F0
 70
64
 62
7
 6
CONTINUOUS
 0
LAYER
 2
MESH_480_F0
 70
64
 62
7
 6
CONTINUOUS
 0
LAYER
 2
MESH_479_F0
 70
64
 62
7
 6
CONTINUOUS
 0
LAYER
 2
MESH_477_F0
 70
64
 62
7
 6
CONTINUOUS
 0
LAYER
 2
MESH_476_F0
 70
64
 62
7
 6
CONTINUOUS
 0
LAYER
 2
MESH_475_F0
 70
64
 62
7
 6
CONTINUOUS
 0
LAYER
 2
MESH_474_F0
 70
64
 62
7
 6
CONTINUOUS
 0
LAYER
 2
MESH_473_F0
 70
64
 62
7
 6
CONTINUOUS
 0
LAYER
 2
MESH_472_F0
 70
64
 62
7
 6
CONTINUOUS
 0
LAYER
 2
MESH_470_F0
 70
64
 62
7
 6
CONTINUOUS
 0
LAYER
 2
MESH_469_F0
 70
64
 62
7
 6
CONTINUOUS
 0
LAYER
 2
MESH_468_F0
 70
64
 62
7
 6
CONTINUOUS
 0
LAYER
 2
MESH_467_F0
 70
64
 62
7
 6
CONTINUOUS
 0
LAYER
 2
MESH_466_F0
 70
64
 62
7
 6
CONTINUOUS
 0
LAYER
 2
MESH_465_F0
 70
64
 62
7
 6
CONTINUOUS
 0
LAYER
 2
MESH_463_F0
 70
64
 62
7
 6
CONTINUOUS
 0
LAYER
 2
MESH_462_F0
 70
64
 62
7
 6
CONTINUOUS
 0
LAYER
 2
MESH_461_F0
 70
64
 62
7
 6
CONTINUOUS
 0
LAYER
 2
MESH_460_F0
 70
64
 62
7
 6
CONTINUOUS
 0
LAYER
 2
MESH_459_F0
 70
64
 62
7
 6
CONTINUOUS
 0
LAYER
 2
MESH_458_F0
 70
64
 62
7
 6
CONTINUOUS
 0
LAYER
 2
MESH_456_F0
 70
64
 62
7
 6
CONTINUOUS
 0
LAYER
 2
MESH_455_F0
 70
64
 62
7
 6
CONTINUOUS
 0
LAYER
 2
MESH_454_F0
 70
64
 62
7
 6
CONTINUOUS
 0
LAYER
 2
MESH_453_F0
 70
64
 62
7
 6
CONTINUOUS
 0
LAYER
 2
MESH_452_F0
 70
64
 62
7
 6
CONTINUOUS
 0
LAYER
 2
MESH_451_F0
 70
64
 62
7
 6
CONTINUOUS
 0
LAYER
 2
MESH_449_F0
 70
64
 62
7
 6
CONTINUOUS
 0
LAYER
 2
MESH_448_F0
 70
64
 62
7
 6
CONTINUOUS
 0
LAYER
 2
MESH_447_F0
 70
64
 62
7
 6
CONTINUOUS
 0
LAYER
 2
MESH_446_F0
 70
64
 62
7
 6
CONTINUOUS
 0
LAYER
 2
MESH_445_F0
 70
64
 62
7
 6
CONTINUOUS
 0
LAYER
 2
MESH_444_F0
 70
64
 62
7
 6
CONTINUOUS
 0
LAYER
 2
MESH_443_F0
 70
64
 62
7
 6
CONTINUOUS
 0
LAYER
 2
MESH_442_F0
 70
64
 62
7
 6
CONTINUOUS
 0
LAYER
 2
MESH_441_F0
 70
64
 62
7
 6
CONTINUOUS
 0
LAYER
 2
MESH_440_F0
 70
64
 62
7
 6
CONTINUOUS
 0
LAYER
 2
MESH_439_F0
 70
64
 62
7
 6
CONTINUOUS
 0
LAYER
 2
MESH_438_F0
 70
64
 62
7
 6
CONTINUOUS
 0
LAYER
 2
MESH_437_F0
 70
64
 62
7
 6
CONTINUOUS
 0
LAYER
 2
MESH_436_F0
 70
64
 62
7
 6
CONTINUOUS
 0
LAYER
 2
MESH_435_F0
 70
64
 62
7
 6
CONTINUOUS
 0
LAYER
 2
MESH_434_F0
 70
64
 62
7
 6
CONTINUOUS
 0
LAYER
 2
MESH_433_F0
 70
64
 62
7
 6
CONTINUOUS
 0
LAYER
 2
MESH_432_F0
 70
64
 62
7
 6
CONTINUOUS
 0
LAYER
 2
MESH_431_F0
 70
64
 62
7
 6
CONTINUOUS
 0
LAYER
 2
MESH_430_F0
 70
64
 62
7
 6
CONTINUOUS
 0
LAYER
 2
MESH_429_F0
 70
64
 62
7
 6
CONTINUOUS
 0
LAYER
 2
MESH_428_F0
 70
64
 62
7
 6
CONTINUOUS
 0
LAYER
 2
MESH_426_F0
 70
64
 62
7
 6
CONTINUOUS
 0
LAYER
 2
MESH_425_F0
 70
64
 62
7
 6
CONTINUOUS
 0
LAYER
 2
MESH_424_F0
 70
64
 62
7
 6
CONTINUOUS
 0
LAYER
 2
MESH_423_F0
 70
64
 62
7
 6
CONTINUOUS
 0
LAYER
 2
MESH_422_F0
 70
64
 62
7
 6
CONTINUOUS
 0
LAYER
 2
MESH_421_F0
 70
64
 62
7
 6
CONTINUOUS
 0
LAYER
 2
MESH_420_F0
 70
64
 62
7
 6
CONTINUOUS
 0
LAYER
 2
MESH_419_F0
 70
64
 62
7
 6
CONTINUOUS
 0
LAYER
 2
MESH_418_F0
 70
64
 62
7
 6
CONTINUOUS
 0
LAYER
 2
MESH_417_F0
 70
64
 62
7
 6
CONTINUOUS
 0
LAYER
 2
MESH_416_F0
 70
64
 62
7
 6
CONTINUOUS
 0
LAYER
 2
MESH_415_F0
 70
64
 62
7
 6
CONTINUOUS
 0
LAYER
 2
MESH_414_F0
 70
64
 62
7
 6
CONTINUOUS
 0
LAYER
 2
MESH_413_F0
 70
64
 62
7
 6
CONTINUOUS
 0
LAYER
 2
MESH_412_F0
 70
64
 62
7
 6
CONTINUOUS
 0
LAYER
 2
MESH_411_F0
 70
64
 62
7
 6
CONTINUOUS
 0
LAYER
 2
MESH_410_F0
 70
64
 62
7
 6
CONTINUOUS
 0
LAYER
 2
MESH_409_F0
 70
64
 62
7
 6
CONTINUOUS
 0
LAYER
 2
MESH_408_F0
 70
64
 62
7
 6
CONTINUOUS
 0
LAYER
 2
MESH_407_F0
 70
64
 62
7
 6
CONTINUOUS
 0
LAYER
 2
MESH_406_F0
 70
64
 62
7
 6
CONTINUOUS
 0
LAYER
 2
MESH_405_F0
 70
64
 62
7
 6
CONTINUOUS
 0
LAYER
 2
MESH_404_F0
 70
64
 62
7
 6
CONTINUOUS
 0
LAYER
 2
MESH_403_F0
 70
64
 62
7
 6
CONTINUOUS
 0
LAYER
 2
MESH_402_F0
 70
64
 62
7
 6
CONTINUOUS
 0
LAYER
 2
MESH_401_F0
 70
64
 62
7
 6
CONTINUOUS
 0
LAYER
 2
MESH_400_F0
 70
64
 62
7
 6
CONTINUOUS
 0
LAYER
 2
MESH_399_F0
 70
64
 62
7
 6
CONTINUOUS
 0
LAYER
 2
MESH_398_F0
 70
64
 62
7
 6
CONTINUOUS
 0
LAYER
 2
MESH_397_F0
 70
64
 62
7
 6
CONTINUOUS
 0
LAYER
 2
MESH_396_F0
 70
64
 62
7
 6
CONTINUOUS
 0
LAYER
 2
MESH_395_F0
 70
64
 62
7
 6
CONTINUOUS
 0
LAYER
 2
MESH_394_F0
 70
64
 62
7
 6
CONTINUOUS
 0
LAYER
 2
MESH_393_F0
 70
64
 62
7
 6
CONTINUOUS
 0
LAYER
 2
MESH_392_F0
 70
64
 62
7
 6
CONTINUOUS
 0
LAYER
 2
MESH_391_F0
 70
64
 62
7
 6
CONTINUOUS
 0
LAYER
 2
MESH_390_F0
 70
64
 62
7
 6
CONTINUOUS
 0
LAYER
 2
MESH_389_F0
 70
64
 62
7
 6
CONTINUOUS
 0
LAYER
 2
MESH_388_F0
 70
64
 62
7
 6
CONTINUOUS
 0
LAYER
 2
MESH_387_F0
 70
64
 62
7
 6
CONTINUOUS
 0
LAYER
 2
MESH_386_F0
 70
64
 62
7
 6
CONTINUOUS
 0
LAYER
 2
MESH_385_F0
 70
64
 62
7
 6
CONTINUOUS
 0
LAYER
 2
MESH_384_F0
 70
64
 62
7
 6
CONTINUOUS
 0
LAYER
 2
MESH_383_F0
 70
64
 62
7
 6
CONTINUOUS
 0
LAYER
 2
MESH_382_F0
 70
64
 62
7
 6
CONTINUOUS
 0
LAYER
 2
MESH_381_F0
 70
64
 62
7
 6
CONTINUOUS
 0
LAYER
 2
MESH_380_F0
 70
64
 62
7
 6
CONTINUOUS
 0
LAYER
 2
MESH_379_F0
 70
64
 62
7
 6
CONTINUOUS
 0
LAYER
 2
MESH_378_F0
 70
64
 62
7
 6
CONTINUOUS
 0
LAYER
 2
MESH_377_F0
 70
64
 62
7
 6
CONTINUOUS
 0
LAYER
 2
MESH_376_F0
 70
64
 62
7
 6
CONTINUOUS
 0
LAYER
 2
MESH_375_F0
 70
64
 62
7
 6
CONTINUOUS
 0
LAYER
 2
MESH_374_F0
 70
64
 62
7
 6
CONTINUOUS
 0
LAYER
 2
MESH_373_F0
 70
64
 62
7
 6
CONTINUOUS
 0
LAYER
 2
MESH_372_F0
 70
64
 62
7
 6
CONTINUOUS
 0
LAYER
 2
MESH_371_F0
 70
64
 62
7
 6
CONTINUOUS
 0
LAYER
 2
MESH_370_F0
 70
64
 62
7
 6
CONTINUOUS
 0
LAYER
 2
MESH_369_F0
 70
64
 62
7
 6
CONTINUOUS
 0
LAYER
 2
MESH_368_F0
 70
64
 62
7
 6
CONTINUOUS
 0
LAYER
 2
MESH_367_F0
 70
64
 62
7
 6
CONTINUOUS
 0
LAYER
 2
MESH_366_F0
 70
64
 62
7
 6
CONTINUOUS
 0
LAYER
 2
MESH_365_F0
 70
64
 62
7
 6
CONTINUOUS
 0
LAYER
 2
MESH_364_F0
 70
64
 62
7
 6
CONTINUOUS
 0
LAYER
 2
MESH_363_F0
 70
64
 62
7
 6
CONTINUOUS
 0
LAYER
 2
MESH_362_F0
 70
64
 62
7
 6
CONTINUOUS
 0
ENDTAB
 0
ENDSEC
 0
SECTION
 2
BLOCKS
 0
ENDSEC
 0
SECTION
 2
ENTITIES
 0
POLYLINE
 8
MESH_519_F0
 66
1
 10
0.0
 20
0.0
 30
0.0
 70
64
 71
4
 72
2
 0
VERTEX
 8
MESH_519_F0
 10
214.5
 20
120
 30
-520
 70
192
 0
VERTEX
 8
MESH_519_F0
 10
199.5
 20
120
 30
-520
 70
192
 0
VERTEX
 8
MESH_519_F0
 10
199.5
 20
120
 30
-23
 70
192
 0
VERTEX
 8
MESH_519_F0
 10
214.5
 20
120
 30
-23
 70
192
 0
VERTEX
 8
MESH_519_F0
 10
0
 20
0
 30
0
 70
128
 71
4
 72
2
 73
1
 74
1
 0
VERTEX
 8
MESH_519_F0
 10
0
 20
0
 30
0
 70
128
 71
3
 72
2
 73
4
 74
4
 0
SEQEND
 0
POLYLINE
 8
MESH_518_F0
 66
1
 10
0.0
 20
0.0
 30
0.0
 70
64
 71
13
 72
14
 0
VERTEX
 8
MESH_518_F0
 10
217.5
 20
117
 30
-23
 70
192
 0
VERTEX
 8
MESH_518_F0
 10
217.0981
 20
118.5
 30
-23
 70
192
 0
VERTEX
 8
MESH_518_F0
 10
216
 20
119.5981
 30
-23
 70
192
 0
VERTEX
 8
MESH_518_F0
 10
214.5
 20
120
 30
-23
 70
192
 0
VERTEX
 8
MESH_518_F0
 10
214.5
 20
119.5981
 30
-21.5
 70
192
 0
VERTEX
 8
MESH_518_F0
 10
214.5
 20
118.5
 30
-20.4019
 70
192
 0
VERTEX
 8
MESH_518_F0
 10
214.5
 20
117
 30
-20
 70
192
 0
VERTEX
 8
MESH_518_F0
 10
216
 20
117
 30
-20.4019
 70
192
 0
VERTEX
 8
MESH_518_F0
 10
217.0981
 20
117
 30
-21.5
 70
192
 0
VERTEX
 8
MESH_518_F0
 10
216.75
 20
118.299
 30
-21.5
 70
192
 0
VERTEX
 8
MESH_518_F0
 10
215.799
 20
117.75
 30
-20.4019
 70
192
 0
VERTEX
 8
MESH_518_F0
 10
215.799
 20
119.25
 30
-21.5
 70
192
 0
VERTEX
 8
MESH_518_F0
 10
215.25
 20
118.299
 30
-20.4019
 70
192
 0
VERTEX
 8
MESH_518_F0
 10
0
 20
0
 30
0
 70
128
 71
10
 72
1
 73
9
 74
9
 0
VERTEX
 8
MESH_518_F0
 10
0
 20
0
 30
0
 70
128
 71
13
 72
12
 73
10
 74
11
 0
VERTEX
 8
MESH_518_F0
 10
0
 20
0
 30
0
 70
128
 71
11
 72
7
 73
13
 74
13
 0
VERTEX
 8
MESH_518_F0
 10
0
 20
0
 30
0
 70
128
 71
7
 72
6
 73
13
 74
13
 0
VERTEX
 8
MESH_518_F0
 10
0
 20
0
 30
0
 70
128
 71
6
 72
12
 73
13
 74
13
 0
VERTEX
 8
MESH_518_F0
 10
0
 20
0
 30
0
 70
128
 71
5
 72
12
 73
6
 74
6
 0
VERTEX
 8
MESH_518_F0
 10
0
 20
0
 30
0
 70
128
 71
3
 72
12
 73
5
 74
5
 0
VERTEX
 8
MESH_518_F0
 10
0
 20
0
 30
0
 70
128
 71
3
 72
5
 73
4
 74
4
 0
VERTEX
 8
MESH_518_F0
 10
0
 20
0
 30
0
 70
128
 71
2
 72
12
 73
3
 74
3
 0
VERTEX
 8
MESH_518_F0
 10
0
 20
0
 30
0
 70
128
 71
10
 72
12
 73
2
 74
2
 0
VERTEX
 8
MESH_518_F0
 10
0
 20
0
 30
0
 70
128
 71
10
 72
2
 73
1
 74
1
 0
VERTEX
 8
MESH_518_F0
 10
0
 20
0
 30
0
 70
128
 71
11
 72
8
 73
7
 74
7
 0
VERTEX
 8
MESH_518_F0
 10
0
 20
0
 30
0
 70
128
 71
11
 72
9
 73
8
 74
8
 0
VERTEX
 8
MESH_518_F0
 10
0
 20
0
 30
0
 70
128
 71
10
 72
9
 73
11
 74
11
 0
SEQEND
 0
POLYLINE
 8
MESH_517_F0
 66
1
 10
0.0
 20
0.0
 30
0.0
 70
64
 71
4
 72
2
 0
VERTEX
 8
MESH_517_F0
 10
217.5
 20
117
 30
-23
 70
192
 0
VERTEX
 8
MESH_517_F0
 10
217.5
 20
0
 30
-23
 70
192
 0
VERTEX
 8
MESH_517_F0
 10
217.5
 20
0
 30
-520
 70
192
 0
VERTEX
 8
MESH_517_F0
 10
217.5
 20
117
 30
-520
 70
192
 0
VERTEX
 8
MESH_517_F0
 10
0
 20
0
 30
0
 70
128
 71
4
 72
2
 73
1
 74
1
 0
VERTEX
 8
MESH_517_F0
 10
0
 20
0
 30
0
 70
128
 71
3
 72
2
 73
4
 74
4
 0
SEQEND
 0
POLYLINE
 8
MESH_516_F0
 66
1
 10
0.0
 20
0.0
 30
0.0
 70
64
 71
8
 72
6
 0
VERTEX
 8
MESH_516_F0
 10
214.5
 20
120
 30
-520
 70
192
 0
VERTEX
 8
MESH_516_F0
 10
214.5
 20
120
 30
-23
 70
192
 0
VERTEX
 8
MESH_516_F0
 10
216
 20
119.5981
 30
-23
 70
192
 0
VERTEX
 8
MESH_516_F0
 10
217.0981
 20
118.5
 30
-23
 70
192
 0
VERTEX
 8
MESH_516_F0
 10
217.5
 20
117
 30
-23
 70
192
 0
VERTEX
 8
MESH_516_F0
 10
217.5
 20
117
 30
-520
 70
192
 0
VERTEX
 8
MESH_516_F0
 10
217.0981
 20
118.5
 30
-520
 70
192
 0
VERTEX
 8
MESH_516_F0
 10
216
 20
119.5981
 30
-520
 70
192
 0
VERTEX
 8
MESH_516_F0
 10
0
 20
0
 30
0
 70
128
 71
8
 72
2
 73
1
 74
1
 0
VERTEX
 8
MESH_516_F0
 10
0
 20
0
 30
0
 70
128
 71
3
 72
2
 73
8
 74
8
 0
VERTEX
 8
MESH_516_F0
 10
0
 20
0
 30
0
 70
128
 71
3
 72
8
 73
4
 74
4
 0
VERTEX
 8
MESH_516_F0
 10
0
 20
0
 30
0
 70
128
 71
8
 72
7
 73
4
 74
4
 0
VERTEX
 8
MESH_516_F0
 10
0
 20
0
 30
0
 70
128
 71
7
 72
6
 73
4
 74
4
 0
VERTEX
 8
MESH_516_F0
 10
0
 20
0
 30
0
 70
128
 71
6
 72
5
 73
4
 74
4
 0
SEQEND
 0
POLYLINE
 8
MESH_515_F0
 66
1
 10
0.0
 20
0.0
 30
0.0
 70
64
 71
7
 72
5
 0
VERTEX
 8
MESH_515_F0
 10
217.5
 20
117
 30
-520
 70
192
 0
VERTEX
 8
MESH_515_F0
 10
217.5
 20
0
 30
-520
 70
192
 0
VERTEX
 8
MESH_515_F0
 10
199.5
 20
0
 30
-520
 70
192
 0
VERTEX
 8
MESH_515_F0
 10
199.5
 20
120
 30
-520
 70
192
 0
VERTEX
 8
MESH_515_F0
 10
214.5
 20
120
 30
-520
 70
192
 0
VERTEX
 8
MESH_515_F0
 10
216
 20
119.5981
 30
-520
 70
192
 0
VERTEX
 8
MESH_515_F0
 10
217.0981
 20
118.5
 30
-520
 70
192
 0
VERTEX
 8
MESH_515_F0
 10
0
 20
0
 30
0
 70
128
 71
6
 72
1
 73
7
 74
7
 0
VERTEX
 8
MESH_515_F0
 10
0
 20
0
 30
0
 70
128
 71
2
 72
1
 73
6
 74
6
 0
VERTEX
 8
MESH_515_F0
 10
0
 20
0
 30
0
 70
128
 71
3
 72
2
 73
5
 74
5
 0
VERTEX
 8
MESH_515_F0
 10
0
 20
0
 30
0
 70
128
 71
3
 72
5
 73
4
 74
4
 0
VERTEX
 8
MESH_515_F0
 10
0
 20
0
 30
0
 70
128
 71
2
 72
6
 73
5
 74
5
 0
SEQEND
 0
POLYLINE
 8
MESH_514_F0
 66
1
 10
0.0
 20
0.0
 30
0.0
 70
64
 71
7
 72
5
 0
VERTEX
 8
MESH_514_F0
 10
199.5
 20
120
 30
-23
 70
192
 0
VERTEX
 8
MESH_514_F0
 10
199.5
 20
120
 30
-520
 70
192
 0
VERTEX
 8
MESH_514_F0
 10
199.5
 20
0
 30
-520
 70
192
 0
VERTEX
 8
MESH_514_F0
 10
199.5
 20
0
 30
-20
 70
192
 0
VERTEX
 8
MESH_514_F0
 10
199.5
 20
117
 30
-20
 70
192
 0
VERTEX
 8
MESH_514_F0
 10
199.5
 20
118.5
 30
-20.4019
 70
192
 0
VERTEX
 8
MESH_514_F0
 10
199.5
 20
119.5981
 30
-21.5
 70
192
 0
VERTEX
 8
MESH_514_F0
 10
0
 20
0
 30
0
 70
128
 71
1
 72
5
 73
2
 74
2
 0
VERTEX
 8
MESH_514_F0
 10
0
 20
0
 30
0
 70
128
 71
5
 72
3
 73
2
 74
2
 0
VERTEX
 8
MESH_514_F0
 10
0
 20
0
 30
0
 70
128
 71
4
 72
3
 73
5
 74
5
 0
VERTEX
 8
MESH_514_F0
 10
0
 20
0
 30
0
 70
128
 71
1
 72
6
 73
5
 74
5
 0
VERTEX
 8
MESH_514_F0
 10
0
 20
0
 30
0
 70
128
 71
7
 72
6
 73
1
 74
1
 0
SEQEND
 0
POLYLINE
 8
MESH_513_F0
 66
1
 10
0.0
 20
0.0
 30
0.0
 70
64
 71
8
 72
6
 0
VERTEX
 8
MESH_513_F0
 10
199.5
 20
117
 30
-20
 70
192
 0
VERTEX
 8
MESH_513_F0
 10
214.5
 20
117
 30
-20
 70
192
 0
VERTEX
 8
MESH_513_F0
 10
214.5
 20
118.5
 30
-20.4019
 70
192
 0
VERTEX
 8
MESH_513_F0
 10
214.5
 20
119.5981
 30
-21.5
 70
192
 0
VERTEX
 8
MESH_513_F0
 10
214.5
 20
120
 30
-23
 70
192
 0
VERTEX
 8
MESH_513_F0
 10
199.5
 20
120
 30
-23
 70
192
 0
VERTEX
 8
MESH_513_F0
 10
199.5
 20
119.5981
 30
-21.5
 70
192
 0
VERTEX
 8
MESH_513_F0
 10
199.5
 20
118.5
 30
-20.4019
 70
192
 0
VERTEX
 8
MESH_513_F0
 10
0
 20
0
 30
0
 70
128
 71
8
 72
2
 73
1
 74
1
 0
VERTEX
 8
MESH_513_F0
 10
0
 20
0
 30
0
 70
128
 71
3
 72
2
 73
8
 74
8
 0
VERTEX
 8
MESH_513_F0
 10
0
 20
0
 30
0
 70
128
 71
3
 72
8
 73
4
 74
4
 0
VERTEX
 8
MESH_513_F0
 10
0
 20
0
 30
0
 70
128
 71
8
 72
7
 73
4
 74
4
 0
VERTEX
 8
MESH_513_F0
 10
0
 20
0
 30
0
 70
128
 71
7
 72
6
 73
4
 74
4
 0
VERTEX
 8
MESH_513_F0
 10
0
 20
0
 30
0
 70
128
 71
6
 72
5
 73
4
 74
4
 0
SEQEND
 0
POLYLINE
 8
MESH_512_F0
 66
1
 10
0.0
 20
0.0
 30
0.0
 70
64
 71
4
 72
2
 0
VERTEX
 8
MESH_512_F0
 10
199.5
 20
117
 30
-20
 70
192
 0
VERTEX
 8
MESH_512_F0
 10
199.5
 20
0
 30
-20
 70
192
 0
VERTEX
 8
MESH_512_F0
 10
214.5
 20
0
 30
-20
 70
192
 0
VERTEX
 8
MESH_512_F0
 10
214.5
 20
117
 30
-20
 70
192
 0
VERTEX
 8
MESH_512_F0
 10
0
 20
0
 30
0
 70
128
 71
1
 72
3
 73
2
 74
2
 0
VERTEX
 8
MESH_512_F0
 10
0
 20
0
 30
0
 70
128
 71
4
 72
3
 73
1
 74
1
 0
SEQEND
 0
POLYLINE
 8
MESH_511_F0
 66
1
 10
0.0
 20
0.0
 30
0.0
 70
64
 71
8
 72
6
 0
VERTEX
 8
MESH_511_F0
 10
217.5
 20
0
 30
-23
 70
192
 0
VERTEX
 8
MESH_511_F0
 10
217.5
 20
117
 30
-23
 70
192
 0
VERTEX
 8
MESH_511_F0
 10
217.0981
 20
117
 30
-21.5
 70
192
 0
VERTEX
 8
MESH_511_F0
 10
216
 20
117
 30
-20.4019
 70
192
 0
VERTEX
 8
MESH_511_F0
 10
214.5
 20
117
 30
-20
 70
192
 0
VERTEX
 8
MESH_511_F0
 10
214.5
 20
0
 30
-20
 70
192
 0
VERTEX
 8
MESH_511_F0
 10
216
 20
0
 30
-20.4019
 70
192
 0
VERTEX
 8
MESH_511_F0
 10
217.0981
 20
0
 30
-21.5
 70
192
 0
VERTEX
 8
MESH_511_F0
 10
0
 20
0
 30
0
 70
128
 71
8
 72
2
 73
1
 74
1
 0
VERTEX
 8
MESH_511_F0
 10
0
 20
0
 30
0
 70
128
 71
3
 72
2
 73
8
 74
8
 0
VERTEX
 8
MESH_511_F0
 10
0
 20
0
 30
0
 70
128
 71
3
 72
8
 73
4
 74
4
 0
VERTEX
 8
MESH_511_F0
 10
0
 20
0
 30
0
 70
128
 71
8
 72
7
 73
4
 74
4
 0
VERTEX
 8
MESH_511_F0
 10
0
 20
0
 30
0
 70
128
 71
7
 72
6
 73
4
 74
4
 0
VERTEX
 8
MESH_511_F0
 10
0
 20
0
 30
0
 70
128
 71
6
 72
5
 73
4
 74
4
 0
SEQEND
 0
POLYLINE
 8
MESH_510_F0
 66
1
 10
0.0
 20
0.0
 30
0.0
 70
64
 71
7
 72
5
 0
VERTEX
 8
MESH_510_F0
 10
214.5
 20
0
 30
-20
 70
192
 0
VERTEX
 8
MESH_510_F0
 10
199.5
 20
0
 30
-20
 70
192
 0
VERTEX
 8
MESH_510_F0
 10
199.5
 20
0
 30
-520
 70
192
 0
VERTEX
 8
MESH_510_F0
 10
217.5
 20
0
 30
-520
 70
192
 0
VERTEX
 8
MESH_510_F0
 10
217.5
 20
0
 30
-23
 70
192
 0
VERTEX
 8
MESH_510_F0
 10
217.0981
 20
0
 30
-21.5
 70
192
 0
VERTEX
 8
MESH_510_F0
 10
216
 20
0
 30
-20.4019
 70
192
 0
VERTEX
 8
MESH_510_F0
 10
0
 20
0
 30
0
 70
128
 71
1
 72
3
 73
2
 74
2
 0
VERTEX
 8
MESH_510_F0
 10
0
 20
0
 30
0
 70
128
 71
4
 72
3
 73
1
 74
1
 0
VERTEX
 8
MESH_510_F0
 10
0
 20
0
 30
0
 70
128
 71
5
 72
4
 73
7
 74
7
 0
VERTEX
 8
MESH_510_F0
 10
0
 20
0
 30
0
 70
128
 71
5
 72
7
 73
6
 74
6
 0
VERTEX
 8
MESH_510_F0
 10
0
 20
0
 30
0
 70
128
 71
4
 72
1
 73
7
 74
7
 0
SEQEND
 0
POLYLINE
 8
MESH_508_F0
 66
1
 10
0.0
 20
0.0
 30
0.0
 70
64
 71
4
 72
2
 0
VERTEX
 8
MESH_508_F0
 10
-217.5
 20
224
 30
-520
 70
192
 0
VERTEX
 8
MESH_508_F0
 10
-217.5
 20
224
 30
-20
 70
192
 0
VERTEX
 8
MESH_508_F0
 10
-201.5
 20
224
 30
-20
 70
192
 0
VERTEX
 8
MESH_508_F0
 10
-201.5
 20
224
 30
-520
 70
192
 0
VERTEX
 8
MESH_508_F0
 10
0
 20
0
 30
0
 70
128
 71
1
 72
3
 73
2
 74
2
 0
VERTEX
 8
MESH_508_F0
 10
0
 20
0
 30
0
 70
128
 71
4
 72
3
 73
1
 74
1
 0
SEQEND
 0
POLYLINE
 8
MESH_507_F0
 66
1
 10
0.0
 20
0.0
 30
0.0
 70
64
 71
4
 72
2
 0
VERTEX
 8
MESH_507_F0
 10
-217.5
 20
0
 30
-20
 70
192
 0
VERTEX
 8
MESH_507_F0
 10
-217.5
 20
224
 30
-20
 70
192
 0
VERTEX
 8
MESH_507_F0
 10
-217.5
 20
224
 30
-520
 70
192
 0
VERTEX
 8
MESH_507_F0
 10
-217.5
 20
0
 30
-520
 70
192
 0
VERTEX
 8
MESH_507_F0
 10
0
 20
0
 30
0
 70
128
 71
4
 72
2
 73
1
 74
1
 0
VERTEX
 8
MESH_507_F0
 10
0
 20
0
 30
0
 70
128
 71
3
 72
2
 73
4
 74
4
 0
SEQEND
 0
POLYLINE
 8
MESH_506_F0
 66
1
 10
0.0
 20
0.0
 30
0.0
 70
64
 71
4
 72
2
 0
VERTEX
 8
MESH_506_F0
 10
-201.5
 20
0
 30
-20
 70
192
 0
VERTEX
 8
MESH_506_F0
 10
-201.5
 20
224
 30
-20
 70
192
 0
VERTEX
 8
MESH_506_F0
 10
-217.5
 20
224
 30
-20
 70
192
 0
VERTEX
 8
MESH_506_F0
 10
-217.5
 20
0
 30
-20
 70
192
 0
VERTEX
 8
MESH_506_F0
 10
0
 20
0
 30
0
 70
128
 71
1
 72
3
 73
2
 74
2
 0
VERTEX
 8
MESH_506_F0
 10
0
 20
0
 30
0
 70
128
 71
4
 72
3
 73
1
 74
1
 0
SEQEND
 0
POLYLINE
 8
MESH_505_F0
 66
1
 10
0.0
 20
0.0
 30
0.0
 70
64
 71
4
 72
2
 0
VERTEX
 8
MESH_505_F0
 10
-201.5
 20
0
 30
-520
 70
192
 0
VERTEX
 8
MESH_505_F0
 10
-201.5
 20
224
 30
-520
 70
192
 0
VERTEX
 8
MESH_505_F0
 10
-201.5
 20
224
 30
-20
 70
192
 0
VERTEX
 8
MESH_505_F0
 10
-201.5
 20
0
 30
-20
 70
192
 0
VERTEX
 8
MESH_505_F0
 10
0
 20
0
 30
0
 70
128
 71
4
 72
2
 73
1
 74
1
 0
VERTEX
 8
MESH_505_F0
 10
0
 20
0
 30
0
 70
128
 71
3
 72
2
 73
4
 74
4
 0
SEQEND
 0
POLYLINE
 8
MESH_504_F0
 66
1
 10
0.0
 20
0.0
 30
0.0
 70
64
 71
4
 72
2
 0
VERTEX
 8
MESH_504_F0
 10
-217.5
 20
0
 30
-520
 70
192
 0
VERTEX
 8
MESH_504_F0
 10
-217.5
 20
224
 30
-520
 70
192
 0
VERTEX
 8
MESH_504_F0
 10
-201.5
 20
224
 30
-520
 70
192
 0
VERTEX
 8
MESH_504_F0
 10
-201.5
 20
0
 30
-520
 70
192
 0
VERTEX
 8
MESH_504_F0
 10
0
 20
0
 30
0
 70
128
 71
1
 72
3
 73
2
 74
2
 0
VERTEX
 8
MESH_504_F0
 10
0
 20
0
 30
0
 70
128
 71
4
 72
3
 73
1
 74
1
 0
SEQEND
 0
POLYLINE
 8
MESH_503_F0
 66
1
 10
0.0
 20
0.0
 30
0.0
 70
64
 71
4
 72
2
 0
VERTEX
 8
MESH_503_F0
 10
-201.5
 20
0
 30
-520
 70
192
 0
VERTEX
 8
MESH_503_F0
 10
-201.5
 20
0
 30
-20
 70
192
 0
VERTEX
 8
MESH_503_F0
 10
-217.5
 20
0
 30
-20
 70
192
 0
VERTEX
 8
MESH_503_F0
 10
-217.5
 20
0
 30
-520
 70
192
 0
VERTEX
 8
MESH_503_F0
 10
0
 20
0
 30
0
 70
128
 71
1
 72
3
 73
2
 74
2
 0
VERTEX
 8
MESH_503_F0
 10
0
 20
0
 30
0
 70
128
 71
4
 72
3
 73
1
 74
1
 0
SEQEND
 0
POLYLINE
 8
MESH_501_F0
 66
1
 10
0.0
 20
0.0
 30
0.0
 70
64
 71
4
 72
2
 0
VERTEX
 8
MESH_501_F0
 10
199.5
 20
224
 30
-520
 70
192
 0
VERTEX
 8
MESH_501_F0
 10
-201.5
 20
224
 30
-520
 70
192
 0
VERTEX
 8
MESH_501_F0
 10
-201.5
 20
224
 30
-504
 70
192
 0
VERTEX
 8
MESH_501_F0
 10
199.5
 20
224
 30
-504
 70
192
 0
VERTEX
 8
MESH_501_F0
 10
0
 20
0
 30
0
 70
128
 71
4
 72
2
 73
1
 74
1
 0
VERTEX
 8
MESH_501_F0
 10
0
 20
0
 30
0
 70
128
 71
3
 72
2
 73
4
 74
4
 0
SEQEND
 0
POLYLINE
 8
MESH_500_F0
 66
1
 10
0.0
 20
0.0
 30
0.0
 70
64
 71
4
 72
2
 0
VERTEX
 8
MESH_500_F0
 10
-201.5
 20
0
 30
-520
 70
192
 0
VERTEX
 8
MESH_500_F0
 10
-201.5
 20
224
 30
-520
 70
192
 0
VERTEX
 8
MESH_500_F0
 10
199.5
 20
224
 30
-520
 70
192
 0
VERTEX
 8
MESH_500_F0
 10
199.5
 20
0
 30
-520
 70
192
 0
VERTEX
 8
MESH_500_F0
 10
0
 20
0
 30
0
 70
128
 71
1
 72
3
 73
2
 74
2
 0
VERTEX
 8
MESH_500_F0
 10
0
 20
0
 30
0
 70
128
 71
4
 72
3
 73
1
 74
1
 0
SEQEND
 0
POLYLINE
 8
MESH_499_F0
 66
1
 10
0.0
 20
0.0
 30
0.0
 70
64
 71
4
 72
2
 0
VERTEX
 8
MESH_499_F0
 10
-201.5
 20
0
 30
-504
 70
192
 0
VERTEX
 8
MESH_499_F0
 10
-201.5
 20
224
 30
-504
 70
192
 0
VERTEX
 8
MESH_499_F0
 10
-201.5
 20
224
 30
-520
 70
192
 0
VERTEX
 8
MESH_499_F0
 10
-201.5
 20
0
 30
-520
 70
192
 0
VERTEX
 8
MESH_499_F0
 10
0
 20
0
 30
0
 70
128
 71
4
 72
2
 73
1
 74
1
 0
VERTEX
 8
MESH_499_F0
 10
0
 20
0
 30
0
 70
128
 71
3
 72
2
 73
4
 74
4
 0
SEQEND
 0
POLYLINE
 8
MESH_498_F0
 66
1
 10
0.0
 20
0.0
 30
0.0
 70
64
 71
4
 72
2
 0
VERTEX
 8
MESH_498_F0
 10
199.5
 20
0
 30
-504
 70
192
 0
VERTEX
 8
MESH_498_F0
 10
199.5
 20
224
 30
-504
 70
192
 0
VERTEX
 8
MESH_498_F0
 10
-201.5
 20
224
 30
-504
 70
192
 0
VERTEX
 8
MESH_498_F0
 10
-201.5
 20
0
 30
-504
 70
192
 0
VERTEX
 8
MESH_498_F0
 10
0
 20
0
 30
0
 70
128
 71
1
 72
3
 73
2
 74
2
 0
VERTEX
 8
MESH_498_F0
 10
0
 20
0
 30
0
 70
128
 71
4
 72
3
 73
1
 74
1
 0
SEQEND
 0
POLYLINE
 8
MESH_497_F0
 66
1
 10
0.0
 20
0.0
 30
0.0
 70
64
 71
4
 72
2
 0
VERTEX
 8
MESH_497_F0
 10
199.5
 20
0
 30
-520
 70
192
 0
VERTEX
 8
MESH_497_F0
 10
199.5
 20
224
 30
-520
 70
192
 0
VERTEX
 8
MESH_497_F0
 10
199.5
 20
224
 30
-504
 70
192
 0
VERTEX
 8
MESH_497_F0
 10
199.5
 20
0
 30
-504
 70
192
 0
VERTEX
 8
MESH_497_F0
 10
0
 20
0
 30
0
 70
128
 71
4
 72
2
 73
1
 74
1
 0
VERTEX
 8
MESH_497_F0
 10
0
 20
0
 30
0
 70
128
 71
3
 72
2
 73
4
 74
4
 0
SEQEND
 0
POLYLINE
 8
MESH_496_F0
 66
1
 10
0.0
 20
0.0
 30
0.0
 70
64
 71
4
 72
2
 0
VERTEX
 8
MESH_496_F0
 10
199.5
 20
0
 30
-504
 70
192
 0
VERTEX
 8
MESH_496_F0
 10
-201.5
 20
0
 30
-504
 70
192
 0
VERTEX
 8
MESH_496_F0
 10
-201.5
 20
0
 30
-520
 70
192
 0
VERTEX
 8
MESH_496_F0
 10
199.5
 20
0
 30
-520
 70
192
 0
VERTEX
 8
MESH_496_F0
 10
0
 20
0
 30
0
 70
128
 71
4
 72
2
 73
1
 74
1
 0
VERTEX
 8
MESH_496_F0
 10
0
 20
0
 30
0
 70
128
 71
3
 72
2
 73
4
 74
4
 0
SEQEND
 0
POLYLINE
 8
MESH_494_F0
 66
1
 10
0.0
 20
0.0
 30
0.0
 70
64
 71
4
 72
2
 0
VERTEX
 8
MESH_494_F0
 10
-100.5
 20
224
 30
-520
 70
192
 0
VERTEX
 8
MESH_494_F0
 10
-217.5
 20
224
 30
-520
 70
192
 0
VERTEX
 8
MESH_494_F0
 10
-217.5
 20
239
 30
-520
 70
192
 0
VERTEX
 8
MESH_494_F0
 10
-100.5
 20
239
 30
-520
 70
192
 0
VERTEX
 8
MESH_494_F0
 10
0
 20
0
 30
0
 70
128
 71
4
 72
2
 73
1
 74
1
 0
VERTEX
 8
MESH_494_F0
 10
0
 20
0
 30
0
 70
128
 71
3
 72
2
 73
4
 74
4
 0
SEQEND
 0
POLYLINE
 8
MESH_493_F0
 66
1
 10
0.0
 20
0.0
 30
0.0
 70
64
 71
13
 72
14
 0
VERTEX
 8
MESH_493_F0
 10
-97.5
 20
239
 30
-517
 70
192
 0
VERTEX
 8
MESH_493_F0
 10
-97.9019
 20
239
 30
-518.5
 70
192
 0
VERTEX
 8
MESH_493_F0
 10
-99
 20
239
 30
-519.5981
 70
192
 0
VERTEX
 8
MESH_493_F0
 10
-100.5
 20
239
 30
-520
 70
192
 0
VERTEX
 8
MESH_493_F0
 10
-100.5
 20
240.5
 30
-519.5981
 70
192
 0
VERTEX
 8
MESH_493_F0
 10
-100.5
 20
241.5981
 30
-518.5
 70
192
 0
VERTEX
 8
MESH_493_F0
 10
-100.5
 20
242
 30
-517
 70
192
 0
VERTEX
 8
MESH_493_F0
 10
-99
 20
241.5981
 30
-517
 70
192
 0
VERTEX
 8
MESH_493_F0
 10
-97.9019
 20
240.5
 30
-517
 70
192
 0
VERTEX
 8
MESH_493_F0
 10
-99.201
 20
239.75
 30
-519.5981
 70
192
 0
VERTEX
 8
MESH_493_F0
 10
-98.25
 20
240.2991
 30
-518.5
 70
192
 0
VERTEX
 8
MESH_493_F0
 10
-99.201
 20
241.25
 30
-518.5
 70
192
 0
VERTEX
 8
MESH_493_F0
 10
-99.75
 20
240.2991
 30
-519.5981
 70
192
 0
VERTEX
 8
MESH_493_F0
 10
0
 20
0
 30
0
 70
128
 71
9
 72
2
 73
1
 74
1
 0
VERTEX
 8
MESH_493_F0
 10
0
 20
0
 30
0
 70
128
 71
11
 72
2
 73
9
 74
9
 0
VERTEX
 8
MESH_493_F0
 10
0
 20
0
 30
0
 70
128
 71
12
 72
11
 73
8
 74
8
 0
VERTEX
 8
MESH_493_F0
 10
0
 20
0
 30
0
 70
128
 71
6
 72
12
 73
7
 74
7
 0
VERTEX
 8
MESH_493_F0
 10
0
 20
0
 30
0
 70
128
 71
12
 72
8
 73
7
 74
7
 0
VERTEX
 8
MESH_493_F0
 10
0
 20
0
 30
0
 70
128
 71
11
 72
3
 73
2
 74
2
 0
VERTEX
 8
MESH_493_F0
 10
0
 20
0
 30
0
 70
128
 71
10
 72
3
 73
11
 74
11
 0
VERTEX
 8
MESH_493_F0
 10
0
 20
0
 30
0
 70
128
 71
4
 72
10
 73
13
 74
13
 0
VERTEX
 8
MESH_493_F0
 10
0
 20
0
 30
0
 70
128
 71
13
 72
5
 73
4
 74
4
 0
VERTEX
 8
MESH_493_F0
 10
0
 20
0
 30
0
 70
128
 71
6
 72
5
 73
13
 74
13
 0
VERTEX
 8
MESH_493_F0
 10
0
 20
0
 30
0
 70
128
 71
6
 72
13
 73
12
 74
12
 0
VERTEX
 8
MESH_493_F0
 10
0
 20
0
 30
0
 70
128
 71
13
 72
10
 73
11
 74
12
 0
VERTEX
 8
MESH_493_F0
 10
0
 20
0
 30
0
 70
128
 71
11
 72
9
 73
8
 74
8
 0
VERTEX
 8
MESH_493_F0
 10
0
 20
0
 30
0
 70
128
 71
3
 72
10
 73
4
 74
4
 0
SEQEND
 0
POLYLINE
 8
MESH_492_F0
 66
1
 10
0.0
 20
0.0
 30
0.0
 70
64
 71
13
 72
14
 0
VERTEX
 8
MESH_492_F0
 10
-214.5
 20
242
 30
-23
 70
192
 0
VERTEX
 8
MESH_492_F0
 10
-216
 20
241.5981
 30
-23
 70
192
 0
VERTEX
 8
MESH_492_F0
 10
-217.0981
 20
240.5
 30
-23
 70
192
 0
VERTEX
 8
MESH_492_F0
 10
-217.5
 20
239
 30
-23
 70
192
 0
VERTEX
 8
MESH_492_F0
 10
-217.0981
 20
239
 30
-21.5
 70
192
 0
VERTEX
 8
MESH_492_F0
 10
-216
 20
239
 30
-20.4019
 70
192
 0
VERTEX
 8
MESH_492_F0
 10
-214.5
 20
239
 30
-20
 70
192
 0
VERTEX
 8
MESH_492_F0
 10
-214.5
 20
240.5
 30
-20.4019
 70
192
 0
VERTEX
 8
MESH_492_F0
 10
-214.5
 20
241.5981
 30
-21.5
 70
192
 0
VERTEX
 8
MESH_492_F0
 10
-215.799
 20
241.25
 30
-21.5
 70
192
 0
VERTEX
 8
MESH_492_F0
 10
-215.25
 20
240.299
 30
-20.4019
 70
192
 0
VERTEX
 8
MESH_492_F0
 10
-216.75
 20
240.299
 30
-21.5
 70
192
 0
VERTEX
 8
MESH_492_F0
 10
-215.799
 20
239.75
 30
-20.4019
 70
192
 0
VERTEX
 8
MESH_492_F0
 10
0
 20
0
 30
0
 70
128
 71
10
 72
1
 73
9
 74
9
 0
VERTEX
 8
MESH_492_F0
 10
0
 20
0
 30
0
 70
128
 71
13
 72
12
 73
10
 74
11
 0
VERTEX
 8
MESH_492_F0
 10
0
 20
0
 30
0
 70
128
 71
11
 72
7
 73
13
 74
13
 0
VERTEX
 8
MESH_492_F0
 10
0
 20
0
 30
0
 70
128
 71
7
 72
6
 73
13
 74
13
 0
VERTEX
 8
MESH_492_F0
 10
0
 20
0
 30
0
 70
128
 71
6
 72
12
 73
13
 74
13
 0
VERTEX
 8
MESH_492_F0
 10
0
 20
0
 30
0
 70
128
 71
5
 72
12
 73
6
 74
6
 0
VERTEX
 8
MESH_492_F0
 10
0
 20
0
 30
0
 70
128
 71
3
 72
12
 73
5
 74
5
 0
VERTEX
 8
MESH_492_F0
 10
0
 20
0
 30
0
 70
128
 71
3
 72
5
 73
4
 74
4
 0
VERTEX
 8
MESH_492_F0
 10
0
 20
0
 30
0
 70
128
 71
2
 72
12
 73
3
 74
3
 0
VERTEX
 8
MESH_492_F0
 10
0
 20
0
 30
0
 70
128
 71
10
 72
12
 73
2
 74
2
 0
VERTEX
 8
MESH_492_F0
 10
0
 20
0
 30
0
 70
128
 71
10
 72
2
 73
1
 74
1
 0
VERTEX
 8
MESH_492_F0
 10
0
 20
0
 30
0
 70
128
 71
11
 72
8
 73
7
 74
7
 0
VERTEX
 8
MESH_492_F0
 10
0
 20
0
 30
0
 70
128
 71
11
 72
9
 73
8
 74
8
 0
VERTEX
 8
MESH_492_F0
 10
0
 20
0
 30
0
 70
128
 71
10
 72
9
 73
11
 74
11
 0
SEQEND
 0
POLYLINE
 8
MESH_491_F0
 66
1
 10
0.0
 20
0.0
 30
0.0
 70
64
 71
8
 72
6
 0
VERTEX
 8
MESH_491_F0
 10
-100.5
 20
239
 30
-20
 70
192
 0
VERTEX
 8
MESH_491_F0
 10
-100.5
 20
240.5
 30
-20.4019
 70
192
 0
VERTEX
 8
MESH_491_F0
 10
-100.5
 20
241.5981
 30
-21.5
 70
192
 0
VERTEX
 8
MESH_491_F0
 10
-100.5
 20
242
 30
-23
 70
192
 0
VERTEX
 8
MESH_491_F0
 10
-214.5
 20
242
 30
-23
 70
192
 0
VERTEX
 8
MESH_491_F0
 10
-214.5
 20
241.5981
 30
-21.5
 70
192
 0
VERTEX
 8
MESH_491_F0
 10
-214.5
 20
240.5
 30
-20.4019
 70
192
 0
VERTEX
 8
MESH_491_F0
 10
-214.5
 20
239
 30
-20
 70
192
 0
VERTEX
 8
MESH_491_F0
 10
0
 20
0
 30
0
 70
128
 71
7
 72
1
 73
8
 74
8
 0
VERTEX
 8
MESH_491_F0
 10
0
 20
0
 30
0
 70
128
 71
2
 72
1
 73
7
 74
7
 0
VERTEX
 8
MESH_491_F0
 10
0
 20
0
 30
0
 70
128
 71
2
 72
7
 73
3
 74
3
 0
VERTEX
 8
MESH_491_F0
 10
0
 20
0
 30
0
 70
128
 71
7
 72
6
 73
3
 74
3
 0
VERTEX
 8
MESH_491_F0
 10
0
 20
0
 30
0
 70
128
 71
6
 72
5
 73
3
 74
3
 0
VERTEX
 8
MESH_491_F0
 10
0
 20
0
 30
0
 70
128
 71
5
 72
4
 73
3
 74
3
 0
SEQEND
 0
POLYLINE
 8
MESH_490_F0
 66
1
 10
0.0
 20
0.0
 30
0.0
 70
64
 71
13
 72
14
 0
VERTEX
 8
MESH_490_F0
 10
-100.5
 20
242
 30
-23
 70
192
 0
VERTEX
 8
MESH_490_F0
 10
-100.5
 20
241.5981
 30
-21.5
 70
192
 0
VERTEX
 8
MESH_490_F0
 10
-100.5
 20
240.5
 30
-20.4019
 70
192
 0
VERTEX
 8
MESH_490_F0
 10
-100.5
 20
239
 30
-20
 70
192
 0
VERTEX
 8
MESH_490_F0
 10
-99
 20
239
 30
-20.4019
 70
192
 0
VERTEX
 8
MESH_490_F0
 10
-97.9019
 20
239
 30
-21.5
 70
192
 0
VERTEX
 8
MESH_490_F0
 10
-97.5
 20
239
 30
-23
 70
192
 0
VERTEX
 8
MESH_490_F0
 10
-97.9019
 20
240.5
 30
-23
 70
192
 0
VERTEX
 8
MESH_490_F0
 10
-99
 20
241.5981
 30
-23
 70
192
 0
VERTEX
 8
MESH_490_F0
 10
-99.75
 20
240.299
 30
-20.4019
 70
192
 0
VERTEX
 8
MESH_490_F0
 10
-99.201
 20
241.25
 30
-21.5
 70
192
 0
VERTEX
 8
MESH_490_F0
 10
-98.25
 20
240.299
 30
-21.5
 70
192
 0
VERTEX
 8
MESH_490_F0
 10
-99.201
 20
239.75
 30
-20.4019
 70
192
 0
VERTEX
 8
MESH_490_F0
 10
0
 20
0
 30
0
 70
128
 71
9
 72
2
 73
1
 74
1
 0
VERTEX
 8
MESH_490_F0
 10
0
 20
0
 30
0
 70
128
 71
11
 72
2
 73
9
 74
9
 0
VERTEX
 8
MESH_490_F0
 10
0
 20
0
 30
0
 70
128
 71
12
 72
11
 73
8
 74
8
 0
VERTEX
 8
MESH_490_F0
 10
0
 20
0
 30
0
 70
128
 71
6
 72
12
 73
7
 74
7
 0
VERTEX
 8
MESH_490_F0
 10
0
 20
0
 30
0
 70
128
 71
12
 72
8
 73
7
 74
7
 0
VERTEX
 8
MESH_490_F0
 10
0
 20
0
 30
0
 70
128
 71
11
 72
3
 73
2
 74
2
 0
VERTEX
 8
MESH_490_F0
 10
0
 20
0
 30
0
 70
128
 71
10
 72
3
 73
11
 74
11
 0
VERTEX
 8
MESH_490_F0
 10
0
 20
0
 30
0
 70
128
 71
4
 72
10
 73
13
 74
13
 0
VERTEX
 8
MESH_490_F0
 10
0
 20
0
 30
0
 70
128
 71
13
 72
5
 73
4
 74
4
 0
VERTEX
 8
MESH_490_F0
 10
0
 20
0
 30
0
 70
128
 71
6
 72
5
 73
13
 74
13
 0
VERTEX
 8
MESH_490_F0
 10
0
 20
0
 30
0
 70
128
 71
6
 72
13
 73
12
 74
12
 0
VERTEX
 8
MESH_490_F0
 10
0
 20
0
 30
0
 70
128
 71
13
 72
10
 73
11
 74
12
 0
VERTEX
 8
MESH_490_F0
 10
0
 20
0
 30
0
 70
128
 71
11
 72
9
 73
8
 74
8
 0
VERTEX
 8
MESH_490_F0
 10
0
 20
0
 30
0
 70
128
 71
3
 72
10
 73
4
 74
4
 0
SEQEND
 0
POLYLINE
 8
MESH_489_F0
 66
1
 10
0.0
 20
0.0
 30
0.0
 70
64
 71
8
 72
6
 0
VERTEX
 8
MESH_489_F0
 10
-97.5
 20
239
 30
-517
 70
192
 0
VERTEX
 8
MESH_489_F0
 10
-97.9019
 20
240.5
 30
-517
 70
192
 0
VERTEX
 8
MESH_489_F0
 10
-99
 20
241.5981
 30
-517
 70
192
 0
VERTEX
 8
MESH_489_F0
 10
-100.5
 20
242
 30
-517
 70
192
 0
VERTEX
 8
MESH_489_F0
 10
-100.5
 20
242
 30
-23
 70
192
 0
VERTEX
 8
MESH_489_F0
 10
-99
 20
241.5981
 30
-23
 70
192
 0
VERTEX
 8
MESH_489_F0
 10
-97.9019
 20
240.5
 30
-23
 70
192
 0
VERTEX
 8
MESH_489_F0
 10
-97.5
 20
239
 30
-23
 70
192
 0
VERTEX
 8
MESH_489_F0
 10
0
 20
0
 30
0
 70
128
 71
7
 72
1
 73
8
 74
8
 0
VERTEX
 8
MESH_489_F0
 10
0
 20
0
 30
0
 70
128
 71
2
 72
1
 73
7
 74
7
 0
VERTEX
 8
MESH_489_F0
 10
0
 20
0
 30
0
 70
128
 71
2
 72
7
 73
3
 74
3
 0
VERTEX
 8
MESH_489_F0
 10
0
 20
0
 30
0
 70
128
 71
7
 72
6
 73
3
 74
3
 0
VERTEX
 8
MESH_489_F0
 10
0
 20
0
 30
0
 70
128
 71
6
 72
5
 73
3
 74
3
 0
VERTEX
 8
MESH_489_F0
 10
0
 20
0
 30
0
 70
128
 71
5
 72
4
 73
3
 74
3
 0
SEQEND
 0
POLYLINE
 8
MESH_488_F0
 66
1
 10
0.0
 20
0.0
 30
0.0
 70
64
 71
4
 72
2
 0
VERTEX
 8
MESH_488_F0
 10
-214.5
 20
242
 30
-517
 70
192
 0
VERTEX
 8
MESH_488_F0
 10
-214.5
 20
242
 30
-23
 70
192
 0
VERTEX
 8
MESH_488_F0
 10
-100.5
 20
242
 30
-23
 70
192
 0
VERTEX
 8
MESH_488_F0
 10
-100.5
 20
242
 30
-517
 70
192
 0
VERTEX
 8
MESH_488_F0
 10
0
 20
0
 30
0
 70
128
 71
1
 72
3
 73
2
 74
2
 0
VERTEX
 8
MESH_488_F0
 10
0
 20
0
 30
0
 70
128
 71
4
 72
3
 73
1
 74
1
 0
SEQEND
 0
POLYLINE
 8
MESH_487_F0
 66
1
 10
0.0
 20
0.0
 30
0.0
 70
64
 71
10
 72
8
 0
VERTEX
 8
MESH_487_F0
 10
-100.5
 20
242
 30
-517
 70
192
 0
VERTEX
 8
MESH_487_F0
 10
-100.5
 20
241.5981
 30
-518.5
 70
192
 0
VERTEX
 8
MESH_487_F0
 10
-100.5
 20
240.5
 30
-519.5981
 70
192
 0
VERTEX
 8
MESH_487_F0
 10
-100.5
 20
239
 30
-520
 70
192
 0
VERTEX
 8
MESH_487_F0
 10
-217.5
 20
239
 30
-520
 70
192
 0
VERTEX
 8
MESH_487_F0
 10
-217.364
 20
239.8928
 30
-519.8641
 70
192
 0
VERTEX
 8
MESH_487_F0
 10
-216.9697
 20
240.7032
 30
-519.4696
 70
192
 0
VERTEX
 8
MESH_487_F0
 10
-216.3373
 20
241.3716
 30
-518.8373
 70
192
 0
VERTEX
 8
MESH_487_F0
 10
-215.4941
 20
241.8305
 30
-517.9942
 70
192
 0
VERTEX
 8
MESH_487_F0
 10
-214.5
 20
242
 30
-517
 70
192
 0
VERTEX
 8
MESH_487_F0
 10
0
 20
0
 30
0
 70
128
 71
9
 72
1
 73
10
 74
10
 0
VERTEX
 8
MESH_487_F0
 10
0
 20
0
 30
0
 70
128
 71
2
 72
1
 73
9
 74
9
 0
VERTEX
 8
MESH_487_F0
 10
0
 20
0
 30
0
 70
128
 71
3
 72
2
 73
8
 74
8
 0
VERTEX
 8
MESH_487_F0
 10
0
 20
0
 30
0
 70
128
 71
6
 72
3
 73
7
 74
7
 0
VERTEX
 8
MESH_487_F0
 10
0
 20
0
 30
0
 70
128
 71
3
 72
8
 73
7
 74
7
 0
VERTEX
 8
MESH_487_F0
 10
0
 20
0
 30
0
 70
128
 71
6
 72
4
 73
3
 74
3
 0
VERTEX
 8
MESH_487_F0
 10
0
 20
0
 30
0
 70
128
 71
5
 72
4
 73
6
 74
6
 0
VERTEX
 8
MESH_487_F0
 10
0
 20
0
 30
0
 70
128
 71
2
 72
9
 73
8
 74
8
 0
SEQEND
 0
POLYLINE
 8
MESH_486_F0
 66
1
 10
0.0
 20
0.0
 30
0.0
 70
64
 71
10
 72
8
 0
VERTEX
 8
MESH_486_F0
 10
-217.5
 20
239
 30
-23
 70
192
 0
VERTEX
 8
MESH_486_F0
 10
-217.0981
 20
240.5
 30
-23
 70
192
 0
VERTEX
 8
MESH_486_F0
 10
-216
 20
241.5981
 30
-23
 70
192
 0
VERTEX
 8
MESH_486_F0
 10
-214.5
 20
242
 30
-23
 70
192
 0
VERTEX
 8
MESH_486_F0
 10
-214.5
 20
242
 30
-517
 70
192
 0
VERTEX
 8
MESH_486_F0
 10
-215.4941
 20
241.8305
 30
-517.9942
 70
192
 0
VERTEX
 8
MESH_486_F0
 10
-216.3373
 20
241.3716
 30
-518.8373
 70
192
 0
VERTEX
 8
MESH_486_F0
 10
-216.9697
 20
240.7032
 30
-519.4696
 70
192
 0
VERTEX
 8
MESH_486_F0
 10
-217.364
 20
239.8928
 30
-519.8641
 70
192
 0
VERTEX
 8
MESH_486_F0
 10
-217.5
 20
239
 30
-520
 70
192
 0
VERTEX
 8
MESH_486_F0
 10
0
 20
0
 30
0
 70
128
 71
9
 72
1
 73
10
 74
10
 0
VERTEX
 8
MESH_486_F0
 10
0
 20
0
 30
0
 70
128
 71
2
 72
1
 73
9
 74
9
 0
VERTEX
 8
MESH_486_F0
 10
0
 20
0
 30
0
 70
128
 71
3
 72
2
 73
8
 74
8
 0
VERTEX
 8
MESH_486_F0
 10
0
 20
0
 30
0
 70
128
 71
6
 72
3
 73
7
 74
7
 0
VERTEX
 8
MESH_486_F0
 10
0
 20
0
 30
0
 70
128
 71
3
 72
8
 73
7
 74
7
 0
VERTEX
 8
MESH_486_F0
 10
0
 20
0
 30
0
 70
128
 71
6
 72
4
 73
3
 74
3
 0
VERTEX
 8
MESH_486_F0
 10
0
 20
0
 30
0
 70
128
 71
5
 72
4
 73
6
 74
6
 0
VERTEX
 8
MESH_486_F0
 10
0
 20
0
 30
0
 70
128
 71
2
 72
9
 73
8
 74
8
 0
SEQEND
 0
POLYLINE
 8
MESH_485_F0
 66
1
 10
0.0
 20
0.0
 30
0.0
 70
64
 71
4
 72
2
 0
VERTEX
 8
MESH_485_F0
 10
-217.5
 20
239
 30
-520
 70
192
 0
VERTEX
 8
MESH_485_F0
 10
-217.5
 20
224
 30
-520
 70
192
 0
VERTEX
 8
MESH_485_F0
 10
-217.5
 20
224
 30
-23
 70
192
 0
VERTEX
 8
MESH_485_F0
 10
-217.5
 20
239
 30
-23
 70
192
 0
VERTEX
 8
MESH_485_F0
 10
0
 20
0
 30
0
 70
128
 71
4
 72
2
 73
1
 74
1
 0
VERTEX
 8
MESH_485_F0
 10
0
 20
0
 30
0
 70
128
 71
3
 72
2
 73
4
 74
4
 0
SEQEND
 0
POLYLINE
 8
MESH_484_F0
 66
1
 10
0.0
 20
0.0
 30
0.0
 70
64
 71
8
 72
6
 0
VERTEX
 8
MESH_484_F0
 10
-214.5
 20
224
 30
-20
 70
192
 0
VERTEX
 8
MESH_484_F0
 10
-214.5
 20
239
 30
-20
 70
192
 0
VERTEX
 8
MESH_484_F0
 10
-216
 20
239
 30
-20.4019
 70
192
 0
VERTEX
 8
MESH_484_F0
 10
-217.0981
 20
239
 30
-21.5
 70
192
 0
VERTEX
 8
MESH_484_F0
 10
-217.5
 20
239
 30
-23
 70
192
 0
VERTEX
 8
MESH_484_F0
 10
-217.5
 20
224
 30
-23
 70
192
 0
VERTEX
 8
MESH_484_F0
 10
-217.0981
 20
224
 30
-21.5
 70
192
 0
VERTEX
 8
MESH_484_F0
 10
-216
 20
224
 30
-20.4019
 70
192
 0
VERTEX
 8
MESH_484_F0
 10
0
 20
0
 30
0
 70
128
 71
8
 72
2
 73
1
 74
1
 0
VERTEX
 8
MESH_484_F0
 10
0
 20
0
 30
0
 70
128
 71
3
 72
2
 73
8
 74
8
 0
VERTEX
 8
MESH_484_F0
 10
0
 20
0
 30
0
 70
128
 71
3
 72
8
 73
4
 74
4
 0
VERTEX
 8
MESH_484_F0
 10
0
 20
0
 30
0
 70
128
 71
8
 72
7
 73
4
 74
4
 0
VERTEX
 8
MESH_484_F0
 10
0
 20
0
 30
0
 70
128
 71
7
 72
6
 73
4
 74
4
 0
VERTEX
 8
MESH_484_F0
 10
0
 20
0
 30
0
 70
128
 71
6
 72
5
 73
4
 74
4
 0
SEQEND
 0
POLYLINE
 8
MESH_483_F0
 66
1
 10
0.0
 20
0.0
 30
0.0
 70
64
 71
4
 72
2
 0
VERTEX
 8
MESH_483_F0
 10
-214.5
 20
224
 30
-20
 70
192
 0
VERTEX
 8
MESH_483_F0
 10
-100.5
 20
224
 30
-20
 70
192
 0
VERTEX
 8
MESH_483_F0
 10
-100.5
 20
239
 30
-20
 70
192
 0
VERTEX
 8
MESH_483_F0
 10
-214.5
 20
239
 30
-20
 70
192
 0
VERTEX
 8
MESH_483_F0
 10
0
 20
0
 30
0
 70
128
 71
4
 72
2
 73
1
 74
1
 0
VERTEX
 8
MESH_483_F0
 10
0
 20
0
 30
0
 70
128
 71
3
 72
2
 73
4
 74
4
 0
SEQEND
 0
POLYLINE
 8
MESH_482_F0
 66
1
 10
0.0
 20
0.0
 30
0.0
 70
64
 71
8
 72
6
 0
VERTEX
 8
MESH_482_F0
 10
-97.5
 20
224
 30
-23
 70
192
 0
VERTEX
 8
MESH_482_F0
 10
-97.5
 20
239
 30
-23
 70
192
 0
VERTEX
 8
MESH_482_F0
 10
-97.9019
 20
239
 30
-21.5
 70
192
 0
VERTEX
 8
MESH_482_F0
 10
-99
 20
239
 30
-20.4019
 70
192
 0
VERTEX
 8
MESH_482_F0
 10
-100.5
 20
239
 30
-20
 70
192
 0
VERTEX
 8
MESH_482_F0
 10
-100.5
 20
224
 30
-20
 70
192
 0
VERTEX
 8
MESH_482_F0
 10
-99
 20
224
 30
-20.4019
 70
192
 0
VERTEX
 8
MESH_482_F0
 10
-97.9019
 20
224
 30
-21.5
 70
192
 0
VERTEX
 8
MESH_482_F0
 10
0
 20
0
 30
0
 70
128
 71
8
 72
2
 73
1
 74
1
 0
VERTEX
 8
MESH_482_F0
 10
0
 20
0
 30
0
 70
128
 71
3
 72
2
 73
8
 74
8
 0
VERTEX
 8
MESH_482_F0
 10
0
 20
0
 30
0
 70
128
 71
3
 72
8
 73
4
 74
4
 0
VERTEX
 8
MESH_482_F0
 10
0
 20
0
 30
0
 70
128
 71
8
 72
7
 73
4
 74
4
 0
VERTEX
 8
MESH_482_F0
 10
0
 20
0
 30
0
 70
128
 71
7
 72
6
 73
4
 74
4
 0
VERTEX
 8
MESH_482_F0
 10
0
 20
0
 30
0
 70
128
 71
6
 72
5
 73
4
 74
4
 0
SEQEND
 0
POLYLINE
 8
MESH_481_F0
 66
1
 10
0.0
 20
0.0
 30
0.0
 70
64
 71
4
 72
2
 0
VERTEX
 8
MESH_481_F0
 10
-97.5
 20
239
 30
-517
 70
192
 0
VERTEX
 8
MESH_481_F0
 10
-97.5
 20
239
 30
-23
 70
192
 0
VERTEX
 8
MESH_481_F0
 10
-97.5
 20
224
 30
-23
 70
192
 0
VERTEX
 8
MESH_481_F0
 10
-97.5
 20
224
 30
-517
 70
192
 0
VERTEX
 8
MESH_481_F0
 10
0
 20
0
 30
0
 70
128
 71
1
 72
3
 73
2
 74
2
 0
VERTEX
 8
MESH_481_F0
 10
0
 20
0
 30
0
 70
128
 71
4
 72
3
 73
1
 74
1
 0
SEQEND
 0
POLYLINE
 8
MESH_480_F0
 66
1
 10
0.0
 20
0.0
 30
0.0
 70
64
 71
8
 72
6
 0
VERTEX
 8
MESH_480_F0
 10
-100.5
 20
224
 30
-520
 70
192
 0
VERTEX
 8
MESH_480_F0
 10
-100.5
 20
239
 30
-520
 70
192
 0
VERTEX
 8
MESH_480_F0
 10
-99
 20
239
 30
-519.5981
 70
192
 0
VERTEX
 8
MESH_480_F0
 10
-97.9019
 20
239
 30
-518.5
 70
192
 0
VERTEX
 8
MESH_480_F0
 10
-97.5
 20
239
 30
-517
 70
192
 0
VERTEX
 8
MESH_480_F0
 10
-97.5
 20
224
 30
-517
 70
192
 0
VERTEX
 8
MESH_480_F0
 10
-97.9019
 20
224
 30
-518.5
 70
192
 0
VERTEX
 8
MESH_480_F0
 10
-99
 20
224
 30
-519.5981
 70
192
 0
VERTEX
 8
MESH_480_F0
 10
0
 20
0
 30
0
 70
128
 71
8
 72
2
 73
1
 74
1
 0
VERTEX
 8
MESH_480_F0
 10
0
 20
0
 30
0
 70
128
 71
3
 72
2
 73
8
 74
8
 0
VERTEX
 8
MESH_480_F0
 10
0
 20
0
 30
0
 70
128
 71
3
 72
8
 73
4
 74
4
 0
VERTEX
 8
MESH_480_F0
 10
0
 20
0
 30
0
 70
128
 71
8
 72
7
 73
4
 74
4
 0
VERTEX
 8
MESH_480_F0
 10
0
 20
0
 30
0
 70
128
 71
7
 72
6
 73
4
 74
4
 0
VERTEX
 8
MESH_480_F0
 10
0
 20
0
 30
0
 70
128
 71
6
 72
5
 73
4
 74
4
 0
SEQEND
 0
POLYLINE
 8
MESH_479_F0
 66
1
 10
0.0
 20
0.0
 30
0.0
 70
64
 71
13
 72
11
 0
VERTEX
 8
MESH_479_F0
 10
-97.5
 20
224
 30
-517
 70
192
 0
VERTEX
 8
MESH_479_F0
 10
-97.5
 20
224
 30
-23
 70
192
 0
VERTEX
 8
MESH_479_F0
 10
-97.9019
 20
224
 30
-21.5
 70
192
 0
VERTEX
 8
MESH_479_F0
 10
-99
 20
224
 30
-20.4019
 70
192
 0
VERTEX
 8
MESH_479_F0
 10
-100.5
 20
224
 30
-20
 70
192
 0
VERTEX
 8
MESH_479_F0
 10
-214.5
 20
224
 30
-20
 70
192
 0
VERTEX
 8
MESH_479_F0
 10
-216
 20
224
 30
-20.4019
 70
192
 0
VERTEX
 8
MESH_479_F0
 10
-217.0981
 20
224
 30
-21.5
 70
192
 0
VERTEX
 8
MESH_479_F0
 10
-217.5
 20
224
 30
-23
 70
192
 0
VERTEX
 8
MESH_479_F0
 10
-217.5
 20
224
 30
-520
 70
192
 0
VERTEX
 8
MESH_479_F0
 10
-100.5
 20
224
 30
-520
 70
192
 0
VERTEX
 8
MESH_479_F0
 10
-99
 20
224
 30
-519.5981
 70
192
 0
VERTEX
 8
MESH_479_F0
 10
-97.9019
 20
224
 30
-518.5
 70
192
 0
VERTEX
 8
MESH_479_F0
 10
0
 20
0
 30
0
 70
128
 71
2
 72
4
 73
3
 74
3
 0
VERTEX
 8
MESH_479_F0
 10
0
 20
0
 30
0
 70
128
 71
5
 72
4
 73
2
 74
2
 0
VERTEX
 8
MESH_479_F0
 10
0
 20
0
 30
0
 70
128
 71
12
 72
5
 73
1
 74
1
 0
VERTEX
 8
MESH_479_F0
 10
0
 20
0
 30
0
 70
128
 71
12
 72
1
 73
13
 74
13
 0
VERTEX
 8
MESH_479_F0
 10
0
 20
0
 30
0
 70
128
 71
12
 72
6
 73
5
 74
5
 0
VERTEX
 8
MESH_479_F0
 10
0
 20
0
 30
0
 70
128
 71
10
 72
6
 73
12
 74
12
 0
VERTEX
 8
MESH_479_F0
 10
0
 20
0
 30
0
 70
128
 71
10
 72
12
 73
11
 74
11
 0
VERTEX
 8
MESH_479_F0
 10
0
 20
0
 30
0
 70
128
 71
9
 72
6
 73
10
 74
10
 0
VERTEX
 8
MESH_479_F0
 10
0
 20
0
 30
0
 70
128
 71
7
 72
6
 73
9
 74
9
 0
VERTEX
 8
MESH_479_F0
 10
0
 20
0
 30
0
 70
128
 71
7
 72
9
 73
8
 74
8
 0
VERTEX
 8
MESH_479_F0
 10
0
 20
0
 30
0
 70
128
 71
1
 72
5
 73
2
 74
2
 0
SEQEND
 0
POLYLINE
 8
MESH_477_F0
 66
1
 10
0.0
 20
0.0
 30
0.0
 70
64
 71
4
 72
2
 0
VERTEX
 8
MESH_477_F0
 10
199.5
 20
16
 30
-504
 70
192
 0
VERTEX
 8
MESH_477_F0
 10
-201.5
 20
16
 30
-504
 70
192
 0
VERTEX
 8
MESH_477_F0
 10
-201.5
 20
16
 30
-404
 70
192
 0
VERTEX
 8
MESH_477_F0
 10
199.5
 20
16
 30
-404
 70
192
 0
VERTEX
 8
MESH_477_F0
 10
0
 20
0
 30
0
 70
128
 71
4
 72
2
 73
1
 74
1
 0
VERTEX
 8
MESH_477_F0
 10
0
 20
0
 30
0
 70
128
 71
3
 72
2
 73
4
 74
4
 0
SEQEND
 0
POLYLINE
 8
MESH_476_F0
 66
1
 10
0.0
 20
0.0
 30
0.0
 70
64
 71
4
 72
2
 0
VERTEX
 8
MESH_476_F0
 10
-201.5
 20
0
 30
-504
 70
192
 0
VERTEX
 8
MESH_476_F0
 10
-201.5
 20
16
 30
-504
 70
192
 0
VERTEX
 8
MESH_476_F0
 10
199.5
 20
16
 30
-504
 70
192
 0
VERTEX
 8
MESH_476_F0
 10
199.5
 20
0
 30
-504
 70
192
 0
VERTEX
 8
MESH_476_F0
 10
0
 20
0
 30
0
 70
128
 71
1
 72
3
 73
2
 74
2
 0
VERTEX
 8
MESH_476_F0
 10
0
 20
0
 30
0
 70
128
 71
4
 72
3
 73
1
 74
1
 0
SEQEND
 0
POLYLINE
 8
MESH_475_F0
 66
1
 10
0.0
 20
0.0
 30
0.0
 70
64
 71
4
 72
2
 0
VERTEX
 8
MESH_475_F0
 10
-201.5
 20
0
 30
-404
 70
192
 0
VERTEX
 8
MESH_475_F0
 10
-201.5
 20
16
 30
-404
 70
192
 0
VERTEX
 8
MESH_475_F0
 10
-201.5
 20
16
 30
-504
 70
192
 0
VERTEX
 8
MESH_475_F0
 10
-201.5
 20
0
 30
-504
 70
192
 0
VERTEX
 8
MESH_475_F0
 10
0
 20
0
 30
0
 70
128
 71
4
 72
2
 73
1
 74
1
 0
VERTEX
 8
MESH_475_F0
 10
0
 20
0
 30
0
 70
128
 71
3
 72
2
 73
4
 74
4
 0
SEQEND
 0
POLYLINE
 8
MESH_474_F0
 66
1
 10
0.0
 20
0.0
 30
0.0
 70
64
 71
4
 72
2
 0
VERTEX
 8
MESH_474_F0
 10
199.5
 20
0
 30
-404
 70
192
 0
VERTEX
 8
MESH_474_F0
 10
199.5
 20
16
 30
-404
 70
192
 0
VERTEX
 8
MESH_474_F0
 10
-201.5
 20
16
 30
-404
 70
192
 0
VERTEX
 8
MESH_474_F0
 10
-201.5
 20
0
 30
-404
 70
192
 0
VERTEX
 8
MESH_474_F0
 10
0
 20
0
 30
0
 70
128
 71
1
 72
3
 73
2
 74
2
 0
VERTEX
 8
MESH_474_F0
 10
0
 20
0
 30
0
 70
128
 71
4
 72
3
 73
1
 74
1
 0
SEQEND
 0
POLYLINE
 8
MESH_473_F0
 66
1
 10
0.0
 20
0.0
 30
0.0
 70
64
 71
4
 72
2
 0
VERTEX
 8
MESH_473_F0
 10
199.5
 20
0
 30
-504
 70
192
 0
VERTEX
 8
MESH_473_F0
 10
199.5
 20
16
 30
-504
 70
192
 0
VERTEX
 8
MESH_473_F0
 10
199.5
 20
16
 30
-404
 70
192
 0
VERTEX
 8
MESH_473_F0
 10
199.5
 20
0
 30
-404
 70
192
 0
VERTEX
 8
MESH_473_F0
 10
0
 20
0
 30
0
 70
128
 71
4
 72
2
 73
1
 74
1
 0
VERTEX
 8
MESH_473_F0
 10
0
 20
0
 30
0
 70
128
 71
3
 72
2
 73
4
 74
4
 0
SEQEND
 0
POLYLINE
 8
MESH_472_F0
 66
1
 10
0.0
 20
0.0
 30
0.0
 70
64
 71
4
 72
2
 0
VERTEX
 8
MESH_472_F0
 10
199.5
 20
0
 30
-404
 70
192
 0
VERTEX
 8
MESH_472_F0
 10
-201.5
 20
0
 30
-404
 70
192
 0
VERTEX
 8
MESH_472_F0
 10
-201.5
 20
0
 30
-504
 70
192
 0
VERTEX
 8
MESH_472_F0
 10
199.5
 20
0
 30
-504
 70
192
 0
VERTEX
 8
MESH_472_F0
 10
0
 20
0
 30
0
 70
128
 71
4
 72
2
 73
1
 74
1
 0
VERTEX
 8
MESH_472_F0
 10
0
 20
0
 30
0
 70
128
 71
3
 72
2
 73
4
 74
4
 0
SEQEND
 0
POLYLINE
 8
MESH_470_F0
 66
1
 10
0.0
 20
0.0
 30
0.0
 70
64
 71
4
 72
2
 0
VERTEX
 8
MESH_470_F0
 10
199.5
 20
224
 30
-100
 70
192
 0
VERTEX
 8
MESH_470_F0
 10
199.5
 20
208
 30
-100
 70
192
 0
VERTEX
 8
MESH_470_F0
 10
-201.5
 20
208
 30
-100
 70
192
 0
VERTEX
 8
MESH_470_F0
 10
-201.5
 20
224
 30
-100
 70
192
 0
VERTEX
 8
MESH_470_F0
 10
0
 20
0
 30
0
 70
128
 71
1
 72
3
 73
2
 74
2
 0
VERTEX
 8
MESH_470_F0
 10
0
 20
0
 30
0
 70
128
 71
4
 72
3
 73
1
 74
1
 0
SEQEND
 0
POLYLINE
 8
MESH_469_F0
 66
1
 10
0.0
 20
0.0
 30
0.0
 70
64
 71
4
 72
2
 0
VERTEX
 8
MESH_469_F0
 10
199.5
 20
208
 30
0
 70
192
 0
VERTEX
 8
MESH_469_F0
 10
199.5
 20
208
 30
-100
 70
192
 0
VERTEX
 8
MESH_469_F0
 10
199.5
 20
224
 30
-100
 70
192
 0
VERTEX
 8
MESH_469_F0
 10
199.5
 20
224
 30
0
 70
192
 0
VERTEX
 8
MESH_469_F0
 10
0
 20
0
 30
0
 70
128
 71
1
 72
3
 73
2
 74
2
 0
VERTEX
 8
MESH_469_F0
 10
0
 20
0
 30
0
 70
128
 71
4
 72
3
 73
1
 74
1
 0
SEQEND
 0
POLYLINE
 8
MESH_468_F0
 66
1
 10
0.0
 20
0.0
 30
0.0
 70
64
 71
4
 72
2
 0
VERTEX
 8
MESH_468_F0
 10
-201.5
 20
208
 30
0
 70
192
 0
VERTEX
 8
MESH_468_F0
 10
-201.5
 20
208
 30
-100
 70
192
 0
VERTEX
 8
MESH_468_F0
 10
199.5
 20
208
 30
-100
 70
192
 0
VERTEX
 8
MESH_468_F0
 10
199.5
 20
208
 30
0
 70
192
 0
VERTEX
 8
MESH_468_F0
 10
0
 20
0
 30
0
 70
128
 71
1
 72
3
 73
2
 74
2
 0
VERTEX
 8
MESH_468_F0
 10
0
 20
0
 30
0
 70
128
 71
4
 72
3
 73
1
 74
1
 0
SEQEND
 0
POLYLINE
 8
MESH_467_F0
 66
1
 10
0.0
 20
0.0
 30
0.0
 70
64
 71
4
 72
2
 0
VERTEX
 8
MESH_467_F0
 10
-201.5
 20
224
 30
0
 70
192
 0
VERTEX
 8
MESH_467_F0
 10
-201.5
 20
224
 30
-100
 70
192
 0
VERTEX
 8
MESH_467_F0
 10
-201.5
 20
208
 30
-100
 70
192
 0
VERTEX
 8
MESH_467_F0
 10
-201.5
 20
208
 30
0
 70
192
 0
VERTEX
 8
MESH_467_F0
 10
0
 20
0
 30
0
 70
128
 71
1
 72
3
 73
2
 74
2
 0
VERTEX
 8
MESH_467_F0
 10
0
 20
0
 30
0
 70
128
 71
4
 72
3
 73
1
 74
1
 0
SEQEND
 0
POLYLINE
 8
MESH_466_F0
 66
1
 10
0.0
 20
0.0
 30
0.0
 70
64
 71
4
 72
2
 0
VERTEX
 8
MESH_466_F0
 10
199.5
 20
224
 30
0
 70
192
 0
VERTEX
 8
MESH_466_F0
 10
199.5
 20
224
 30
-100
 70
192
 0
VERTEX
 8
MESH_466_F0
 10
-201.5
 20
224
 30
-100
 70
192
 0
VERTEX
 8
MESH_466_F0
 10
-201.5
 20
224
 30
0
 70
192
 0
VERTEX
 8
MESH_466_F0
 10
0
 20
0
 30
0
 70
128
 71
1
 72
3
 73
2
 74
2
 0
VERTEX
 8
MESH_466_F0
 10
0
 20
0
 30
0
 70
128
 71
4
 72
3
 73
1
 74
1
 0
SEQEND
 0
POLYLINE
 8
MESH_465_F0
 66
1
 10
0.0
 20
0.0
 30
0.0
 70
64
 71
4
 72
2
 0
VERTEX
 8
MESH_465_F0
 10
-201.5
 20
224
 30
0
 70
192
 0
VERTEX
 8
MESH_465_F0
 10
-201.5
 20
208
 30
0
 70
192
 0
VERTEX
 8
MESH_465_F0
 10
199.5
 20
208
 30
0
 70
192
 0
VERTEX
 8
MESH_465_F0
 10
199.5
 20
224
 30
0
 70
192
 0
VERTEX
 8
MESH_465_F0
 10
0
 20
0
 30
0
 70
128
 71
1
 72
3
 73
2
 74
2
 0
VERTEX
 8
MESH_465_F0
 10
0
 20
0
 30
0
 70
128
 71
4
 72
3
 73
1
 74
1
 0
SEQEND
 0
POLYLINE
 8
MESH_463_F0
 66
1
 10
0.0
 20
0.0
 30
0.0
 70
64
 71
4
 72
2
 0
VERTEX
 8
MESH_463_F0
 10
199.5
 20
208
 30
0
 70
192
 0
VERTEX
 8
MESH_463_F0
 10
199.5
 20
208
 30
-100
 70
192
 0
VERTEX
 8
MESH_463_F0
 10
190.5
 20
208
 30
-100
 70
192
 0
VERTEX
 8
MESH_463_F0
 10
190.5
 20
208
 30
0
 70
192
 0
VERTEX
 8
MESH_463_F0
 10
0
 20
0
 30
0
 70
128
 71
1
 72
3
 73
2
 74
2
 0
VERTEX
 8
MESH_463_F0
 10
0
 20
0
 30
0
 70
128
 71
4
 72
3
 73
1
 74
1
 0
SEQEND
 0
POLYLINE
 8
MESH_462_F0
 66
1
 10
0.0
 20
0.0
 30
0.0
 70
64
 71
4
 72
2
 0
VERTEX
 8
MESH_462_F0
 10
199.5
 20
0
 30
-100
 70
192
 0
VERTEX
 8
MESH_462_F0
 10
199.5
 20
208
 30
-100
 70
192
 0
VERTEX
 8
MESH_462_F0
 10
199.5
 20
208
 30
0
 70
192
 0
VERTEX
 8
MESH_462_F0
 10
199.5
 20
0
 30
0
 70
192
 0
VERTEX
 8
MESH_462_F0
 10
0
 20
0
 30
0
 70
128
 71
4
 72
2
 73
1
 74
1
 0
VERTEX
 8
MESH_462_F0
 10
0
 20
0
 30
0
 70
128
 71
3
 72
2
 73
4
 74
4
 0
SEQEND
 0
POLYLINE
 8
MESH_461_F0
 66
1
 10
0.0
 20
0.0
 30
0.0
 70
64
 71
4
 72
2
 0
VERTEX
 8
MESH_461_F0
 10
190.5
 20
0
 30
-100
 70
192
 0
VERTEX
 8
MESH_461_F0
 10
190.5
 20
208
 30
-100
 70
192
 0
VERTEX
 8
MESH_461_F0
 10
199.5
 20
208
 30
-100
 70
192
 0
VERTEX
 8
MESH_461_F0
 10
199.5
 20
0
 30
-100
 70
192
 0
VERTEX
 8
MESH_461_F0
 10
0
 20
0
 30
0
 70
128
 71
1
 72
3
 73
2
 74
2
 0
VERTEX
 8
MESH_461_F0
 10
0
 20
0
 30
0
 70
128
 71
4
 72
3
 73
1
 74
1
 0
SEQEND
 0
POLYLINE
 8
MESH_460_F0
 66
1
 10
0.0
 20
0.0
 30
0.0
 70
64
 71
4
 72
2
 0
VERTEX
 8
MESH_460_F0
 10
190.5
 20
0
 30
0
 70
192
 0
VERTEX
 8
MESH_460_F0
 10
190.5
 20
208
 30
0
 70
192
 0
VERTEX
 8
MESH_460_F0
 10
190.5
 20
208
 30
-100
 70
192
 0
VERTEX
 8
MESH_460_F0
 10
190.5
 20
0
 30
-100
 70
192
 0
VERTEX
 8
MESH_460_F0
 10
0
 20
0
 30
0
 70
128
 71
4
 72
2
 73
1
 74
1
 0
VERTEX
 8
MESH_460_F0
 10
0
 20
0
 30
0
 70
128
 71
3
 72
2
 73
4
 74
4
 0
SEQEND
 0
POLYLINE
 8
MESH_459_F0
 66
1
 10
0.0
 20
0.0
 30
0.0
 70
64
 71
4
 72
2
 0
VERTEX
 8
MESH_459_F0
 10
199.5
 20
0
 30
0
 70
192
 0
VERTEX
 8
MESH_459_F0
 10
199.5
 20
208
 30
0
 70
192
 0
VERTEX
 8
MESH_459_F0
 10
190.5
 20
208
 30
0
 70
192
 0
VERTEX
 8
MESH_459_F0
 10
190.5
 20
0
 30
0
 70
192
 0
VERTEX
 8
MESH_459_F0
 10
0
 20
0
 30
0
 70
128
 71
1
 72
3
 73
2
 74
2
 0
VERTEX
 8
MESH_459_F0
 10
0
 20
0
 30
0
 70
128
 71
4
 72
3
 73
1
 74
1
 0
SEQEND
 0
POLYLINE
 8
MESH_458_F0
 66
1
 10
0.0
 20
0.0
 30
0.0
 70
64
 71
4
 72
2
 0
VERTEX
 8
MESH_458_F0
 10
190.5
 20
0
 30
0
 70
192
 0
VERTEX
 8
MESH_458_F0
 10
190.5
 20
0
 30
-100
 70
192
 0
VERTEX
 8
MESH_458_F0
 10
199.5
 20
0
 30
-100
 70
192
 0
VERTEX
 8
MESH_458_F0
 10
199.5
 20
0
 30
0
 70
192
 0
VERTEX
 8
MESH_458_F0
 10
0
 20
0
 30
0
 70
128
 71
1
 72
3
 73
2
 74
2
 0
VERTEX
 8
MESH_458_F0
 10
0
 20
0
 30
0
 70
128
 71
4
 72
3
 73
1
 74
1
 0
SEQEND
 0
POLYLINE
 8
MESH_456_F0
 66
1
 10
0.0
 20
0.0
 30
0.0
 70
64
 71
4
 72
2
 0
VERTEX
 8
MESH_456_F0
 10
-201.5
 20
208
 30
0
 70
192
 0
VERTEX
 8
MESH_456_F0
 10
-192.5
 20
208
 30
0
 70
192
 0
VERTEX
 8
MESH_456_F0
 10
-192.5
 20
208
 30
-100
 70
192
 0
VERTEX
 8
MESH_456_F0
 10
-201.5
 20
208
 30
-100
 70
192
 0
VERTEX
 8
MESH_456_F0
 10
0
 20
0
 30
0
 70
128
 71
4
 72
2
 73
1
 74
1
 0
VERTEX
 8
MESH_456_F0
 10
0
 20
0
 30
0
 70
128
 71
3
 72
2
 73
4
 74
4
 0
SEQEND
 0
POLYLINE
 8
MESH_455_F0
 66
1
 10
0.0
 20
0.0
 30
0.0
 70
64
 71
4
 72
2
 0
VERTEX
 8
MESH_455_F0
 10
-192.5
 20
0
 30
0
 70
192
 0
VERTEX
 8
MESH_455_F0
 10
-192.5
 20
208
 30
0
 70
192
 0
VERTEX
 8
MESH_455_F0
 10
-201.5
 20
208
 30
0
 70
192
 0
VERTEX
 8
MESH_455_F0
 10
-201.5
 20
0
 30
0
 70
192
 0
VERTEX
 8
MESH_455_F0
 10
0
 20
0
 30
0
 70
128
 71
1
 72
3
 73
2
 74
2
 0
VERTEX
 8
MESH_455_F0
 10
0
 20
0
 30
0
 70
128
 71
4
 72
3
 73
1
 74
1
 0
SEQEND
 0
POLYLINE
 8
MESH_454_F0
 66
1
 10
0.0
 20
0.0
 30
0.0
 70
64
 71
4
 72
2
 0
VERTEX
 8
MESH_454_F0
 10
-192.5
 20
0
 30
-100
 70
192
 0
VERTEX
 8
MESH_454_F0
 10
-192.5
 20
208
 30
-100
 70
192
 0
VERTEX
 8
MESH_454_F0
 10
-192.5
 20
208
 30
0
 70
192
 0
VERTEX
 8
MESH_454_F0
 10
-192.5
 20
0
 30
0
 70
192
 0
VERTEX
 8
MESH_454_F0
 10
0
 20
0
 30
0
 70
128
 71
4
 72
2
 73
1
 74
1
 0
VERTEX
 8
MESH_454_F0
 10
0
 20
0
 30
0
 70
128
 71
3
 72
2
 73
4
 74
4
 0
SEQEND
 0
POLYLINE
 8
MESH_453_F0
 66
1
 10
0.0
 20
0.0
 30
0.0
 70
64
 71
4
 72
2
 0
VERTEX
 8
MESH_453_F0
 10
-201.5
 20
0
 30
-100
 70
192
 0
VERTEX
 8
MESH_453_F0
 10
-201.5
 20
208
 30
-100
 70
192
 0
VERTEX
 8
MESH_453_F0
 10
-192.5
 20
208
 30
-100
 70
192
 0
VERTEX
 8
MESH_453_F0
 10
-192.5
 20
0
 30
-100
 70
192
 0
VERTEX
 8
MESH_453_F0
 10
0
 20
0
 30
0
 70
128
 71
1
 72
3
 73
2
 74
2
 0
VERTEX
 8
MESH_453_F0
 10
0
 20
0
 30
0
 70
128
 71
4
 72
3
 73
1
 74
1
 0
SEQEND
 0
POLYLINE
 8
MESH_452_F0
 66
1
 10
0.0
 20
0.0
 30
0.0
 70
64
 71
4
 72
2
 0
VERTEX
 8
MESH_452_F0
 10
-201.5
 20
0
 30
0
 70
192
 0
VERTEX
 8
MESH_452_F0
 10
-201.5
 20
208
 30
0
 70
192
 0
VERTEX
 8
MESH_452_F0
 10
-201.5
 20
208
 30
-100
 70
192
 0
VERTEX
 8
MESH_452_F0
 10
-201.5
 20
0
 30
-100
 70
192
 0
VERTEX
 8
MESH_452_F0
 10
0
 20
0
 30
0
 70
128
 71
4
 72
2
 73
1
 74
1
 0
VERTEX
 8
MESH_452_F0
 10
0
 20
0
 30
0
 70
128
 71
3
 72
2
 73
4
 74
4
 0
SEQEND
 0
POLYLINE
 8
MESH_451_F0
 66
1
 10
0.0
 20
0.0
 30
0.0
 70
64
 71
4
 72
2
 0
VERTEX
 8
MESH_451_F0
 10
-201.5
 20
0
 30
-100
 70
192
 0
VERTEX
 8
MESH_451_F0
 10
-192.5
 20
0
 30
-100
 70
192
 0
VERTEX
 8
MESH_451_F0
 10
-192.5
 20
0
 30
0
 70
192
 0
VERTEX
 8
MESH_451_F0
 10
-201.5
 20
0
 30
0
 70
192
 0
VERTEX
 8
MESH_451_F0
 10
0
 20
0
 30
0
 70
128
 71
4
 72
2
 73
1
 74
1
 0
VERTEX
 8
MESH_451_F0
 10
0
 20
0
 30
0
 70
128
 71
3
 72
2
 73
4
 74
4
 0
SEQEND
 0
POLYLINE
 8
MESH_449_F0
 66
1
 10
0.0
 20
0.0
 30
0.0
 70
64
 71
10
 72
8
 0
VERTEX
 8
MESH_449_F0
 10
-93.5
 20
240
 30
-520
 70
192
 0
VERTEX
 8
MESH_449_F0
 10
-93.5
 20
241.5
 30
-519.5981
 70
192
 0
VERTEX
 8
MESH_449_F0
 10
-93.5
 20
242.5981
 30
-518.5
 70
192
 0
VERTEX
 8
MESH_449_F0
 10
-93.5
 20
243
 30
-517
 70
192
 0
VERTEX
 8
MESH_449_F0
 10
218.5
 20
243
 30
-517
 70
192
 0
VERTEX
 8
MESH_449_F0
 10
218.3609
 20
242.8608
 30
-517.9033
 70
192
 0
VERTEX
 8
MESH_449_F0
 10
217.9608
 20
242.4608
 30
-518.7159
 70
192
 0
VERTEX
 8
MESH_449_F0
 10
217.3254
 20
241.8254
 30
-519.3807
 70
192
 0
VERTEX
 8
MESH_449_F0
 10
216.4849
 20
240.9849
 30
-519.8337
 70
192
 0
VERTEX
 8
MESH_449_F0
 10
215.5
 20
240
 30
-520
 70
192
 0
VERTEX
 8
MESH_449_F0
 10
0
 20
0
 30
0
 70
128
 71
9
 72
1
 73
10
 74
10
 0
VERTEX
 8
MESH_449_F0
 10
0
 20
0
 30
0
 70
128
 71
2
 72
1
 73
9
 74
9
 0
VERTEX
 8
MESH_449_F0
 10
0
 20
0
 30
0
 70
128
 71
3
 72
2
 73
8
 74
8
 0
VERTEX
 8
MESH_449_F0
 10
0
 20
0
 30
0
 70
128
 71
6
 72
3
 73
7
 74
7
 0
VERTEX
 8
MESH_449_F0
 10
0
 20
0
 30
0
 70
128
 71
3
 72
8
 73
7
 74
7
 0
VERTEX
 8
MESH_449_F0
 10
0
 20
0
 30
0
 70
128
 71
6
 72
4
 73
3
 74
3
 0
VERTEX
 8
MESH_449_F0
 10
0
 20
0
 30
0
 70
128
 71
5
 72
4
 73
6
 74
6
 0
VERTEX
 8
MESH_449_F0
 10
0
 20
0
 30
0
 70
128
 71
2
 72
9
 73
8
 74
8
 0
SEQEND
 0
POLYLINE
 8
MESH_448_F0
 66
1
 10
0.0
 20
0.0
 30
0.0
 70
64
 71
13
 72
14
 0
VERTEX
 8
MESH_448_F0
 10
-93.5
 20
240
 30
-520
 70
192
 0
VERTEX
 8
MESH_448_F0
 10
-95
 20
240
 30
-519.5981
 70
192
 0
VERTEX
 8
MESH_448_F0
 10
-96.0981
 20
240
 30
-518.5
 70
192
 0
VERTEX
 8
MESH_448_F0
 10
-96.5
 20
240
 30
-517
 70
192
 0
VERTEX
 8
MESH_448_F0
 10
-96.0981
 20
241.5
 30
-517
 70
192
 0
VERTEX
 8
MESH_448_F0
 10
-95
 20
242.5981
 30
-517
 70
192
 0
VERTEX
 8
MESH_448_F0
 10
-93.5
 20
243
 30
-517
 70
192
 0
VERTEX
 8
MESH_448_F0
 10
-93.5
 20
242.5981
 30
-518.5
 70
192
 0
VERTEX
 8
MESH_448_F0
 10
-93.5
 20
241.5
 30
-519.5981
 70
192
 0
VERTEX
 8
MESH_448_F0
 10
-95.75
 20
241.299
 30
-518.5
 70
192
 0
VERTEX
 8
MESH_448_F0
 10
-94.799
 20
240.75
 30
-519.5981
 70
192
 0
VERTEX
 8
MESH_448_F0
 10
-94.799
 20
242.25
 30
-518.5
 70
192
 0
VERTEX
 8
MESH_448_F0
 10
-94.25
 20
241.299
 30
-519.5981
 70
192
 0
VERTEX
 8
MESH_448_F0
 10
0
 20
0
 30
0
 70
128
 71
11
 72
2
 73
1
 74
1
 0
VERTEX
 8
MESH_448_F0
 10
0
 20
0
 30
0
 70
128
 71
13
 72
11
 73
1
 74
1
 0
VERTEX
 8
MESH_448_F0
 10
0
 20
0
 30
0
 70
128
 71
12
 72
13
 73
9
 74
9
 0
VERTEX
 8
MESH_448_F0
 10
0
 20
0
 30
0
 70
128
 71
6
 72
12
 73
8
 74
8
 0
VERTEX
 8
MESH_448_F0
 10
0
 20
0
 30
0
 70
128
 71
6
 72
8
 73
7
 74
7
 0
VERTEX
 8
MESH_448_F0
 10
0
 20
0
 30
0
 70
128
 71
3
 72
10
 73
4
 74
4
 0
VERTEX
 8
MESH_448_F0
 10
0
 20
0
 30
0
 70
128
 71
10
 72
5
 73
4
 74
4
 0
VERTEX
 8
MESH_448_F0
 10
0
 20
0
 30
0
 70
128
 71
12
 72
5
 73
10
 74
10
 0
VERTEX
 8
MESH_448_F0
 10
0
 20
0
 30
0
 70
128
 71
12
 72
10
 73
11
 74
13
 0
VERTEX
 8
MESH_448_F0
 10
0
 20
0
 30
0
 70
128
 71
10
 72
3
 73
11
 74
11
 0
VERTEX
 8
MESH_448_F0
 10
0
 20
0
 30
0
 70
128
 71
3
 72
2
 73
11
 74
11
 0
VERTEX
 8
MESH_448_F0
 10
0
 20
0
 30
0
 70
128
 71
12
 72
6
 73
5
 74
5
 0
VERTEX
 8
MESH_448_F0
 10
0
 20
0
 30
0
 70
128
 71
12
 72
9
 73
8
 74
8
 0
VERTEX
 8
MESH_448_F0
 10
0
 20
0
 30
0
 70
128
 71
9
 72
13
 73
1
 74
1
 0
SEQEND
 0
POLYLINE
 8
MESH_447_F0
 66
1
 10
0.0
 20
0.0
 30
0.0
 70
64
 71
8
 72
6
 0
VERTEX
 8
MESH_447_F0
 10
-96.5
 20
225
 30
-517
 70
192
 0
VERTEX
 8
MESH_447_F0
 10
-96.5
 20
240
 30
-517
 70
192
 0
VERTEX
 8
MESH_447_F0
 10
-96.0981
 20
240
 30
-518.5
 70
192
 0
VERTEX
 8
MESH_447_F0
 10
-95
 20
240
 30
-519.5981
 70
192
 0
VERTEX
 8
MESH_447_F0
 10
-93.5
 20
240
 30
-520
 70
192
 0
VERTEX
 8
MESH_447_F0
 10
-93.5
 20
225
 30
-520
 70
192
 0
VERTEX
 8
MESH_447_F0
 10
-95
 20
225
 30
-519.5981
 70
192
 0
VERTEX
 8
MESH_447_F0
 10
-96.0981
 20
225
 30
-518.5
 70
192
 0
VERTEX
 8
MESH_447_F0
 10
0
 20
0
 30
0
 70
128
 71
8
 72
2
 73
1
 74
1
 0
VERTEX
 8
MESH_447_F0
 10
0
 20
0
 30
0
 70
128
 71
3
 72
2
 73
8
 74
8
 0
VERTEX
 8
MESH_447_F0
 10
0
 20
0
 30
0
 70
128
 71
3
 72
8
 73
4
 74
4
 0
VERTEX
 8
MESH_447_F0
 10
0
 20
0
 30
0
 70
128
 71
8
 72
7
 73
4
 74
4
 0
VERTEX
 8
MESH_447_F0
 10
0
 20
0
 30
0
 70
128
 71
7
 72
6
 73
4
 74
4
 0
VERTEX
 8
MESH_447_F0
 10
0
 20
0
 30
0
 70
128
 71
6
 72
5
 73
4
 74
4
 0
SEQEND
 0
POLYLINE
 8
MESH_446_F0
 66
1
 10
0.0
 20
0.0
 30
0.0
 70
64
 71
6
 72
4
 0
VERTEX
 8
MESH_446_F0
 10
-93.5
 20
240
 30
-520
 70
192
 0
VERTEX
 8
MESH_446_F0
 10
215.5
 20
240
 30
-520
 70
192
 0
VERTEX
 8
MESH_446_F0
 10
215.5
 20
124
 30
-520
 70
192
 0
VERTEX
 8
MESH_446_F0
 10
200.5
 20
124
 30
-520
 70
192
 0
VERTEX
 8
MESH_446_F0
 10
200.5
 20
225
 30
-520
 70
192
 0
VERTEX
 8
MESH_446_F0
 10
-93.5
 20
225
 30
-520
 70
192
 0
VERTEX
 8
MESH_446_F0
 10
0
 20
0
 30
0
 70
128
 71
5
 72
1
 73
6
 74
6
 0
VERTEX
 8
MESH_446_F0
 10
0
 20
0
 30
0
 70
128
 71
2
 72
1
 73
5
 74
5
 0
VERTEX
 8
MESH_446_F0
 10
0
 20
0
 30
0
 70
128
 71
2
 72
5
 73
3
 74
3
 0
VERTEX
 8
MESH_446_F0
 10
0
 20
0
 30
0
 70
128
 71
5
 72
4
 73
3
 74
3
 0
SEQEND
 0
POLYLINE
 8
MESH_445_F0
 66
1
 10
0.0
 20
0.0
 30
0.0
 70
64
 71
10
 72
8
 0
VERTEX
 8
MESH_445_F0
 10
215.5
 20
240
 30
-520
 70
192
 0
VERTEX
 8
MESH_445_F0
 10
216.4849
 20
240.9849
 30
-519.8337
 70
192
 0
VERTEX
 8
MESH_445_F0
 10
217.3254
 20
241.8254
 30
-519.3807
 70
192
 0
VERTEX
 8
MESH_445_F0
 10
217.9608
 20
242.4608
 30
-518.7159
 70
192
 0
VERTEX
 8
MESH_445_F0
 10
218.3609
 20
242.8608
 30
-517.9033
 70
192
 0
VERTEX
 8
MESH_445_F0
 10
218.5
 20
243
 30
-517
 70
192
 0
VERTEX
 8
MESH_445_F0
 10
218.5
 20
124
 30
-517
 70
192
 0
VERTEX
 8
MESH_445_F0
 10
218.0981
 20
124
 30
-518.5
 70
192
 0
VERTEX
 8
MESH_445_F0
 10
217
 20
124
 30
-519.5981
 70
192
 0
VERTEX
 8
MESH_445_F0
 10
215.5
 20
124
 30
-520
 70
192
 0
VERTEX
 8
MESH_445_F0
 10
0
 20
0
 30
0
 70
128
 71
10
 72
2
 73
1
 74
1
 0
VERTEX
 8
MESH_445_F0
 10
0
 20
0
 30
0
 70
128
 71
9
 72
2
 73
10
 74
10
 0
VERTEX
 8
MESH_445_F0
 10
0
 20
0
 30
0
 70
128
 71
3
 72
2
 73
9
 74
9
 0
VERTEX
 8
MESH_445_F0
 10
0
 20
0
 30
0
 70
128
 71
3
 72
9
 73
4
 74
4
 0
VERTEX
 8
MESH_445_F0
 10
0
 20
0
 30
0
 70
128
 71
9
 72
8
 73
4
 74
4
 0
VERTEX
 8
MESH_445_F0
 10
0
 20
0
 30
0
 70
128
 71
8
 72
5
 73
4
 74
4
 0
VERTEX
 8
MESH_445_F0
 10
0
 20
0
 30
0
 70
128
 71
7
 72
5
 73
8
 74
8
 0
VERTEX
 8
MESH_445_F0
 10
0
 20
0
 30
0
 70
128
 71
6
 72
5
 73
7
 74
7
 0
SEQEND
 0
POLYLINE
 8
MESH_444_F0
 66
1
 10
0.0
 20
0.0
 30
0.0
 70
64
 71
13
 72
14
 0
VERTEX
 8
MESH_444_F0
 10
215.5
 20
121
 30
-517
 70
192
 0
VERTEX
 8
MESH_444_F0
 10
215.5
 20
121.4019
 30
-518.5
 70
192
 0
VERTEX
 8
MESH_444_F0
 10
215.5
 20
122.5
 30
-519.5981
 70
192
 0
VERTEX
 8
MESH_444_F0
 10
215.5
 20
124
 30
-520
 70
192
 0
VERTEX
 8
MESH_444_F0
 10
217
 20
124
 30
-519.5981
 70
192
 0
VERTEX
 8
MESH_444_F0
 10
218.0981
 20
124
 30
-518.5
 70
192
 0
VERTEX
 8
MESH_444_F0
 10
218.5
 20
124
 30
-517
 70
192
 0
VERTEX
 8
MESH_444_F0
 10
218.0981
 20
122.5
 30
-517
 70
192
 0
VERTEX
 8
MESH_444_F0
 10
217
 20
121.4019
 30
-517
 70
192
 0
VERTEX
 8
MESH_444_F0
 10
216.25
 20
122.701
 30
-519.5981
 70
192
 0
VERTEX
 8
MESH_444_F0
 10
216.799
 20
121.75
 30
-518.5
 70
192
 0
VERTEX
 8
MESH_444_F0
 10
217.75
 20
122.701
 30
-518.5
 70
192
 0
VERTEX
 8
MESH_444_F0
 10
216.799
 20
123.25
 30
-519.5981
 70
192
 0
VERTEX
 8
MESH_444_F0
 10
0
 20
0
 30
0
 70
128
 71
9
 72
2
 73
1
 74
1
 0
VERTEX
 8
MESH_444_F0
 10
0
 20
0
 30
0
 70
128
 71
11
 72
2
 73
9
 74
9
 0
VERTEX
 8
MESH_444_F0
 10
0
 20
0
 30
0
 70
128
 71
12
 72
11
 73
8
 74
8
 0
VERTEX
 8
MESH_444_F0
 10
0
 20
0
 30
0
 70
128
 71
6
 72
12
 73
7
 74
7
 0
VERTEX
 8
MESH_444_F0
 10
0
 20
0
 30
0
 70
128
 71
12
 72
8
 73
7
 74
7
 0
VERTEX
 8
MESH_444_F0
 10
0
 20
0
 30
0
 70
128
 71
11
 72
3
 73
2
 74
2
 0
VERTEX
 8
MESH_444_F0
 10
0
 20
0
 30
0
 70
128
 71
10
 72
3
 73
11
 74
11
 0
VERTEX
 8
MESH_444_F0
 10
0
 20
0
 30
0
 70
128
 71
4
 72
10
 73
13
 74
13
 0
VERTEX
 8
MESH_444_F0
 10
0
 20
0
 30
0
 70
128
 71
13
 72
5
 73
4
 74
4
 0
VERTEX
 8
MESH_444_F0
 10
0
 20
0
 30
0
 70
128
 71
6
 72
5
 73
13
 74
13
 0
VERTEX
 8
MESH_444_F0
 10
0
 20
0
 30
0
 70
128
 71
6
 72
13
 73
12
 74
12
 0
VERTEX
 8
MESH_444_F0
 10
0
 20
0
 30
0
 70
128
 71
13
 72
10
 73
11
 74
12
 0
VERTEX
 8
MESH_444_F0
 10
0
 20
0
 30
0
 70
128
 71
11
 72
9
 73
8
 74
8
 0
VERTEX
 8
MESH_444_F0
 10
0
 20
0
 30
0
 70
128
 71
3
 72
10
 73
4
 74
4
 0
SEQEND
 0
POLYLINE
 8
MESH_443_F0
 66
1
 10
0.0
 20
0.0
 30
0.0
 70
64
 71
8
 72
6
 0
VERTEX
 8
MESH_443_F0
 10
215.5
 20
121
 30
-517
 70
192
 0
VERTEX
 8
MESH_443_F0
 10
217
 20
121.4019
 30
-517
 70
192
 0
VERTEX
 8
MESH_443_F0
 10
218.0981
 20
122.5
 30
-517
 70
192
 0
VERTEX
 8
MESH_443_F0
 10
218.5
 20
124
 30
-517
 70
192
 0
VERTEX
 8
MESH_443_F0
 10
218.5
 20
124
 30
-23
 70
192
 0
VERTEX
 8
MESH_443_F0
 10
218.0981
 20
122.5
 30
-23
 70
192
 0
VERTEX
 8
MESH_443_F0
 10
217
 20
121.4019
 30
-23
 70
192
 0
VERTEX
 8
MESH_443_F0
 10
215.5
 20
121
 30
-23
 70
192
 0
VERTEX
 8
MESH_443_F0
 10
0
 20
0
 30
0
 70
128
 71
7
 72
1
 73
8
 74
8
 0
VERTEX
 8
MESH_443_F0
 10
0
 20
0
 30
0
 70
128
 71
2
 72
1
 73
7
 74
7
 0
VERTEX
 8
MESH_443_F0
 10
0
 20
0
 30
0
 70
128
 71
2
 72
7
 73
3
 74
3
 0
VERTEX
 8
MESH_443_F0
 10
0
 20
0
 30
0
 70
128
 71
7
 72
6
 73
3
 74
3
 0
VERTEX
 8
MESH_443_F0
 10
0
 20
0
 30
0
 70
128
 71
6
 72
5
 73
3
 74
3
 0
VERTEX
 8
MESH_443_F0
 10
0
 20
0
 30
0
 70
128
 71
5
 72
4
 73
3
 74
3
 0
SEQEND
 0
POLYLINE
 8
MESH_442_F0
 66
1
 10
0.0
 20
0.0
 30
0.0
 70
64
 71
13
 72
14
 0
VERTEX
 8
MESH_442_F0
 10
215.5
 20
121
 30
-23
 70
192
 0
VERTEX
 8
MESH_442_F0
 10
217
 20
121.4019
 30
-23
 70
192
 0
VERTEX
 8
MESH_442_F0
 10
218.0981
 20
122.5
 30
-23
 70
192
 0
VERTEX
 8
MESH_442_F0
 10
218.5
 20
124
 30
-23
 70
192
 0
VERTEX
 8
MESH_442_F0
 10
218.0981
 20
124
 30
-21.5
 70
192
 0
VERTEX
 8
MESH_442_F0
 10
217
 20
124
 30
-20.4019
 70
192
 0
VERTEX
 8
MESH_442_F0
 10
215.5
 20
124
 30
-20
 70
192
 0
VERTEX
 8
MESH_442_F0
 10
215.5
 20
122.5
 30
-20.4019
 70
192
 0
VERTEX
 8
MESH_442_F0
 10
215.5
 20
121.4019
 30
-21.5
 70
192
 0
VERTEX
 8
MESH_442_F0
 10
216.799
 20
121.75
 30
-21.5
 70
192
 0
VERTEX
 8
MESH_442_F0
 10
216.25
 20
122.701
 30
-20.4019
 70
192
 0
VERTEX
 8
MESH_442_F0
 10
217.75
 20
122.701
 30
-21.5
 70
192
 0
VERTEX
 8
MESH_442_F0
 10
216.799
 20
123.25
 30
-20.4019
 70
192
 0
VERTEX
 8
MESH_442_F0
 10
0
 20
0
 30
0
 70
128
 71
10
 72
1
 73
9
 74
9
 0
VERTEX
 8
MESH_442_F0
 10
0
 20
0
 30
0
 70
128
 71
13
 72
12
 73
10
 74
11
 0
VERTEX
 8
MESH_442_F0
 10
0
 20
0
 30
0
 70
128
 71
11
 72
7
 73
13
 74
13
 0
VERTEX
 8
MESH_442_F0
 10
0
 20
0
 30
0
 70
128
 71
7
 72
6
 73
13
 74
13
 0
VERTEX
 8
MESH_442_F0
 10
0
 20
0
 30
0
 70
128
 71
6
 72
12
 73
13
 74
13
 0
VERTEX
 8
MESH_442_F0
 10
0
 20
0
 30
0
 70
128
 71
5
 72
12
 73
6
 74
6
 0
VERTEX
 8
MESH_442_F0
 10
0
 20
0
 30
0
 70
128
 71
3
 72
12
 73
5
 74
5
 0
VERTEX
 8
MESH_442_F0
 10
0
 20
0
 30
0
 70
128
 71
3
 72
5
 73
4
 74
4
 0
VERTEX
 8
MESH_442_F0
 10
0
 20
0
 30
0
 70
128
 71
2
 72
12
 73
3
 74
3
 0
VERTEX
 8
MESH_442_F0
 10
0
 20
0
 30
0
 70
128
 71
10
 72
12
 73
2
 74
2
 0
VERTEX
 8
MESH_442_F0
 10
0
 20
0
 30
0
 70
128
 71
10
 72
2
 73
1
 74
1
 0
VERTEX
 8
MESH_442_F0
 10
0
 20
0
 30
0
 70
128
 71
11
 72
8
 73
7
 74
7
 0
VERTEX
 8
MESH_442_F0
 10
0
 20
0
 30
0
 70
128
 71
11
 72
9
 73
8
 74
8
 0
VERTEX
 8
MESH_442_F0
 10
0
 20
0
 30
0
 70
128
 71
10
 72
9
 73
11
 74
11
 0
SEQEND
 0
POLYLINE
 8
MESH_441_F0
 66
1
 10
0.0
 20
0.0
 30
0.0
 70
64
 71
8
 72
6
 0
VERTEX
 8
MESH_441_F0
 10
200.5
 20
121
 30
-23
 70
192
 0
VERTEX
 8
MESH_441_F0
 10
215.5
 20
121
 30
-23
 70
192
 0
VERTEX
 8
MESH_441_F0
 10
215.5
 20
121.4019
 30
-21.5
 70
192
 0
VERTEX
 8
MESH_441_F0
 10
215.5
 20
122.5
 30
-20.4019
 70
192
 0
VERTEX
 8
MESH_441_F0
 10
215.5
 20
124
 30
-20
 70
192
 0
VERTEX
 8
MESH_441_F0
 10
200.5
 20
124
 30
-20
 70
192
 0
VERTEX
 8
MESH_441_F0
 10
200.5
 20
122.5
 30
-20.4019
 70
192
 0
VERTEX
 8
MESH_441_F0
 10
200.5
 20
121.4019
 30
-21.5
 70
192
 0
VERTEX
 8
MESH_441_F0
 10
0
 20
0
 30
0
 70
128
 71
8
 72
2
 73
1
 74
1
 0
VERTEX
 8
MESH_441_F0
 10
0
 20
0
 30
0
 70
128
 71
3
 72
2
 73
8
 74
8
 0
VERTEX
 8
MESH_441_F0
 10
0
 20
0
 30
0
 70
128
 71
3
 72
8
 73
4
 74
4
 0
VERTEX
 8
MESH_441_F0
 10
0
 20
0
 30
0
 70
128
 71
8
 72
7
 73
4
 74
4
 0
VERTEX
 8
MESH_441_F0
 10
0
 20
0
 30
0
 70
128
 71
7
 72
6
 73
4
 74
4
 0
VERTEX
 8
MESH_441_F0
 10
0
 20
0
 30
0
 70
128
 71
6
 72
5
 73
4
 74
4
 0
SEQEND
 0
POLYLINE
 8
MESH_440_F0
 66
1
 10
0.0
 20
0.0
 30
0.0
 70
64
 71
4
 72
2
 0
VERTEX
 8
MESH_440_F0
 10
215.5
 20
121
 30
-517
 70
192
 0
VERTEX
 8
MESH_440_F0
 10
215.5
 20
121
 30
-23
 70
192
 0
VERTEX
 8
MESH_440_F0
 10
200.5
 20
121
 30
-23
 70
192
 0
VERTEX
 8
MESH_440_F0
 10
200.5
 20
121
 30
-517
 70
192
 0
VERTEX
 8
MESH_440_F0
 10
0
 20
0
 30
0
 70
128
 71
1
 72
3
 73
2
 74
2
 0
VERTEX
 8
MESH_440_F0
 10
0
 20
0
 30
0
 70
128
 71
4
 72
3
 73
1
 74
1
 0
SEQEND
 0
POLYLINE
 8
MESH_439_F0
 66
1
 10
0.0
 20
0.0
 30
0.0
 70
64
 71
8
 72
6
 0
VERTEX
 8
MESH_439_F0
 10
200.5
 20
124
 30
-520
 70
192
 0
VERTEX
 8
MESH_439_F0
 10
215.5
 20
124
 30
-520
 70
192
 0
VERTEX
 8
MESH_439_F0
 10
215.5
 20
122.5
 30
-519.5981
 70
192
 0
VERTEX
 8
MESH_439_F0
 10
215.5
 20
121.4019
 30
-518.5
 70
192
 0
VERTEX
 8
MESH_439_F0
 10
215.5
 20
121
 30
-517
 70
192
 0
VERTEX
 8
MESH_439_F0
 10
200.5
 20
121
 30
-517
 70
192
 0
VERTEX
 8
MESH_439_F0
 10
200.5
 20
121.4019
 30
-518.5
 70
192
 0
VERTEX
 8
MESH_439_F0
 10
200.5
 20
122.5
 30
-519.5981
 70
192
 0
VERTEX
 8
MESH_439_F0
 10
0
 20
0
 30
0
 70
128
 71
8
 72
2
 73
1
 74
1
 0
VERTEX
 8
MESH_439_F0
 10
0
 20
0
 30
0
 70
128
 71
3
 72
2
 73
8
 74
8
 0
VERTEX
 8
MESH_439_F0
 10
0
 20
0
 30
0
 70
128
 71
3
 72
8
 73
4
 74
4
 0
VERTEX
 8
MESH_439_F0
 10
0
 20
0
 30
0
 70
128
 71
8
 72
7
 73
4
 74
4
 0
VERTEX
 8
MESH_439_F0
 10
0
 20
0
 30
0
 70
128
 71
7
 72
6
 73
4
 74
4
 0
VERTEX
 8
MESH_439_F0
 10
0
 20
0
 30
0
 70
128
 71
6
 72
5
 73
4
 74
4
 0
SEQEND
 0
POLYLINE
 8
MESH_438_F0
 66
1
 10
0.0
 20
0.0
 30
0.0
 70
64
 71
10
 72
8
 0
VERTEX
 8
MESH_438_F0
 10
200.5
 20
121
 30
-517
 70
192
 0
VERTEX
 8
MESH_438_F0
 10
200.5
 20
121
 30
-23
 70
192
 0
VERTEX
 8
MESH_438_F0
 10
200.5
 20
121.4019
 30
-21.5
 70
192
 0
VERTEX
 8
MESH_438_F0
 10
200.5
 20
122.5
 30
-20.4019
 70
192
 0
VERTEX
 8
MESH_438_F0
 10
200.5
 20
124
 30
-20
 70
192
 0
VERTEX
 8
MESH_438_F0
 10
200.5
 20
225
 30
-20
 70
192
 0
VERTEX
 8
MESH_438_F0
 10
200.5
 20
225
 30
-520
 70
192
 0
VERTEX
 8
MESH_438_F0
 10
200.5
 20
124
 30
-520
 70
192
 0
VERTEX
 8
MESH_438_F0
 10
200.5
 20
122.5
 30
-519.5981
 70
192
 0
VERTEX
 8
MESH_438_F0
 10
200.5
 20
121.4019
 30
-518.5
 70
192
 0
VERTEX
 8
MESH_438_F0
 10
0
 20
0
 30
0
 70
128
 71
2
 72
5
 73
4
 74
4
 0
VERTEX
 8
MESH_438_F0
 10
0
 20
0
 30
0
 70
128
 71
2
 72
4
 73
3
 74
3
 0
VERTEX
 8
MESH_438_F0
 10
0
 20
0
 30
0
 70
128
 71
8
 72
5
 73
2
 74
2
 0
VERTEX
 8
MESH_438_F0
 10
0
 20
0
 30
0
 70
128
 71
9
 72
8
 73
1
 74
1
 0
VERTEX
 8
MESH_438_F0
 10
0
 20
0
 30
0
 70
128
 71
9
 72
1
 73
10
 74
10
 0
VERTEX
 8
MESH_438_F0
 10
0
 20
0
 30
0
 70
128
 71
6
 72
8
 73
7
 74
7
 0
VERTEX
 8
MESH_438_F0
 10
0
 20
0
 30
0
 70
128
 71
5
 72
8
 73
6
 74
6
 0
VERTEX
 8
MESH_438_F0
 10
0
 20
0
 30
0
 70
128
 71
1
 72
8
 73
2
 74
2
 0
SEQEND
 0
POLYLINE
 8
MESH_437_F0
 66
1
 10
0.0
 20
0.0
 30
0.0
 70
64
 71
10
 72
8
 0
VERTEX
 8
MESH_437_F0
 10
-96.5
 20
225
 30
-23
 70
192
 0
VERTEX
 8
MESH_437_F0
 10
-96.5
 20
225
 30
-517
 70
192
 0
VERTEX
 8
MESH_437_F0
 10
-96.0981
 20
225
 30
-518.5
 70
192
 0
VERTEX
 8
MESH_437_F0
 10
-95
 20
225
 30
-519.5981
 70
192
 0
VERTEX
 8
MESH_437_F0
 10
-93.5
 20
225
 30
-520
 70
192
 0
VERTEX
 8
MESH_437_F0
 10
200.5
 20
225
 30
-520
 70
192
 0
VERTEX
 8
MESH_437_F0
 10
200.5
 20
225
 30
-20
 70
192
 0
VERTEX
 8
MESH_437_F0
 10
-93.5
 20
225
 30
-20
 70
192
 0
VERTEX
 8
MESH_437_F0
 10
-95
 20
225
 30
-20.4019
 70
192
 0
VERTEX
 8
MESH_437_F0
 10
-96.0981
 20
225
 30
-21.5
 70
192
 0
VERTEX
 8
MESH_437_F0
 10
0
 20
0
 30
0
 70
128
 71
2
 72
5
 73
4
 74
4
 0
VERTEX
 8
MESH_437_F0
 10
0
 20
0
 30
0
 70
128
 71
2
 72
4
 73
3
 74
3
 0
VERTEX
 8
MESH_437_F0
 10
0
 20
0
 30
0
 70
128
 71
8
 72
5
 73
2
 74
2
 0
VERTEX
 8
MESH_437_F0
 10
0
 20
0
 30
0
 70
128
 71
9
 72
8
 73
1
 74
1
 0
VERTEX
 8
MESH_437_F0
 10
0
 20
0
 30
0
 70
128
 71
9
 72
1
 73
10
 74
10
 0
VERTEX
 8
MESH_437_F0
 10
0
 20
0
 30
0
 70
128
 71
6
 72
8
 73
7
 74
7
 0
VERTEX
 8
MESH_437_F0
 10
0
 20
0
 30
0
 70
128
 71
5
 72
8
 73
6
 74
6
 0
VERTEX
 8
MESH_437_F0
 10
0
 20
0
 30
0
 70
128
 71
1
 72
8
 73
2
 74
2
 0
SEQEND
 0
POLYLINE
 8
MESH_436_F0
 66
1
 10
0.0
 20
0.0
 30
0.0
 70
64
 71
8
 72
6
 0
VERTEX
 8
MESH_436_F0
 10
-93.5
 20
225
 30
-20
 70
192
 0
VERTEX
 8
MESH_436_F0
 10
-93.5
 20
240
 30
-20
 70
192
 0
VERTEX
 8
MESH_436_F0
 10
-95
 20
240
 30
-20.4019
 70
192
 0
VERTEX
 8
MESH_436_F0
 10
-96.0981
 20
240
 30
-21.5
 70
192
 0
VERTEX
 8
MESH_436_F0
 10
-96.5
 20
240
 30
-23
 70
192
 0
VERTEX
 8
MESH_436_F0
 10
-96.5
 20
225
 30
-23
 70
192
 0
VERTEX
 8
MESH_436_F0
 10
-96.0981
 20
225
 30
-21.5
 70
192
 0
VERTEX
 8
MESH_436_F0
 10
-95
 20
225
 30
-20.4019
 70
192
 0
VERTEX
 8
MESH_436_F0
 10
0
 20
0
 30
0
 70
128
 71
8
 72
2
 73
1
 74
1
 0
VERTEX
 8
MESH_436_F0
 10
0
 20
0
 30
0
 70
128
 71
3
 72
2
 73
8
 74
8
 0
VERTEX
 8
MESH_436_F0
 10
0
 20
0
 30
0
 70
128
 71
3
 72
8
 73
4
 74
4
 0
VERTEX
 8
MESH_436_F0
 10
0
 20
0
 30
0
 70
128
 71
8
 72
7
 73
4
 74
4
 0
VERTEX
 8
MESH_436_F0
 10
0
 20
0
 30
0
 70
128
 71
7
 72
6
 73
4
 74
4
 0
VERTEX
 8
MESH_436_F0
 10
0
 20
0
 30
0
 70
128
 71
6
 72
5
 73
4
 74
4
 0
SEQEND
 0
POLYLINE
 8
MESH_435_F0
 66
1
 10
0.0
 20
0.0
 30
0.0
 70
64
 71
4
 72
2
 0
VERTEX
 8
MESH_435_F0
 10
-96.5
 20
240
 30
-23
 70
192
 0
VERTEX
 8
MESH_435_F0
 10
-96.5
 20
240
 30
-517
 70
192
 0
VERTEX
 8
MESH_435_F0
 10
-96.5
 20
225
 30
-517
 70
192
 0
VERTEX
 8
MESH_435_F0
 10
-96.5
 20
225
 30
-23
 70
192
 0
VERTEX
 8
MESH_435_F0
 10
0
 20
0
 30
0
 70
128
 71
1
 72
3
 73
2
 74
2
 0
VERTEX
 8
MESH_435_F0
 10
0
 20
0
 30
0
 70
128
 71
4
 72
3
 73
1
 74
1
 0
SEQEND
 0
POLYLINE
 8
MESH_434_F0
 66
1
 10
0.0
 20
0.0
 30
0.0
 70
64
 71
8
 72
6
 0
VERTEX
 8
MESH_434_F0
 10
-93.5
 20
243
 30
-517
 70
192
 0
VERTEX
 8
MESH_434_F0
 10
-95
 20
242.5981
 30
-517
 70
192
 0
VERTEX
 8
MESH_434_F0
 10
-96.0981
 20
241.5
 30
-517
 70
192
 0
VERTEX
 8
MESH_434_F0
 10
-96.5
 20
240
 30
-517
 70
192
 0
VERTEX
 8
MESH_434_F0
 10
-96.5
 20
240
 30
-23
 70
192
 0
VERTEX
 8
MESH_434_F0
 10
-96.0981
 20
241.5
 30
-23
 70
192
 0
VERTEX
 8
MESH_434_F0
 10
-95
 20
242.5981
 30
-23
 70
192
 0
VERTEX
 8
MESH_434_F0
 10
-93.5
 20
243
 30
-23
 70
192
 0
VERTEX
 8
MESH_434_F0
 10
0
 20
0
 30
0
 70
128
 71
7
 72
1
 73
8
 74
8
 0
VERTEX
 8
MESH_434_F0
 10
0
 20
0
 30
0
 70
128
 71
2
 72
1
 73
7
 74
7
 0
VERTEX
 8
MESH_434_F0
 10
0
 20
0
 30
0
 70
128
 71
2
 72
7
 73
3
 74
3
 0
VERTEX
 8
MESH_434_F0
 10
0
 20
0
 30
0
 70
128
 71
7
 72
6
 73
3
 74
3
 0
VERTEX
 8
MESH_434_F0
 10
0
 20
0
 30
0
 70
128
 71
6
 72
5
 73
3
 74
3
 0
VERTEX
 8
MESH_434_F0
 10
0
 20
0
 30
0
 70
128
 71
5
 72
4
 73
3
 74
3
 0
SEQEND
 0
POLYLINE
 8
MESH_433_F0
 66
1
 10
0.0
 20
0.0
 30
0.0
 70
64
 71
13
 72
14
 0
VERTEX
 8
MESH_433_F0
 10
-96.5
 20
240
 30
-23
 70
192
 0
VERTEX
 8
MESH_433_F0
 10
-96.0981
 20
240
 30
-21.5
 70
192
 0
VERTEX
 8
MESH_433_F0
 10
-95
 20
240
 30
-20.4019
 70
192
 0
VERTEX
 8
MESH_433_F0
 10
-93.5
 20
240
 30
-20
 70
192
 0
VERTEX
 8
MESH_433_F0
 10
-93.5
 20
241.5
 30
-20.4019
 70
192
 0
VERTEX
 8
MESH_433_F0
 10
-93.5
 20
242.5981
 30
-21.5
 70
192
 0
VERTEX
 8
MESH_433_F0
 10
-93.5
 20
243
 30
-23
 70
192
 0
VERTEX
 8
MESH_433_F0
 10
-95
 20
242.5981
 30
-23
 70
192
 0
VERTEX
 8
MESH_433_F0
 10
-96.0981
 20
241.5
 30
-23
 70
192
 0
VERTEX
 8
MESH_433_F0
 10
-94.799
 20
240.75
 30
-20.4019
 70
192
 0
VERTEX
 8
MESH_433_F0
 10
-95.75
 20
241.299
 30
-21.5
 70
192
 0
VERTEX
 8
MESH_433_F0
 10
-94.799
 20
242.25
 30
-21.5
 70
192
 0
VERTEX
 8
MESH_433_F0
 10
-94.25
 20
241.299
 30
-20.4019
 70
192
 0
VERTEX
 8
MESH_433_F0
 10
0
 20
0
 30
0
 70
128
 71
9
 72
2
 73
1
 74
1
 0
VERTEX
 8
MESH_433_F0
 10
0
 20
0
 30
0
 70
128
 71
11
 72
2
 73
9
 74
9
 0
VERTEX
 8
MESH_433_F0
 10
0
 20
0
 30
0
 70
128
 71
12
 72
11
 73
8
 74
8
 0
VERTEX
 8
MESH_433_F0
 10
0
 20
0
 30
0
 70
128
 71
6
 72
12
 73
7
 74
7
 0
VERTEX
 8
MESH_433_F0
 10
0
 20
0
 30
0
 70
128
 71
12
 72
8
 73
7
 74
7
 0
VERTEX
 8
MESH_433_F0
 10
0
 20
0
 30
0
 70
128
 71
11
 72
3
 73
2
 74
2
 0
VERTEX
 8
MESH_433_F0
 10
0
 20
0
 30
0
 70
128
 71
10
 72
3
 73
11
 74
11
 0
VERTEX
 8
MESH_433_F0
 10
0
 20
0
 30
0
 70
128
 71
4
 72
10
 73
13
 74
13
 0
VERTEX
 8
MESH_433_F0
 10
0
 20
0
 30
0
 70
128
 71
13
 72
5
 73
4
 74
4
 0
VERTEX
 8
MESH_433_F0
 10
0
 20
0
 30
0
 70
128
 71
6
 72
5
 73
13
 74
13
 0
VERTEX
 8
MESH_433_F0
 10
0
 20
0
 30
0
 70
128
 71
6
 72
13
 73
12
 74
12
 0
VERTEX
 8
MESH_433_F0
 10
0
 20
0
 30
0
 70
128
 71
13
 72
10
 73
11
 74
12
 0
VERTEX
 8
MESH_433_F0
 10
0
 20
0
 30
0
 70
128
 71
11
 72
9
 73
8
 74
8
 0
VERTEX
 8
MESH_433_F0
 10
0
 20
0
 30
0
 70
128
 71
3
 72
10
 73
4
 74
4
 0
SEQEND
 0
POLYLINE
 8
MESH_432_F0
 66
1
 10
0.0
 20
0.0
 30
0.0
 70
64
 71
10
 72
8
 0
VERTEX
 8
MESH_432_F0
 10
-93.5
 20
243
 30
-23
 70
192
 0
VERTEX
 8
MESH_432_F0
 10
-93.5
 20
242.5981
 30
-21.5
 70
192
 0
VERTEX
 8
MESH_432_F0
 10
-93.5
 20
241.5
 30
-20.4019
 70
192
 0
VERTEX
 8
MESH_432_F0
 10
-93.5
 20
240
 30
-20
 70
192
 0
VERTEX
 8
MESH_432_F0
 10
215.5
 20
240
 30
-20
 70
192
 0
VERTEX
 8
MESH_432_F0
 10
216.4875
 20
240.9875
 30
-20.1672
 70
192
 0
VERTEX
 8
MESH_432_F0
 10
217.3298
 20
241.8298
 30
-20.6226
 70
192
 0
VERTEX
 8
MESH_432_F0
 10
217.9649
 20
242.465
 30
-21.29
 70
192
 0
VERTEX
 8
MESH_432_F0
 10
218.3628
 20
242.8627
 30
-22.1028
 70
192
 0
VERTEX
 8
MESH_432_F0
 10
218.5
 20
243
 30
-23
 70
192
 0
VERTEX
 8
MESH_432_F0
 10
0
 20
0
 30
0
 70
128
 71
9
 72
1
 73
10
 74
10
 0
VERTEX
 8
MESH_432_F0
 10
0
 20
0
 30
0
 70
128
 71
2
 72
1
 73
9
 74
9
 0
VERTEX
 8
MESH_432_F0
 10
0
 20
0
 30
0
 70
128
 71
3
 72
2
 73
8
 74
8
 0
VERTEX
 8
MESH_432_F0
 10
0
 20
0
 30
0
 70
128
 71
6
 72
3
 73
7
 74
7
 0
VERTEX
 8
MESH_432_F0
 10
0
 20
0
 30
0
 70
128
 71
3
 72
8
 73
7
 74
7
 0
VERTEX
 8
MESH_432_F0
 10
0
 20
0
 30
0
 70
128
 71
6
 72
4
 73
3
 74
3
 0
VERTEX
 8
MESH_432_F0
 10
0
 20
0
 30
0
 70
128
 71
5
 72
4
 73
6
 74
6
 0
VERTEX
 8
MESH_432_F0
 10
0
 20
0
 30
0
 70
128
 71
2
 72
9
 73
8
 74
8
 0
SEQEND
 0
POLYLINE
 8
MESH_431_F0
 66
1
 10
0.0
 20
0.0
 30
0.0
 70
64
 71
4
 72
2
 0
VERTEX
 8
MESH_431_F0
 10
218.5
 20
243
 30
-23
 70
192
 0
VERTEX
 8
MESH_431_F0
 10
218.5
 20
243
 30
-517
 70
192
 0
VERTEX
 8
MESH_431_F0
 10
-93.5
 20
243
 30
-517
 70
192
 0
VERTEX
 8
MESH_431_F0
 10
-93.5
 20
243
 30
-23
 70
192
 0
VERTEX
 8
MESH_431_F0
 10
0
 20
0
 30
0
 70
128
 71
1
 72
3
 73
2
 74
2
 0
VERTEX
 8
MESH_431_F0
 10
0
 20
0
 30
0
 70
128
 71
4
 72
3
 73
1
 74
1
 0
SEQEND
 0
POLYLINE
 8
MESH_430_F0
 66
1
 10
0.0
 20
0.0
 30
0.0
 70
64
 71
4
 72
2
 0
VERTEX
 8
MESH_430_F0
 10
218.5
 20
124
 30
-23
 70
192
 0
VERTEX
 8
MESH_430_F0
 10
218.5
 20
124
 30
-517
 70
192
 0
VERTEX
 8
MESH_430_F0
 10
218.5
 20
243
 30
-517
 70
192
 0
VERTEX
 8
MESH_430_F0
 10
218.5
 20
243
 30
-23
 70
192
 0
VERTEX
 8
MESH_430_F0
 10
0
 20
0
 30
0
 70
128
 71
1
 72
3
 73
2
 74
2
 0
VERTEX
 8
MESH_430_F0
 10
0
 20
0
 30
0
 70
128
 71
4
 72
3
 73
1
 74
1
 0
SEQEND
 0
POLYLINE
 8
MESH_429_F0
 66
1
 10
0.0
 20
0.0
 30
0.0
 70
64
 71
10
 72
8
 0
VERTEX
 8
MESH_429_F0
 10
218.5
 20
243
 30
-23
 70
192
 0
VERTEX
 8
MESH_429_F0
 10
218.3628
 20
242.8627
 30
-22.1028
 70
192
 0
VERTEX
 8
MESH_429_F0
 10
217.9649
 20
242.465
 30
-21.29
 70
192
 0
VERTEX
 8
MESH_429_F0
 10
217.3298
 20
241.8298
 30
-20.6226
 70
192
 0
VERTEX
 8
MESH_429_F0
 10
216.4875
 20
240.9875
 30
-20.1672
 70
192
 0
VERTEX
 8
MESH_429_F0
 10
215.5
 20
240
 30
-20
 70
192
 0
VERTEX
 8
MESH_429_F0
 10
215.5
 20
124
 30
-20
 70
192
 0
VERTEX
 8
MESH_429_F0
 10
217
 20
124
 30
-20.4019
 70
192
 0
VERTEX
 8
MESH_429_F0
 10
218.0981
 20
124
 30
-21.5
 70
192
 0
VERTEX
 8
MESH_429_F0
 10
218.5
 20
124
 30
-23
 70
192
 0
VERTEX
 8
MESH_429_F0
 10
0
 20
0
 30
0
 70
128
 71
10
 72
2
 73
1
 74
1
 0
VERTEX
 8
MESH_429_F0
 10
0
 20
0
 30
0
 70
128
 71
9
 72
2
 73
10
 74
10
 0
VERTEX
 8
MESH_429_F0
 10
0
 20
0
 30
0
 70
128
 71
3
 72
2
 73
9
 74
9
 0
VERTEX
 8
MESH_429_F0
 10
0
 20
0
 30
0
 70
128
 71
3
 72
9
 73
4
 74
4
 0
VERTEX
 8
MESH_429_F0
 10
0
 20
0
 30
0
 70
128
 71
9
 72
8
 73
4
 74
4
 0
VERTEX
 8
MESH_429_F0
 10
0
 20
0
 30
0
 70
128
 71
8
 72
5
 73
4
 74
4
 0
VERTEX
 8
MESH_429_F0
 10
0
 20
0
 30
0
 70
128
 71
7
 72
5
 73
8
 74
8
 0
VERTEX
 8
MESH_429_F0
 10
0
 20
0
 30
0
 70
128
 71
6
 72
5
 73
7
 74
7
 0
SEQEND
 0
POLYLINE
 8
MESH_428_F0
 66
1
 10
0.0
 20
0.0
 30
0.0
 70
64
 71
6
 72
4
 0
VERTEX
 8
MESH_428_F0
 10
215.5
 20
240
 30
-20
 70
192
 0
VERTEX
 8
MESH_428_F0
 10
-93.5
 20
240
 30
-20
 70
192
 0
VERTEX
 8
MESH_428_F0
 10
-93.5
 20
225
 30
-20
 70
192
 0
VERTEX
 8
MESH_428_F0
 10
200.5
 20
225
 30
-20
 70
192
 0
VERTEX
 8
MESH_428_F0
 10
200.5
 20
124
 30
-20
 70
192
 0
VERTEX
 8
MESH_428_F0
 10
215.5
 20
124
 30
-20
 70
192
 0
VERTEX
 8
MESH_428_F0
 10
0
 20
0
 30
0
 70
128
 71
4
 72
1
 73
6
 74
6
 0
VERTEX
 8
MESH_428_F0
 10
0
 20
0
 30
0
 70
128
 71
4
 72
6
 73
5
 74
5
 0
VERTEX
 8
MESH_428_F0
 10
0
 20
0
 30
0
 70
128
 71
2
 72
4
 73
3
 74
3
 0
VERTEX
 8
MESH_428_F0
 10
0
 20
0
 30
0
 70
128
 71
1
 72
4
 73
2
 74
2
 0
SEQEND
 0
POLYLINE
 8
MESH_426_F0
 66
1
 10
0.0
 20
0.0
 30
0.0
 70
64
 71
17
 72
19
 0
VERTEX
 8
MESH_426_F0
 10
161.1207
 20
261
 30
-91.5308
 70
192
 0
VERTEX
 8
MESH_426_F0
 10
161.2334
 20
260.9672
 30
-91.4798
 70
192
 0
VERTEX
 8
MESH_426_F0
 10
161.3166
 20
260.8775
 30
-91.4421
 70
192
 0
VERTEX
 8
MESH_426_F0
 10
161.3484
 20
260.7544
 30
-91.4278
 70
192
 0
VERTEX
 8
MESH_426_F0
 10
161.0748
 20
260.7544
 30
-90.4889
 70
192
 0
VERTEX
 8
MESH_426_F0
 10
161.0748
 20
260.7544
 30
-89.511
 70
192
 0
VERTEX
 8
MESH_426_F0
 10
161.3485
 20
260.7544
 30
-88.5721
 70
192
 0
VERTEX
 8
MESH_426_F0
 10
161.3166
 20
260.8775
 30
-88.5579
 70
192
 0
VERTEX
 8
MESH_426_F0
 10
161.2334
 20
260.9672
 30
-88.5202
 70
192
 0
VERTEX
 8
MESH_426_F0
 10
161.1207
 20
261
 30
-88.4692
 70
192
 0
VERTEX
 8
MESH_426_F0
 10
160.8273
 20
261
 30
-89.4758
 70
192
 0
VERTEX
 8
MESH_426_F0
 10
160.8273
 20
261
 30
-90.5242
 70
192
 0
VERTEX
 8
MESH_426_F0
 10
161.1623
 20
260.875
 30
-91.0311
 70
192
 0
VERTEX
 8
MESH_426_F0
 10
161.0749
 20
260.9665
 30
-91.0582
 70
192
 0
VERTEX
 8
MESH_426_F0
 10
161.0654
 20
260.875
 30
-89.3619
 70
192
 0
VERTEX
 8
MESH_426_F0
 10
160.9754
 20
260.9665
 30
-89.3452
 70
192
 0
VERTEX
 8
MESH_426_F0
 10
161.0088
 20
260.992
 30
-88.9449
 70
192
 0
VERTEX
 8
MESH_426_F0
 10
0
 20
0
 30
0
 70
128
 71
12
 72
2
 73
1
 74
1
 0
VERTEX
 8
MESH_426_F0
 10
0
 20
0
 30
0
 70
128
 71
14
 72
2
 73
12
 74
12
 0
VERTEX
 8
MESH_426_F0
 10
0
 20
0
 30
0
 70
128
 71
15
 72
13
 73
14
 74
16
 0
VERTEX
 8
MESH_426_F0
 10
0
 20
0
 30
0
 70
128
 71
16
 72
9
 73
15
 74
15
 0
VERTEX
 8
MESH_426_F0
 10
0
 20
0
 30
0
 70
128
 71
9
 72
8
 73
15
 74
15
 0
VERTEX
 8
MESH_426_F0
 10
0
 20
0
 30
0
 70
128
 71
8
 72
7
 73
15
 74
15
 0
VERTEX
 8
MESH_426_F0
 10
0
 20
0
 30
0
 70
128
 71
7
 72
6
 73
15
 74
15
 0
VERTEX
 8
MESH_426_F0
 10
0
 20
0
 30
0
 70
128
 71
6
 72
5
 73
15
 74
15
 0
VERTEX
 8
MESH_426_F0
 10
0
 20
0
 30
0
 70
128
 71
5
 72
13
 73
15
 74
15
 0
VERTEX
 8
MESH_426_F0
 10
0
 20
0
 30
0
 70
128
 71
4
 72
13
 73
5
 74
5
 0
VERTEX
 8
MESH_426_F0
 10
0
 20
0
 30
0
 70
128
 71
3
 72
13
 73
4
 74
4
 0
VERTEX
 8
MESH_426_F0
 10
0
 20
0
 30
0
 70
128
 71
14
 72
13
 73
3
 74
3
 0
VERTEX
 8
MESH_426_F0
 10
0
 20
0
 30
0
 70
128
 71
14
 72
3
 73
2
 74
2
 0
VERTEX
 8
MESH_426_F0
 10
0
 20
0
 30
0
 70
128
 71
17
 72
9
 73
16
 74
16
 0
VERTEX
 8
MESH_426_F0
 10
0
 20
0
 30
0
 70
128
 71
10
 72
17
 73
11
 74
11
 0
VERTEX
 8
MESH_426_F0
 10
0
 20
0
 30
0
 70
128
 71
17
 72
16
 73
11
 74
11
 0
VERTEX
 8
MESH_426_F0
 10
0
 20
0
 30
0
 70
128
 71
16
 72
12
 73
11
 74
11
 0
VERTEX
 8
MESH_426_F0
 10
0
 20
0
 30
0
 70
128
 71
14
 72
12
 73
16
 74
16
 0
VERTEX
 8
MESH_426_F0
 10
0
 20
0
 30
0
 70
128
 71
10
 72
9
 73
17
 74
17
 0
SEQEND
 0
POLYLINE
 8
MESH_425_F0
 66
1
 10
0.0
 20
0.0
 30
0.0
 70
64
 71
27
 72
31
 0
VERTEX
 8
MESH_425_F0
 10
161.1207
 20
261
 30
-88.4692
 70
192
 0
VERTEX
 8
MESH_425_F0
 10
161.2334
 20
260.9672
 30
-88.5202
 70
192
 0
VERTEX
 8
MESH_425_F0
 10
161.3166
 20
260.8775
 30
-88.5579
 70
192
 0
VERTEX
 8
MESH_425_F0
 10
161.3485
 20
260.7544
 30
-88.5721
 70
192
 0
VERTEX
 8
MESH_425_F0
 10
161.4277
 20
260.7561
 30
-88.2995
 70
192
 0
VERTEX
 8
MESH_425_F0
 10
161.427
 20
260.7573
 30
-88.0153
 70
192
 0
VERTEX
 8
MESH_425_F0
 10
161.3463
 20
260.758
 30
-87.7427
 70
192
 0
VERTEX
 8
MESH_425_F0
 10
161.1922
 20
260.758
 30
-87.5038
 70
192
 0
VERTEX
 8
MESH_425_F0
 10
160.9772
 20
260.7573
 30
-87.318
 70
192
 0
VERTEX
 8
MESH_425_F0
 10
160.7187
 20
260.7561
 30
-87.2002
 70
192
 0
VERTEX
 8
MESH_425_F0
 10
160.4377
 20
260.7544
 30
-87.1599
 70
192
 0
VERTEX
 8
MESH_425_F0
 10
160.4376
 20
260.8775
 30
-87.1948
 70
192
 0
VERTEX
 8
MESH_425_F0
 10
160.4376
 20
260.9672
 30
-87.2861
 70
192
 0
VERTEX
 8
MESH_425_F0
 10
160.4376
 20
261
 30
-87.4099
 70
192
 0
VERTEX
 8
MESH_425_F0
 10
160.9006
 20
261
 30
-87.5698
 70
192
 0
VERTEX
 8
MESH_425_F0
 10
161.1661
 20
261
 30
-87.9814
 70
192
 0
VERTEX
 8
MESH_425_F0
 10
161.4041
 20
260.875
 30
-88.1595
 70
192
 0
VERTEX
 8
MESH_425_F0
 10
161.3126
 20
260.9665
 30
-88.1595
 70
192
 0
VERTEX
 8
MESH_425_F0
 10
161.2511
 20
260.9915
 30
-88.119
 70
192
 0
VERTEX
 8
MESH_425_F0
 10
161.2745
 20
260.875
 30
-87.6764
 70
192
 0
VERTEX
 8
MESH_425_F0
 10
161.1953
 20
260.9665
 30
-87.7221
 70
192
 0
VERTEX
 8
MESH_425_F0
 10
161.1286
 20
260.9908
 30
-87.7233
 70
192
 0
VERTEX
 8
MESH_425_F0
 10
160.9208
 20
260.875
 30
-87.3227
 70
192
 0
VERTEX
 8
MESH_425_F0
 10
160.875
 20
260.9665
 30
-87.402
 70
192
 0
VERTEX
 8
MESH_425_F0
 10
160.8126
 20
261
 30
-87.5103
 70
192
 0
VERTEX
 8
MESH_425_F0
 10
160.4376
 20
260.875
 30
-87.1934
 70
192
 0
VERTEX
 8
MESH_425_F0
 10
160.4376
 20
260.9665
 30
-87.2849
 70
192
 0
VERTEX
 8
MESH_425_F0
 10
0
 20
0
 30
0
 70
128
 71
19
 72
1
 73
16
 74
16
 0
VERTEX
 8
MESH_425_F0
 10
0
 20
0
 30
0
 70
128
 71
21
 72
18
 73
19
 74
22
 0
VERTEX
 8
MESH_425_F0
 10
0
 20
0
 30
0
 70
128
 71
22
 72
25
 73
24
 74
21
 0
VERTEX
 8
MESH_425_F0
 10
0
 20
0
 30
0
 70
128
 71
17
 72
18
 73
21
 74
20
 0
VERTEX
 8
MESH_425_F0
 10
0
 20
0
 30
0
 70
128
 71
20
 72
6
 73
17
 74
17
 0
VERTEX
 8
MESH_425_F0
 10
0
 20
0
 30
0
 70
128
 71
6
 72
5
 73
17
 74
17
 0
VERTEX
 8
MESH_425_F0
 10
0
 20
0
 30
0
 70
128
 71
5
 72
3
 73
17
 74
17
 0
VERTEX
 8
MESH_425_F0
 10
0
 20
0
 30
0
 70
128
 71
3
 72
18
 73
17
 74
17
 0
VERTEX
 8
MESH_425_F0
 10
0
 20
0
 30
0
 70
128
 71
2
 72
18
 73
3
 74
3
 0
VERTEX
 8
MESH_425_F0
 10
0
 20
0
 30
0
 70
128
 71
19
 72
18
 73
2
 74
2
 0
VERTEX
 8
MESH_425_F0
 10
0
 20
0
 30
0
 70
128
 71
19
 72
2
 73
1
 74
1
 0
VERTEX
 8
MESH_425_F0
 10
0
 20
0
 30
0
 70
128
 71
5
 72
4
 73
3
 74
3
 0
VERTEX
 8
MESH_425_F0
 10
0
 20
0
 30
0
 70
128
 71
20
 72
7
 73
6
 74
6
 0
VERTEX
 8
MESH_425_F0
 10
0
 20
0
 30
0
 70
128
 71
8
 72
7
 73
20
 74
20
 0
VERTEX
 8
MESH_425_F0
 10
0
 20
0
 30
0
 70
128
 71
9
 72
8
 73
23
 74
23
 0
VERTEX
 8
MESH_425_F0
 10
0
 20
0
 30
0
 70
128
 71
9
 72
23
 73
10
 74
10
 0
VERTEX
 8
MESH_425_F0
 10
0
 20
0
 30
0
 70
128
 71
23
 72
26
 73
10
 74
10
 0
VERTEX
 8
MESH_425_F0
 10
0
 20
0
 30
0
 70
128
 71
26
 72
11
 73
10
 74
10
 0
VERTEX
 8
MESH_425_F0
 10
0
 20
0
 30
0
 70
128
 71
12
 72
11
 73
26
 74
26
 0
VERTEX
 8
MESH_425_F0
 10
0
 20
0
 30
0
 70
128
 71
13
 72
12
 73
27
 74
27
 0
VERTEX
 8
MESH_425_F0
 10
0
 20
0
 30
0
 70
128
 71
25
 72
13
 73
24
 74
24
 0
VERTEX
 8
MESH_425_F0
 10
0
 20
0
 30
0
 70
128
 71
13
 72
27
 73
24
 74
24
 0
VERTEX
 8
MESH_425_F0
 10
0
 20
0
 30
0
 70
128
 71
27
 72
26
 73
23
 74
24
 0
VERTEX
 8
MESH_425_F0
 10
0
 20
0
 30
0
 70
128
 71
24
 72
23
 73
20
 74
21
 0
VERTEX
 8
MESH_425_F0
 10
0
 20
0
 30
0
 70
128
 71
23
 72
8
 73
20
 74
20
 0
VERTEX
 8
MESH_425_F0
 10
0
 20
0
 30
0
 70
128
 71
25
 72
14
 73
13
 74
13
 0
VERTEX
 8
MESH_425_F0
 10
0
 20
0
 30
0
 70
128
 71
15
 72
14
 73
25
 74
25
 0
VERTEX
 8
MESH_425_F0
 10
0
 20
0
 30
0
 70
128
 71
16
 72
15
 73
22
 74
22
 0
VERTEX
 8
MESH_425_F0
 10
0
 20
0
 30
0
 70
128
 71
16
 72
22
 73
19
 74
19
 0
VERTEX
 8
MESH_425_F0
 10
0
 20
0
 30
0
 70
128
 71
15
 72
25
 73
22
 74
22
 0
VERTEX
 8
MESH_425_F0
 10
0
 20
0
 30
0
 70
128
 71
12
 72
26
 73
27
 74
27
 0
SEQEND
 0
POLYLINE
 8
MESH_424_F0
 66
1
 10
0.0
 20
0.0
 30
0.0
 70
64
 71
8
 72
6
 0
VERTEX
 8
MESH_424_F0
 10
160.4376
 20
261
 30
-87.4099
 70
192
 0
VERTEX
 8
MESH_424_F0
 10
160.4376
 20
260.9672
 30
-87.2861
 70
192
 0
VERTEX
 8
MESH_424_F0
 10
160.4376
 20
260.8775
 30
-87.1948
 70
192
 0
VERTEX
 8
MESH_424_F0
 10
160.4377
 20
260.7544
 30
-87.1599
 70
192
 0
VERTEX
 8
MESH_424_F0
 10
136.5623
 20
260.7544
 30
-87.1599
 70
192
 0
VERTEX
 8
MESH_424_F0
 10
136.5624
 20
260.8775
 30
-87.1948
 70
192
 0
VERTEX
 8
MESH_424_F0
 10
136.5624
 20
260.9672
 30
-87.2861
 70
192
 0
VERTEX
 8
MESH_424_F0
 10
136.5624
 20
261
 30
-87.4099
 70
192
 0
VERTEX
 8
MESH_424_F0
 10
0
 20
0
 30
0
 70
128
 71
7
 72
1
 73
8
 74
8
 0
VERTEX
 8
MESH_424_F0
 10
0
 20
0
 30
0
 70
128
 71
2
 72
1
 73
7
 74
7
 0
VERTEX
 8
MESH_424_F0
 10
0
 20
0
 30
0
 70
128
 71
2
 72
7
 73
3
 74
3
 0
VERTEX
 8
MESH_424_F0
 10
0
 20
0
 30
0
 70
128
 71
7
 72
6
 73
3
 74
3
 0
VERTEX
 8
MESH_424_F0
 10
0
 20
0
 30
0
 70
128
 71
6
 72
5
 73
3
 74
3
 0
VERTEX
 8
MESH_424_F0
 10
0
 20
0
 30
0
 70
128
 71
5
 72
4
 73
3
 74
3
 0
SEQEND
 0
POLYLINE
 8
MESH_423_F0
 66
1
 10
0.0
 20
0.0
 30
0.0
 70
64
 71
26
 72
30
 0
VERTEX
 8
MESH_423_F0
 10
136.5624
 20
261
 30
-87.4099
 70
192
 0
VERTEX
 8
MESH_423_F0
 10
136.5624
 20
260.9672
 30
-87.2861
 70
192
 0
VERTEX
 8
MESH_423_F0
 10
136.5624
 20
260.8775
 30
-87.1948
 70
192
 0
VERTEX
 8
MESH_423_F0
 10
136.5623
 20
260.7544
 30
-87.1599
 70
192
 0
VERTEX
 8
MESH_423_F0
 10
136.2812
 20
260.7561
 30
-87.2002
 70
192
 0
VERTEX
 8
MESH_423_F0
 10
136.0228
 20
260.7573
 30
-87.318
 70
192
 0
VERTEX
 8
MESH_423_F0
 10
135.808
 20
260.758
 30
-87.5036
 70
192
 0
VERTEX
 8
MESH_423_F0
 10
135.6539
 20
260.758
 30
-87.7422
 70
192
 0
VERTEX
 8
MESH_423_F0
 10
135.5731
 20
260.7573
 30
-88.0146
 70
192
 0
VERTEX
 8
MESH_423_F0
 10
135.5723
 20
260.7561
 30
-88.299
 70
192
 0
VERTEX
 8
MESH_423_F0
 10
135.6516
 20
260.7544
 30
-88.5722
 70
192
 0
VERTEX
 8
MESH_423_F0
 10
135.6834
 20
260.8775
 30
-88.5579
 70
192
 0
VERTEX
 8
MESH_423_F0
 10
135.7666
 20
260.9672
 30
-88.5202
 70
192
 0
VERTEX
 8
MESH_423_F0
 10
135.8793
 20
261
 30
-88.4692
 70
192
 0
VERTEX
 8
MESH_423_F0
 10
135.8339
 20
261
 30
-87.9814
 70
192
 0
VERTEX
 8
MESH_423_F0
 10
136.0994
 20
261
 30
-87.5698
 70
192
 0
VERTEX
 8
MESH_423_F0
 10
136.1634
 20
260.875
 30
-87.2795
 70
192
 0
VERTEX
 8
MESH_423_F0
 10
136.2011
 20
260.9665
 30
-87.3629
 70
192
 0
VERTEX
 8
MESH_423_F0
 10
136.1896
 20
260.9915
 30
-87.4356
 70
192
 0
VERTEX
 8
MESH_423_F0
 10
135.7767
 20
260.875
 30
-87.5969
 70
192
 0
VERTEX
 8
MESH_423_F0
 10
135.8511
 20
260.9665
 30
-87.6502
 70
192
 0
VERTEX
 8
MESH_423_F0
 10
135.8797
 20
260.9908
 30
-87.7104
 70
192
 0
VERTEX
 8
MESH_423_F0
 10
135.6006
 20
260.875
 30
-88.065
 70
192
 0
VERTEX
 8
MESH_423_F0
 10
135.6917
 20
260.9665
 30
-88.074
 70
192
 0
VERTEX
 8
MESH_423_F0
 10
135.816
 20
261
 30
-88.0862
 70
192
 0
VERTEX
 8
MESH_423_F0
 10
135.7654
 20
260.9665
 30
-88.5207
 70
192
 0
VERTEX
 8
MESH_423_F0
 10
0
 20
0
 30
0
 70
128
 71
19
 72
1
 73
16
 74
16
 0
VERTEX
 8
MESH_423_F0
 10
0
 20
0
 30
0
 70
128
 71
21
 72
18
 73
19
 74
22
 0
VERTEX
 8
MESH_423_F0
 10
0
 20
0
 30
0
 70
128
 71
22
 72
25
 73
24
 74
21
 0
VERTEX
 8
MESH_423_F0
 10
0
 20
0
 30
0
 70
128
 71
17
 72
18
 73
21
 74
20
 0
VERTEX
 8
MESH_423_F0
 10
0
 20
0
 30
0
 70
128
 71
20
 72
6
 73
17
 74
17
 0
VERTEX
 8
MESH_423_F0
 10
0
 20
0
 30
0
 70
128
 71
6
 72
5
 73
17
 74
17
 0
VERTEX
 8
MESH_423_F0
 10
0
 20
0
 30
0
 70
128
 71
5
 72
3
 73
17
 74
17
 0
VERTEX
 8
MESH_423_F0
 10
0
 20
0
 30
0
 70
128
 71
3
 72
18
 73
17
 74
17
 0
VERTEX
 8
MESH_423_F0
 10
0
 20
0
 30
0
 70
128
 71
2
 72
18
 73
3
 74
3
 0
VERTEX
 8
MESH_423_F0
 10
0
 20
0
 30
0
 70
128
 71
19
 72
18
 73
2
 74
2
 0
VERTEX
 8
MESH_423_F0
 10
0
 20
0
 30
0
 70
128
 71
19
 72
2
 73
1
 74
1
 0
VERTEX
 8
MESH_423_F0
 10
0
 20
0
 30
0
 70
128
 71
5
 72
4
 73
3
 74
3
 0
VERTEX
 8
MESH_423_F0
 10
0
 20
0
 30
0
 70
128
 71
20
 72
7
 73
6
 74
6
 0
VERTEX
 8
MESH_423_F0
 10
0
 20
0
 30
0
 70
128
 71
8
 72
7
 73
20
 74
20
 0
VERTEX
 8
MESH_423_F0
 10
0
 20
0
 30
0
 70
128
 71
9
 72
8
 73
23
 74
23
 0
VERTEX
 8
MESH_423_F0
 10
0
 20
0
 30
0
 70
128
 71
9
 72
23
 73
10
 74
10
 0
VERTEX
 8
MESH_423_F0
 10
0
 20
0
 30
0
 70
128
 71
23
 72
12
 73
10
 74
10
 0
VERTEX
 8
MESH_423_F0
 10
0
 20
0
 30
0
 70
128
 71
12
 72
11
 73
10
 74
10
 0
VERTEX
 8
MESH_423_F0
 10
0
 20
0
 30
0
 70
128
 71
13
 72
24
 73
25
 74
25
 0
VERTEX
 8
MESH_423_F0
 10
0
 20
0
 30
0
 70
128
 71
13
 72
25
 73
14
 74
14
 0
VERTEX
 8
MESH_423_F0
 10
0
 20
0
 30
0
 70
128
 71
25
 72
15
 73
14
 74
14
 0
VERTEX
 8
MESH_423_F0
 10
0
 20
0
 30
0
 70
128
 71
22
 72
15
 73
25
 74
25
 0
VERTEX
 8
MESH_423_F0
 10
0
 20
0
 30
0
 70
128
 71
16
 72
15
 73
22
 74
22
 0
VERTEX
 8
MESH_423_F0
 10
0
 20
0
 30
0
 70
128
 71
16
 72
22
 73
19
 74
19
 0
VERTEX
 8
MESH_423_F0
 10
0
 20
0
 30
0
 70
128
 71
24
 72
23
 73
20
 74
21
 0
VERTEX
 8
MESH_423_F0
 10
0
 20
0
 30
0
 70
128
 71
23
 72
8
 73
20
 74
20
 0
VERTEX
 8
MESH_423_F0
 10
0
 20
0
 30
0
 70
128
 71
24
 72
12
 73
23
 74
23
 0
VERTEX
 8
MESH_423_F0
 10
0
 20
0
 30
0
 70
128
 71
26
 72
12
 73
24
 74
24
 0
VERTEX
 8
MESH_423_F0
 10
0
 20
0
 30
0
 70
128
 71
12
 72
26
 73
13
 74
13
 0
VERTEX
 8
MESH_423_F0
 10
0
 20
0
 30
0
 70
128
 71
26
 72
24
 73
13
 74
13
 0
SEQEND
 0
POLYLINE
 8
MESH_422_F0
 66
1
 10
0.0
 20
0.0
 30
0.0
 70
64
 71
17
 72
19
 0
VERTEX
 8
MESH_422_F0
 10
135.8793
 20
261
 30
-88.4692
 70
192
 0
VERTEX
 8
MESH_422_F0
 10
135.7666
 20
260.9672
 30
-88.5202
 70
192
 0
VERTEX
 8
MESH_422_F0
 10
135.6834
 20
260.8775
 30
-88.5579
 70
192
 0
VERTEX
 8
MESH_422_F0
 10
135.6516
 20
260.7544
 30
-88.5722
 70
192
 0
VERTEX
 8
MESH_422_F0
 10
135.9252
 20
260.7544
 30
-89.511
 70
192
 0
VERTEX
 8
MESH_422_F0
 10
135.9252
 20
260.7544
 30
-90.489
 70
192
 0
VERTEX
 8
MESH_422_F0
 10
135.6515
 20
260.7544
 30
-91.4278
 70
192
 0
VERTEX
 8
MESH_422_F0
 10
135.6834
 20
260.8775
 30
-91.4421
 70
192
 0
VERTEX
 8
MESH_422_F0
 10
135.7666
 20
260.9672
 30
-91.4798
 70
192
 0
VERTEX
 8
MESH_422_F0
 10
135.8793
 20
261
 30
-91.5308
 70
192
 0
VERTEX
 8
MESH_422_F0
 10
136.1726
 20
261
 30
-90.5242
 70
192
 0
VERTEX
 8
MESH_422_F0
 10
136.1726
 20
261
 30
-89.4758
 70
192
 0
VERTEX
 8
MESH_422_F0
 10
135.8377
 20
260.875
 30
-88.9688
 70
192
 0
VERTEX
 8
MESH_422_F0
 10
135.9251
 20
260.9665
 30
-88.9418
 70
192
 0
VERTEX
 8
MESH_422_F0
 10
135.9346
 20
260.875
 30
-90.6381
 70
192
 0
VERTEX
 8
MESH_422_F0
 10
136.0246
 20
260.9665
 30
-90.6548
 70
192
 0
VERTEX
 8
MESH_422_F0
 10
135.9912
 20
260.992
 30
-91.0551
 70
192
 0
VERTEX
 8
MESH_422_F0
 10
0
 20
0
 30
0
 70
128
 71
14
 72
1
 73
12
 74
12
 0
VERTEX
 8
MESH_422_F0
 10
0
 20
0
 30
0
 70
128
 71
15
 72
13
 73
14
 74
16
 0
VERTEX
 8
MESH_422_F0
 10
0
 20
0
 30
0
 70
128
 71
16
 72
9
 73
15
 74
15
 0
VERTEX
 8
MESH_422_F0
 10
0
 20
0
 30
0
 70
128
 71
9
 72
8
 73
15
 74
15
 0
VERTEX
 8
MESH_422_F0
 10
0
 20
0
 30
0
 70
128
 71
8
 72
7
 73
15
 74
15
 0
VERTEX
 8
MESH_422_F0
 10
0
 20
0
 30
0
 70
128
 71
7
 72
6
 73
15
 74
15
 0
VERTEX
 8
MESH_422_F0
 10
0
 20
0
 30
0
 70
128
 71
6
 72
5
 73
15
 74
15
 0
VERTEX
 8
MESH_422_F0
 10
0
 20
0
 30
0
 70
128
 71
5
 72
13
 73
15
 74
15
 0
VERTEX
 8
MESH_422_F0
 10
0
 20
0
 30
0
 70
128
 71
4
 72
13
 73
5
 74
5
 0
VERTEX
 8
MESH_422_F0
 10
0
 20
0
 30
0
 70
128
 71
3
 72
13
 73
4
 74
4
 0
VERTEX
 8
MESH_422_F0
 10
0
 20
0
 30
0
 70
128
 71
14
 72
13
 73
3
 74
3
 0
VERTEX
 8
MESH_422_F0
 10
0
 20
0
 30
0
 70
128
 71
1
 72
14
 73
2
 74
2
 0
VERTEX
 8
MESH_422_F0
 10
0
 20
0
 30
0
 70
128
 71
14
 72
3
 73
2
 74
2
 0
VERTEX
 8
MESH_422_F0
 10
0
 20
0
 30
0
 70
128
 71
17
 72
9
 73
16
 74
16
 0
VERTEX
 8
MESH_422_F0
 10
0
 20
0
 30
0
 70
128
 71
10
 72
17
 73
11
 74
11
 0
VERTEX
 8
MESH_422_F0
 10
0
 20
0
 30
0
 70
128
 71
17
 72
16
 73
11
 74
11
 0
VERTEX
 8
MESH_422_F0
 10
0
 20
0
 30
0
 70
128
 71
16
 72
12
 73
11
 74
11
 0
VERTEX
 8
MESH_422_F0
 10
0
 20
0
 30
0
 70
128
 71
14
 72
12
 73
16
 74
16
 0
VERTEX
 8
MESH_422_F0
 10
0
 20
0
 30
0
 70
128
 71
10
 72
9
 73
17
 74
17
 0
SEQEND
 0
POLYLINE
 8
MESH_421_F0
 66
1
 10
0.0
 20
0.0
 30
0.0
 70
64
 71
8
 72
6
 0
VERTEX
 8
MESH_421_F0
 10
136.5624
 20
261
 30
-92.5901
 70
192
 0
VERTEX
 8
MESH_421_F0
 10
136.5624
 20
260.9672
 30
-92.7139
 70
192
 0
VERTEX
 8
MESH_421_F0
 10
136.5624
 20
260.8775
 30
-92.8052
 70
192
 0
VERTEX
 8
MESH_421_F0
 10
136.5623
 20
260.7544
 30
-92.8401
 70
192
 0
VERTEX
 8
MESH_421_F0
 10
160.4377
 20
260.7544
 30
-92.8401
 70
192
 0
VERTEX
 8
MESH_421_F0
 10
160.4376
 20
260.8775
 30
-92.8052
 70
192
 0
VERTEX
 8
MESH_421_F0
 10
160.4376
 20
260.9672
 30
-92.7139
 70
192
 0
VERTEX
 8
MESH_421_F0
 10
160.4376
 20
261
 30
-92.5901
 70
192
 0
VERTEX
 8
MESH_421_F0
 10
0
 20
0
 30
0
 70
128
 71
8
 72
2
 73
1
 74
1
 0
VERTEX
 8
MESH_421_F0
 10
0
 20
0
 30
0
 70
128
 71
7
 72
2
 73
8
 74
8
 0
VERTEX
 8
MESH_421_F0
 10
0
 20
0
 30
0
 70
128
 71
3
 72
2
 73
7
 74
7
 0
VERTEX
 8
MESH_421_F0
 10
0
 20
0
 30
0
 70
128
 71
4
 72
3
 73
6
 74
6
 0
VERTEX
 8
MESH_421_F0
 10
0
 20
0
 30
0
 70
128
 71
4
 72
6
 73
5
 74
5
 0
VERTEX
 8
MESH_421_F0
 10
0
 20
0
 30
0
 70
128
 71
3
 72
7
 73
6
 74
6
 0
SEQEND
 0
POLYLINE
 8
MESH_420_F0
 66
1
 10
0.0
 20
0.0
 30
0.0
 70
64
 71
27
 72
31
 0
VERTEX
 8
MESH_420_F0
 10
135.8793
 20
261
 30
-91.5308
 70
192
 0
VERTEX
 8
MESH_420_F0
 10
135.7666
 20
260.9672
 30
-91.4798
 70
192
 0
VERTEX
 8
MESH_420_F0
 10
135.6834
 20
260.8775
 30
-91.4421
 70
192
 0
VERTEX
 8
MESH_420_F0
 10
135.6515
 20
260.7544
 30
-91.4278
 70
192
 0
VERTEX
 8
MESH_420_F0
 10
135.5723
 20
260.7561
 30
-91.7005
 70
192
 0
VERTEX
 8
MESH_420_F0
 10
135.573
 20
260.7573
 30
-91.9847
 70
192
 0
VERTEX
 8
MESH_420_F0
 10
135.6537
 20
260.758
 30
-92.2573
 70
192
 0
VERTEX
 8
MESH_420_F0
 10
135.8078
 20
260.758
 30
-92.4962
 70
192
 0
VERTEX
 8
MESH_420_F0
 10
136.0228
 20
260.7573
 30
-92.682
 70
192
 0
VERTEX
 8
MESH_420_F0
 10
136.2813
 20
260.7561
 30
-92.7998
 70
192
 0
VERTEX
 8
MESH_420_F0
 10
136.5623
 20
260.7544
 30
-92.8401
 70
192
 0
VERTEX
 8
MESH_420_F0
 10
136.5624
 20
260.8775
 30
-92.8052
 70
192
 0
VERTEX
 8
MESH_420_F0
 10
136.5624
 20
260.9672
 30
-92.7139
 70
192
 0
VERTEX
 8
MESH_420_F0
 10
136.5624
 20
261
 30
-92.5901
 70
192
 0
VERTEX
 8
MESH_420_F0
 10
136.0994
 20
261
 30
-92.4302
 70
192
 0
VERTEX
 8
MESH_420_F0
 10
135.8339
 20
261
 30
-92.0185
 70
192
 0
VERTEX
 8
MESH_420_F0
 10
136.1874
 20
261
 30
-92.4897
 70
192
 0
VERTEX
 8
MESH_420_F0
 10
135.5959
 20
260.875
 30
-91.8405
 70
192
 0
VERTEX
 8
MESH_420_F0
 10
135.6874
 20
260.9665
 30
-91.8405
 70
192
 0
VERTEX
 8
MESH_420_F0
 10
135.7489
 20
260.9915
 30
-91.881
 70
192
 0
VERTEX
 8
MESH_420_F0
 10
135.7255
 20
260.875
 30
-92.3236
 70
192
 0
VERTEX
 8
MESH_420_F0
 10
135.8047
 20
260.9665
 30
-92.2778
 70
192
 0
VERTEX
 8
MESH_420_F0
 10
135.8714
 20
260.9908
 30
-92.2767
 70
192
 0
VERTEX
 8
MESH_420_F0
 10
136.0792
 20
260.875
 30
-92.6772
 70
192
 0
VERTEX
 8
MESH_420_F0
 10
136.125
 20
260.9665
 30
-92.598
 70
192
 0
VERTEX
 8
MESH_420_F0
 10
136.5624
 20
260.9665
 30
-92.7151
 70
192
 0
VERTEX
 8
MESH_420_F0
 10
136.5623
 20
261
 30
-92.5901
 70
192
 0
VERTEX
 8
MESH_420_F0
 10
0
 20
0
 30
0
 70
128
 71
20
 72
1
 73
16
 74
16
 0
VERTEX
 8
MESH_420_F0
 10
0
 20
0
 30
0
 70
128
 71
22
 72
19
 73
20
 74
23
 0
VERTEX
 8
MESH_420_F0
 10
0
 20
0
 30
0
 70
128
 71
23
 72
17
 73
25
 74
22
 0
VERTEX
 8
MESH_420_F0
 10
0
 20
0
 30
0
 70
128
 71
18
 72
19
 73
22
 74
21
 0
VERTEX
 8
MESH_420_F0
 10
0
 20
0
 30
0
 70
128
 71
21
 72
6
 73
18
 74
18
 0
VERTEX
 8
MESH_420_F0
 10
0
 20
0
 30
0
 70
128
 71
6
 72
5
 73
18
 74
18
 0
VERTEX
 8
MESH_420_F0
 10
0
 20
0
 30
0
 70
128
 71
5
 72
3
 73
18
 74
18
 0
VERTEX
 8
MESH_420_F0
 10
0
 20
0
 30
0
 70
128
 71
3
 72
19
 73
18
 74
18
 0
VERTEX
 8
MESH_420_F0
 10
0
 20
0
 30
0
 70
128
 71
2
 72
19
 73
3
 74
3
 0
VERTEX
 8
MESH_420_F0
 10
0
 20
0
 30
0
 70
128
 71
20
 72
19
 73
2
 74
2
 0
VERTEX
 8
MESH_420_F0
 10
0
 20
0
 30
0
 70
128
 71
20
 72
2
 73
1
 74
1
 0
VERTEX
 8
MESH_420_F0
 10
0
 20
0
 30
0
 70
128
 71
5
 72
4
 73
3
 74
3
 0
VERTEX
 8
MESH_420_F0
 10
0
 20
0
 30
0
 70
128
 71
21
 72
7
 73
6
 74
6
 0
VERTEX
 8
MESH_420_F0
 10
0
 20
0
 30
0
 70
128
 71
8
 72
7
 73
21
 74
21
 0
VERTEX
 8
MESH_420_F0
 10
0
 20
0
 30
0
 70
128
 71
9
 72
8
 73
24
 74
24
 0
VERTEX
 8
MESH_420_F0
 10
0
 20
0
 30
0
 70
128
 71
9
 72
24
 73
10
 74
10
 0
VERTEX
 8
MESH_420_F0
 10
0
 20
0
 30
0
 70
128
 71
24
 72
12
 73
10
 74
10
 0
VERTEX
 8
MESH_420_F0
 10
0
 20
0
 30
0
 70
128
 71
12
 72
11
 73
10
 74
10
 0
VERTEX
 8
MESH_420_F0
 10
0
 20
0
 30
0
 70
128
 71
15
 72
23
 73
16
 74
16
 0
VERTEX
 8
MESH_420_F0
 10
0
 20
0
 30
0
 70
128
 71
23
 72
20
 73
16
 74
16
 0
VERTEX
 8
MESH_420_F0
 10
0
 20
0
 30
0
 70
128
 71
14
 72
17
 73
15
 74
15
 0
VERTEX
 8
MESH_420_F0
 10
0
 20
0
 30
0
 70
128
 71
17
 72
23
 73
15
 74
15
 0
VERTEX
 8
MESH_420_F0
 10
0
 20
0
 30
0
 70
128
 71
25
 72
24
 73
21
 74
22
 0
VERTEX
 8
MESH_420_F0
 10
0
 20
0
 30
0
 70
128
 71
24
 72
8
 73
21
 74
21
 0
VERTEX
 8
MESH_420_F0
 10
0
 20
0
 30
0
 70
128
 71
25
 72
12
 73
24
 74
24
 0
VERTEX
 8
MESH_420_F0
 10
0
 20
0
 30
0
 70
128
 71
26
 72
12
 73
25
 74
25
 0
VERTEX
 8
MESH_420_F0
 10
0
 20
0
 30
0
 70
128
 71
13
 72
26
 73
27
 74
27
 0
VERTEX
 8
MESH_420_F0
 10
0
 20
0
 30
0
 70
128
 71
13
 72
27
 73
14
 74
14
 0
VERTEX
 8
MESH_420_F0
 10
0
 20
0
 30
0
 70
128
 71
27
 72
17
 73
14
 74
14
 0
VERTEX
 8
MESH_420_F0
 10
0
 20
0
 30
0
 70
128
 71
26
 72
25
 73
17
 74
27
 0
VERTEX
 8
MESH_420_F0
 10
0
 20
0
 30
0
 70
128
 71
13
 72
12
 73
26
 74
26
 0
SEQEND
 0
POLYLINE
 8
MESH_419_F0
 66
1
 10
0.0
 20
0.0
 30
0.0
 70
64
 71
20
 72
18
 0
VERTEX
 8
MESH_419_F0
 10
136.5624
 20
261
 30
-92.5901
 70
192
 0
VERTEX
 8
MESH_419_F0
 10
160.4376
 20
261
 30
-92.5901
 70
192
 0
VERTEX
 8
MESH_419_F0
 10
160.9006
 20
261
 30
-92.4302
 70
192
 0
VERTEX
 8
MESH_419_F0
 10
161.1661
 20
261
 30
-92.0185
 70
192
 0
VERTEX
 8
MESH_419_F0
 10
161.1207
 20
261
 30
-91.5308
 70
192
 0
VERTEX
 8
MESH_419_F0
 10
160.8273
 20
261
 30
-90.5242
 70
192
 0
VERTEX
 8
MESH_419_F0
 10
160.8273
 20
261
 30
-89.4758
 70
192
 0
VERTEX
 8
MESH_419_F0
 10
161.1207
 20
261
 30
-88.4692
 70
192
 0
VERTEX
 8
MESH_419_F0
 10
161.1661
 20
261
 30
-87.9814
 70
192
 0
VERTEX
 8
MESH_419_F0
 10
160.9006
 20
261
 30
-87.5698
 70
192
 0
VERTEX
 8
MESH_419_F0
 10
160.4376
 20
261
 30
-87.4099
 70
192
 0
VERTEX
 8
MESH_419_F0
 10
136.5624
 20
261
 30
-87.4099
 70
192
 0
VERTEX
 8
MESH_419_F0
 10
136.0994
 20
261
 30
-87.5698
 70
192
 0
VERTEX
 8
MESH_419_F0
 10
135.8339
 20
261
 30
-87.9814
 70
192
 0
VERTEX
 8
MESH_419_F0
 10
135.8793
 20
261
 30
-88.4692
 70
192
 0
VERTEX
 8
MESH_419_F0
 10
136.1726
 20
261
 30
-89.4758
 70
192
 0
VERTEX
 8
MESH_419_F0
 10
136.1726
 20
261
 30
-90.5242
 70
192
 0
VERTEX
 8
MESH_419_F0
 10
135.8793
 20
261
 30
-91.5308
 70
192
 0
VERTEX
 8
MESH_419_F0
 10
135.8339
 20
261
 30
-92.0185
 70
192
 0
VERTEX
 8
MESH_419_F0
 10
136.0994
 20
261
 30
-92.4302
 70
192
 0
VERTEX
 8
MESH_419_F0
 10
0
 20
0
 30
0
 70
128
 71
20
 72
2
 73
1
 74
1
 0
VERTEX
 8
MESH_419_F0
 10
0
 20
0
 30
0
 70
128
 71
3
 72
2
 73
20
 74
20
 0
VERTEX
 8
MESH_419_F0
 10
0
 20
0
 30
0
 70
128
 71
4
 72
3
 73
19
 74
19
 0
VERTEX
 8
MESH_419_F0
 10
0
 20
0
 30
0
 70
128
 71
5
 72
4
 73
18
 74
18
 0
VERTEX
 8
MESH_419_F0
 10
0
 20
0
 30
0
 70
128
 71
6
 72
5
 73
17
 74
17
 0
VERTEX
 8
MESH_419_F0
 10
0
 20
0
 30
0
 70
128
 71
7
 72
6
 73
16
 74
16
 0
VERTEX
 8
MESH_419_F0
 10
0
 20
0
 30
0
 70
128
 71
8
 72
7
 73
15
 74
15
 0
VERTEX
 8
MESH_419_F0
 10
0
 20
0
 30
0
 70
128
 71
9
 72
8
 73
14
 74
14
 0
VERTEX
 8
MESH_419_F0
 10
0
 20
0
 30
0
 70
128
 71
10
 72
9
 73
13
 74
13
 0
VERTEX
 8
MESH_419_F0
 10
0
 20
0
 30
0
 70
128
 71
11
 72
10
 73
12
 74
12
 0
VERTEX
 8
MESH_419_F0
 10
0
 20
0
 30
0
 70
128
 71
10
 72
13
 73
12
 74
12
 0
VERTEX
 8
MESH_419_F0
 10
0
 20
0
 30
0
 70
128
 71
9
 72
14
 73
13
 74
13
 0
VERTEX
 8
MESH_419_F0
 10
0
 20
0
 30
0
 70
128
 71
8
 72
15
 73
14
 74
14
 0
VERTEX
 8
MESH_419_F0
 10
0
 20
0
 30
0
 70
128
 71
7
 72
16
 73
15
 74
15
 0
VERTEX
 8
MESH_419_F0
 10
0
 20
0
 30
0
 70
128
 71
6
 72
17
 73
16
 74
16
 0
VERTEX
 8
MESH_419_F0
 10
0
 20
0
 30
0
 70
128
 71
5
 72
18
 73
17
 74
17
 0
VERTEX
 8
MESH_419_F0
 10
0
 20
0
 30
0
 70
128
 71
4
 72
19
 73
18
 74
18
 0
VERTEX
 8
MESH_419_F0
 10
0
 20
0
 30
0
 70
128
 71
3
 72
20
 73
19
 74
19
 0
SEQEND
 0
POLYLINE
 8
MESH_418_F0
 66
1
 10
0.0
 20
0.0
 30
0.0
 70
64
 71
26
 72
30
 0
VERTEX
 8
MESH_418_F0
 10
160.4376
 20
261
 30
-92.5901
 70
192
 0
VERTEX
 8
MESH_418_F0
 10
160.4376
 20
260.9672
 30
-92.7139
 70
192
 0
VERTEX
 8
MESH_418_F0
 10
160.4376
 20
260.8775
 30
-92.8052
 70
192
 0
VERTEX
 8
MESH_418_F0
 10
160.4377
 20
260.7544
 30
-92.8401
 70
192
 0
VERTEX
 8
MESH_418_F0
 10
160.7188
 20
260.7561
 30
-92.7997
 70
192
 0
VERTEX
 8
MESH_418_F0
 10
160.9772
 20
260.7573
 30
-92.682
 70
192
 0
VERTEX
 8
MESH_418_F0
 10
161.192
 20
260.758
 30
-92.4964
 70
192
 0
VERTEX
 8
MESH_418_F0
 10
161.3461
 20
260.758
 30
-92.2578
 70
192
 0
VERTEX
 8
MESH_418_F0
 10
161.4269
 20
260.7573
 30
-91.9854
 70
192
 0
VERTEX
 8
MESH_418_F0
 10
161.4277
 20
260.7561
 30
-91.701
 70
192
 0
VERTEX
 8
MESH_418_F0
 10
161.3484
 20
260.7544
 30
-91.4278
 70
192
 0
VERTEX
 8
MESH_418_F0
 10
161.3166
 20
260.8775
 30
-91.4421
 70
192
 0
VERTEX
 8
MESH_418_F0
 10
161.2334
 20
260.9672
 30
-91.4798
 70
192
 0
VERTEX
 8
MESH_418_F0
 10
161.1207
 20
261
 30
-91.5308
 70
192
 0
VERTEX
 8
MESH_418_F0
 10
161.1661
 20
261
 30
-92.0185
 70
192
 0
VERTEX
 8
MESH_418_F0
 10
160.9006
 20
261
 30
-92.4302
 70
192
 0
VERTEX
 8
MESH_418_F0
 10
160.8366
 20
260.875
 30
-92.7205
 70
192
 0
VERTEX
 8
MESH_418_F0
 10
160.7989
 20
260.9665
 30
-92.6371
 70
192
 0
VERTEX
 8
MESH_418_F0
 10
160.8104
 20
260.9915
 30
-92.5644
 70
192
 0
VERTEX
 8
MESH_418_F0
 10
161.2233
 20
260.875
 30
-92.4031
 70
192
 0
VERTEX
 8
MESH_418_F0
 10
161.1489
 20
260.9665
 30
-92.3498
 70
192
 0
VERTEX
 8
MESH_418_F0
 10
161.1203
 20
260.9908
 30
-92.2895
 70
192
 0
VERTEX
 8
MESH_418_F0
 10
161.3994
 20
260.875
 30
-91.935
 70
192
 0
VERTEX
 8
MESH_418_F0
 10
161.3083
 20
260.9665
 30
-91.926
 70
192
 0
VERTEX
 8
MESH_418_F0
 10
161.1839
 20
261
 30
-91.9138
 70
192
 0
VERTEX
 8
MESH_418_F0
 10
161.2345
 20
260.9665
 30
-91.4792
 70
192
 0
VERTEX
 8
MESH_418_F0
 10
0
 20
0
 30
0
 70
128
 71
19
 72
1
 73
16
 74
16
 0
VERTEX
 8
MESH_418_F0
 10
0
 20
0
 30
0
 70
128
 71
21
 72
18
 73
19
 74
22
 0
VERTEX
 8
MESH_418_F0
 10
0
 20
0
 30
0
 70
128
 71
22
 72
25
 73
24
 74
21
 0
VERTEX
 8
MESH_418_F0
 10
0
 20
0
 30
0
 70
128
 71
17
 72
18
 73
21
 74
20
 0
VERTEX
 8
MESH_418_F0
 10
0
 20
0
 30
0
 70
128
 71
20
 72
6
 73
17
 74
17
 0
VERTEX
 8
MESH_418_F0
 10
0
 20
0
 30
0
 70
128
 71
6
 72
5
 73
17
 74
17
 0
VERTEX
 8
MESH_418_F0
 10
0
 20
0
 30
0
 70
128
 71
5
 72
3
 73
17
 74
17
 0
VERTEX
 8
MESH_418_F0
 10
0
 20
0
 30
0
 70
128
 71
3
 72
18
 73
17
 74
17
 0
VERTEX
 8
MESH_418_F0
 10
0
 20
0
 30
0
 70
128
 71
2
 72
18
 73
3
 74
3
 0
VERTEX
 8
MESH_418_F0
 10
0
 20
0
 30
0
 70
128
 71
19
 72
18
 73
2
 74
2
 0
VERTEX
 8
MESH_418_F0
 10
0
 20
0
 30
0
 70
128
 71
19
 72
2
 73
1
 74
1
 0
VERTEX
 8
MESH_418_F0
 10
0
 20
0
 30
0
 70
128
 71
5
 72
4
 73
3
 74
3
 0
VERTEX
 8
MESH_418_F0
 10
0
 20
0
 30
0
 70
128
 71
20
 72
7
 73
6
 74
6
 0
VERTEX
 8
MESH_418_F0
 10
0
 20
0
 30
0
 70
128
 71
8
 72
7
 73
20
 74
20
 0
VERTEX
 8
MESH_418_F0
 10
0
 20
0
 30
0
 70
128
 71
9
 72
8
 73
23
 74
23
 0
VERTEX
 8
MESH_418_F0
 10
0
 20
0
 30
0
 70
128
 71
9
 72
23
 73
10
 74
10
 0
VERTEX
 8
MESH_418_F0
 10
0
 20
0
 30
0
 70
128
 71
23
 72
12
 73
10
 74
10
 0
VERTEX
 8
MESH_418_F0
 10
0
 20
0
 30
0
 70
128
 71
12
 72
11
 73
10
 74
10
 0
VERTEX
 8
MESH_418_F0
 10
0
 20
0
 30
0
 70
128
 71
13
 72
24
 73
25
 74
25
 0
VERTEX
 8
MESH_418_F0
 10
0
 20
0
 30
0
 70
128
 71
13
 72
25
 73
14
 74
14
 0
VERTEX
 8
MESH_418_F0
 10
0
 20
0
 30
0
 70
128
 71
25
 72
15
 73
14
 74
14
 0
VERTEX
 8
MESH_418_F0
 10
0
 20
0
 30
0
 70
128
 71
22
 72
15
 73
25
 74
25
 0
VERTEX
 8
MESH_418_F0
 10
0
 20
0
 30
0
 70
128
 71
16
 72
15
 73
22
 74
22
 0
VERTEX
 8
MESH_418_F0
 10
0
 20
0
 30
0
 70
128
 71
16
 72
22
 73
19
 74
19
 0
VERTEX
 8
MESH_418_F0
 10
0
 20
0
 30
0
 70
128
 71
24
 72
23
 73
20
 74
21
 0
VERTEX
 8
MESH_418_F0
 10
0
 20
0
 30
0
 70
128
 71
23
 72
8
 73
20
 74
20
 0
VERTEX
 8
MESH_418_F0
 10
0
 20
0
 30
0
 70
128
 71
24
 72
12
 73
23
 74
23
 0
VERTEX
 8
MESH_418_F0
 10
0
 20
0
 30
0
 70
128
 71
26
 72
12
 73
24
 74
24
 0
VERTEX
 8
MESH_418_F0
 10
0
 20
0
 30
0
 70
128
 71
12
 72
26
 73
13
 74
13
 0
VERTEX
 8
MESH_418_F0
 10
0
 20
0
 30
0
 70
128
 71
26
 72
24
 73
13
 74
13
 0
SEQEND
 0
POLYLINE
 8
MESH_417_F0
 66
1
 10
0.0
 20
0.0
 30
0.0
 70
64
 71
16
 72
14
 0
VERTEX
 8
MESH_417_F0
 10
161.7991
 20
243.2456
 30
-91.6294
 70
192
 0
VERTEX
 8
MESH_417_F0
 10
161.5683
 20
251.9998
 30
-91.5304
 70
192
 0
VERTEX
 8
MESH_417_F0
 10
161.3484
 20
260.7544
 30
-91.4278
 70
192
 0
VERTEX
 8
MESH_417_F0
 10
161.4277
 20
260.7561
 30
-91.701
 70
192
 0
VERTEX
 8
MESH_417_F0
 10
161.4269
 20
260.7573
 30
-91.9854
 70
192
 0
VERTEX
 8
MESH_417_F0
 10
161.3461
 20
260.758
 30
-92.2578
 70
192
 0
VERTEX
 8
MESH_417_F0
 10
161.192
 20
260.758
 30
-92.4964
 70
192
 0
VERTEX
 8
MESH_417_F0
 10
160.9772
 20
260.7573
 30
-92.682
 70
192
 0
VERTEX
 8
MESH_417_F0
 10
160.7188
 20
260.7561
 30
-92.7997
 70
192
 0
VERTEX
 8
MESH_417_F0
 10
160.4377
 20
260.7544
 30
-92.8401
 70
192
 0
VERTEX
 8
MESH_417_F0
 10
160.6013
 20
254.8252
 30
-92.9436
 70
192
 0
VERTEX
 8
MESH_417_F0
 10
160.7698
 20
248.9889
 30
-93.0455
 70
192
 0
VERTEX
 8
MESH_417_F0
 10
160.943
 20
243.2456
 30
-93.1457
 70
192
 0
VERTEX
 8
MESH_417_F0
 10
161.4463
 20
243.2424
 30
-93.0055
 70
192
 0
VERTEX
 8
MESH_417_F0
 10
161.814
 20
243.2411
 30
-92.6376
 70
192
 0
VERTEX
 8
MESH_417_F0
 10
161.9391
 20
243.2424
 30
-92.1328
 70
192
 0
VERTEX
 8
MESH_417_F0
 10
0
 20
0
 30
0
 70
128
 71
16
 72
2
 73
1
 74
1
 0
VERTEX
 8
MESH_417_F0
 10
0
 20
0
 30
0
 70
128
 71
4
 72
2
 73
16
 74
16
 0
VERTEX
 8
MESH_417_F0
 10
0
 20
0
 30
0
 70
128
 71
4
 72
16
 73
5
 74
5
 0
VERTEX
 8
MESH_417_F0
 10
0
 20
0
 30
0
 70
128
 71
16
 72
6
 73
5
 74
5
 0
VERTEX
 8
MESH_417_F0
 10
0
 20
0
 30
0
 70
128
 71
15
 72
6
 73
16
 74
16
 0
VERTEX
 8
MESH_417_F0
 10
0
 20
0
 30
0
 70
128
 71
7
 72
6
 73
15
 74
15
 0
VERTEX
 8
MESH_417_F0
 10
0
 20
0
 30
0
 70
128
 71
7
 72
15
 73
8
 74
8
 0
VERTEX
 8
MESH_417_F0
 10
0
 20
0
 30
0
 70
128
 71
15
 72
14
 73
8
 74
8
 0
VERTEX
 8
MESH_417_F0
 10
0
 20
0
 30
0
 70
128
 71
14
 72
9
 73
8
 74
8
 0
VERTEX
 8
MESH_417_F0
 10
0
 20
0
 30
0
 70
128
 71
11
 72
9
 73
14
 74
14
 0
VERTEX
 8
MESH_417_F0
 10
0
 20
0
 30
0
 70
128
 71
11
 72
14
 73
12
 74
12
 0
VERTEX
 8
MESH_417_F0
 10
0
 20
0
 30
0
 70
128
 71
14
 72
13
 73
12
 74
12
 0
VERTEX
 8
MESH_417_F0
 10
0
 20
0
 30
0
 70
128
 71
4
 72
3
 73
2
 74
2
 0
VERTEX
 8
MESH_417_F0
 10
0
 20
0
 30
0
 70
128
 71
11
 72
10
 73
9
 74
9
 0
SEQEND
 0
POLYLINE
 8
MESH_416_F0
 66
1
 10
0.0
 20
0.0
 30
0.0
 70
64
 71
10
 72
8
 0
VERTEX
 8
MESH_416_F0
 10
161.7991
 20
243.2456
 30
-88.3706
 70
192
 0
VERTEX
 8
MESH_416_F0
 10
161.5684
 20
251.9998
 30
-88.4694
 70
192
 0
VERTEX
 8
MESH_416_F0
 10
161.3485
 20
260.7544
 30
-88.5721
 70
192
 0
VERTEX
 8
MESH_416_F0
 10
161.0748
 20
260.7544
 30
-89.511
 70
192
 0
VERTEX
 8
MESH_416_F0
 10
161.0748
 20
260.7544
 30
-90.4889
 70
192
 0
VERTEX
 8
MESH_416_F0
 10
161.3484
 20
260.7544
 30
-91.4278
 70
192
 0
VERTEX
 8
MESH_416_F0
 10
161.5683
 20
251.9998
 30
-91.5304
 70
192
 0
VERTEX
 8
MESH_416_F0
 10
161.7991
 20
243.2456
 30
-91.6294
 70
192
 0
VERTEX
 8
MESH_416_F0
 10
161.3972
 20
243.2456
 30
-90.5676
 70
192
 0
VERTEX
 8
MESH_416_F0
 10
161.3972
 20
243.2456
 30
-89.4324
 70
192
 0
VERTEX
 8
MESH_416_F0
 10
0
 20
0
 30
0
 70
128
 71
10
 72
2
 73
1
 74
1
 0
VERTEX
 8
MESH_416_F0
 10
0
 20
0
 30
0
 70
128
 71
4
 72
2
 73
10
 74
10
 0
VERTEX
 8
MESH_416_F0
 10
0
 20
0
 30
0
 70
128
 71
4
 72
10
 73
5
 74
5
 0
VERTEX
 8
MESH_416_F0
 10
0
 20
0
 30
0
 70
128
 71
10
 72
9
 73
5
 74
5
 0
VERTEX
 8
MESH_416_F0
 10
0
 20
0
 30
0
 70
128
 71
9
 72
7
 73
5
 74
5
 0
VERTEX
 8
MESH_416_F0
 10
0
 20
0
 30
0
 70
128
 71
7
 72
6
 73
5
 74
5
 0
VERTEX
 8
MESH_416_F0
 10
0
 20
0
 30
0
 70
128
 71
4
 72
3
 73
2
 74
2
 0
VERTEX
 8
MESH_416_F0
 10
0
 20
0
 30
0
 70
128
 71
9
 72
8
 73
7
 74
7
 0
SEQEND
 0
POLYLINE
 8
MESH_415_F0
 66
1
 10
0.0
 20
0.0
 30
0.0
 70
64
 71
16
 72
14
 0
VERTEX
 8
MESH_415_F0
 10
160.943
 20
243.2456
 30
-86.8543
 70
192
 0
VERTEX
 8
MESH_415_F0
 10
160.7698
 20
248.9889
 30
-86.9545
 70
192
 0
VERTEX
 8
MESH_415_F0
 10
160.6013
 20
254.8252
 30
-87.0564
 70
192
 0
VERTEX
 8
MESH_415_F0
 10
160.4377
 20
260.7544
 30
-87.1599
 70
192
 0
VERTEX
 8
MESH_415_F0
 10
160.7187
 20
260.7561
 30
-87.2002
 70
192
 0
VERTEX
 8
MESH_415_F0
 10
160.9772
 20
260.7573
 30
-87.318
 70
192
 0
VERTEX
 8
MESH_415_F0
 10
161.1922
 20
260.758
 30
-87.5038
 70
192
 0
VERTEX
 8
MESH_415_F0
 10
161.3463
 20
260.758
 30
-87.7427
 70
192
 0
VERTEX
 8
MESH_415_F0
 10
161.427
 20
260.7573
 30
-88.0153
 70
192
 0
VERTEX
 8
MESH_415_F0
 10
161.4277
 20
260.7561
 30
-88.2995
 70
192
 0
VERTEX
 8
MESH_415_F0
 10
161.3485
 20
260.7544
 30
-88.5721
 70
192
 0
VERTEX
 8
MESH_415_F0
 10
161.5684
 20
251.9998
 30
-88.4694
 70
192
 0
VERTEX
 8
MESH_415_F0
 10
161.7991
 20
243.2456
 30
-88.3706
 70
192
 0
VERTEX
 8
MESH_415_F0
 10
161.9392
 20
243.2424
 30
-87.8672
 70
192
 0
VERTEX
 8
MESH_415_F0
 10
161.814
 20
243.2411
 30
-87.3624
 70
192
 0
VERTEX
 8
MESH_415_F0
 10
161.4463
 20
243.2424
 30
-86.9945
 70
192
 0
VERTEX
 8
MESH_415_F0
 10
0
 20
0
 30
0
 70
128
 71
16
 72
2
 73
1
 74
1
 0
VERTEX
 8
MESH_415_F0
 10
0
 20
0
 30
0
 70
128
 71
3
 72
2
 73
16
 74
16
 0
VERTEX
 8
MESH_415_F0
 10
0
 20
0
 30
0
 70
128
 71
4
 72
3
 73
5
 74
5
 0
VERTEX
 8
MESH_415_F0
 10
0
 20
0
 30
0
 70
128
 71
3
 72
16
 73
5
 74
5
 0
VERTEX
 8
MESH_415_F0
 10
0
 20
0
 30
0
 70
128
 71
16
 72
6
 73
5
 74
5
 0
VERTEX
 8
MESH_415_F0
 10
0
 20
0
 30
0
 70
128
 71
15
 72
6
 73
16
 74
16
 0
VERTEX
 8
MESH_415_F0
 10
0
 20
0
 30
0
 70
128
 71
7
 72
6
 73
15
 74
15
 0
VERTEX
 8
MESH_415_F0
 10
0
 20
0
 30
0
 70
128
 71
7
 72
15
 73
8
 74
8
 0
VERTEX
 8
MESH_415_F0
 10
0
 20
0
 30
0
 70
128
 71
15
 72
14
 73
8
 74
8
 0
VERTEX
 8
MESH_415_F0
 10
0
 20
0
 30
0
 70
128
 71
14
 72
9
 73
8
 74
8
 0
VERTEX
 8
MESH_415_F0
 10
0
 20
0
 30
0
 70
128
 71
10
 72
9
 73
14
 74
14
 0
VERTEX
 8
MESH_415_F0
 10
0
 20
0
 30
0
 70
128
 71
11
 72
10
 73
12
 74
12
 0
VERTEX
 8
MESH_415_F0
 10
0
 20
0
 30
0
 70
128
 71
10
 72
14
 73
12
 74
12
 0
VERTEX
 8
MESH_415_F0
 10
0
 20
0
 30
0
 70
128
 71
14
 72
13
 73
12
 74
12
 0
SEQEND
 0
POLYLINE
 8
MESH_414_F0
 66
1
 10
0.0
 20
0.0
 30
0.0
 70
64
 71
8
 72
6
 0
VERTEX
 8
MESH_414_F0
 10
136.057
 20
243.2456
 30
-86.8543
 70
192
 0
VERTEX
 8
MESH_414_F0
 10
136.2329
 20
249.0817
 30
-86.9561
 70
192
 0
VERTEX
 8
MESH_414_F0
 10
136.4013
 20
254.9179
 30
-87.058
 70
192
 0
VERTEX
 8
MESH_414_F0
 10
136.5623
 20
260.7544
 30
-87.1599
 70
192
 0
VERTEX
 8
MESH_414_F0
 10
160.4377
 20
260.7544
 30
-87.1599
 70
192
 0
VERTEX
 8
MESH_414_F0
 10
160.6013
 20
254.8252
 30
-87.0564
 70
192
 0
VERTEX
 8
MESH_414_F0
 10
160.7698
 20
248.9889
 30
-86.9545
 70
192
 0
VERTEX
 8
MESH_414_F0
 10
160.943
 20
243.2456
 30
-86.8543
 70
192
 0
VERTEX
 8
MESH_414_F0
 10
0
 20
0
 30
0
 70
128
 71
7
 72
1
 73
8
 74
8
 0
VERTEX
 8
MESH_414_F0
 10
0
 20
0
 30
0
 70
128
 71
2
 72
1
 73
7
 74
7
 0
VERTEX
 8
MESH_414_F0
 10
0
 20
0
 30
0
 70
128
 71
3
 72
2
 73
6
 74
6
 0
VERTEX
 8
MESH_414_F0
 10
0
 20
0
 30
0
 70
128
 71
4
 72
3
 73
5
 74
5
 0
VERTEX
 8
MESH_414_F0
 10
0
 20
0
 30
0
 70
128
 71
3
 72
6
 73
5
 74
5
 0
VERTEX
 8
MESH_414_F0
 10
0
 20
0
 30
0
 70
128
 71
2
 72
7
 73
6
 74
6
 0
SEQEND
 0
POLYLINE
 8
MESH_413_F0
 66
1
 10
0.0
 20
0.0
 30
0.0
 70
64
 71
16
 72
14
 0
VERTEX
 8
MESH_413_F0
 10
135.2009
 20
243.2456
 30
-88.3706
 70
192
 0
VERTEX
 8
MESH_413_F0
 10
135.4317
 20
251.9998
 30
-88.4696
 70
192
 0
VERTEX
 8
MESH_413_F0
 10
135.6516
 20
260.7544
 30
-88.5722
 70
192
 0
VERTEX
 8
MESH_413_F0
 10
135.5723
 20
260.7561
 30
-88.299
 70
192
 0
VERTEX
 8
MESH_413_F0
 10
135.5731
 20
260.7573
 30
-88.0146
 70
192
 0
VERTEX
 8
MESH_413_F0
 10
135.6539
 20
260.758
 30
-87.7422
 70
192
 0
VERTEX
 8
MESH_413_F0
 10
135.808
 20
260.758
 30
-87.5036
 70
192
 0
VERTEX
 8
MESH_413_F0
 10
136.0228
 20
260.7573
 30
-87.318
 70
192
 0
VERTEX
 8
MESH_413_F0
 10
136.2812
 20
260.7561
 30
-87.2002
 70
192
 0
VERTEX
 8
MESH_413_F0
 10
136.5623
 20
260.7544
 30
-87.1599
 70
192
 0
VERTEX
 8
MESH_413_F0
 10
136.4013
 20
254.9179
 30
-87.058
 70
192
 0
VERTEX
 8
MESH_413_F0
 10
136.2329
 20
249.0817
 30
-86.9561
 70
192
 0
VERTEX
 8
MESH_413_F0
 10
136.057
 20
243.2456
 30
-86.8543
 70
192
 0
VERTEX
 8
MESH_413_F0
 10
135.5537
 20
243.2424
 30
-86.9945
 70
192
 0
VERTEX
 8
MESH_413_F0
 10
135.186
 20
243.2411
 30
-87.3624
 70
192
 0
VERTEX
 8
MESH_413_F0
 10
135.0609
 20
243.2424
 30
-87.8672
 70
192
 0
VERTEX
 8
MESH_413_F0
 10
0
 20
0
 30
0
 70
128
 71
16
 72
2
 73
1
 74
1
 0
VERTEX
 8
MESH_413_F0
 10
0
 20
0
 30
0
 70
128
 71
4
 72
2
 73
16
 74
16
 0
VERTEX
 8
MESH_413_F0
 10
0
 20
0
 30
0
 70
128
 71
4
 72
16
 73
5
 74
5
 0
VERTEX
 8
MESH_413_F0
 10
0
 20
0
 30
0
 70
128
 71
16
 72
6
 73
5
 74
5
 0
VERTEX
 8
MESH_413_F0
 10
0
 20
0
 30
0
 70
128
 71
15
 72
6
 73
16
 74
16
 0
VERTEX
 8
MESH_413_F0
 10
0
 20
0
 30
0
 70
128
 71
7
 72
6
 73
15
 74
15
 0
VERTEX
 8
MESH_413_F0
 10
0
 20
0
 30
0
 70
128
 71
7
 72
15
 73
8
 74
8
 0
VERTEX
 8
MESH_413_F0
 10
0
 20
0
 30
0
 70
128
 71
15
 72
14
 73
8
 74
8
 0
VERTEX
 8
MESH_413_F0
 10
0
 20
0
 30
0
 70
128
 71
14
 72
9
 73
8
 74
8
 0
VERTEX
 8
MESH_413_F0
 10
0
 20
0
 30
0
 70
128
 71
11
 72
9
 73
14
 74
14
 0
VERTEX
 8
MESH_413_F0
 10
0
 20
0
 30
0
 70
128
 71
11
 72
14
 73
12
 74
12
 0
VERTEX
 8
MESH_413_F0
 10
0
 20
0
 30
0
 70
128
 71
14
 72
13
 73
12
 74
12
 0
VERTEX
 8
MESH_413_F0
 10
0
 20
0
 30
0
 70
128
 71
4
 72
3
 73
2
 74
2
 0
VERTEX
 8
MESH_413_F0
 10
0
 20
0
 30
0
 70
128
 71
11
 72
10
 73
9
 74
9
 0
SEQEND
 0
POLYLINE
 8
MESH_412_F0
 66
1
 10
0.0
 20
0.0
 30
0.0
 70
64
 71
10
 72
8
 0
VERTEX
 8
MESH_412_F0
 10
135.2009
 20
243.2456
 30
-91.6294
 70
192
 0
VERTEX
 8
MESH_412_F0
 10
135.4316
 20
251.9998
 30
-91.5305
 70
192
 0
VERTEX
 8
MESH_412_F0
 10
135.6515
 20
260.7544
 30
-91.4278
 70
192
 0
VERTEX
 8
MESH_412_F0
 10
135.9252
 20
260.7544
 30
-90.489
 70
192
 0
VERTEX
 8
MESH_412_F0
 10
135.9252
 20
260.7544
 30
-89.511
 70
192
 0
VERTEX
 8
MESH_412_F0
 10
135.6516
 20
260.7544
 30
-88.5722
 70
192
 0
VERTEX
 8
MESH_412_F0
 10
135.4317
 20
251.9998
 30
-88.4696
 70
192
 0
VERTEX
 8
MESH_412_F0
 10
135.2009
 20
243.2456
 30
-88.3706
 70
192
 0
VERTEX
 8
MESH_412_F0
 10
135.6028
 20
243.2456
 30
-89.4324
 70
192
 0
VERTEX
 8
MESH_412_F0
 10
135.6028
 20
243.2456
 30
-90.5676
 70
192
 0
VERTEX
 8
MESH_412_F0
 10
0
 20
0
 30
0
 70
128
 71
10
 72
2
 73
1
 74
1
 0
VERTEX
 8
MESH_412_F0
 10
0
 20
0
 30
0
 70
128
 71
4
 72
2
 73
10
 74
10
 0
VERTEX
 8
MESH_412_F0
 10
0
 20
0
 30
0
 70
128
 71
4
 72
10
 73
5
 74
5
 0
VERTEX
 8
MESH_412_F0
 10
0
 20
0
 30
0
 70
128
 71
10
 72
9
 73
5
 74
5
 0
VERTEX
 8
MESH_412_F0
 10
0
 20
0
 30
0
 70
128
 71
9
 72
7
 73
5
 74
5
 0
VERTEX
 8
MESH_412_F0
 10
0
 20
0
 30
0
 70
128
 71
7
 72
6
 73
5
 74
5
 0
VERTEX
 8
MESH_412_F0
 10
0
 20
0
 30
0
 70
128
 71
4
 72
3
 73
2
 74
2
 0
VERTEX
 8
MESH_412_F0
 10
0
 20
0
 30
0
 70
128
 71
9
 72
8
 73
7
 74
7
 0
SEQEND
 0
POLYLINE
 8
MESH_411_F0
 66
1
 10
0.0
 20
0.0
 30
0.0
 70
64
 71
16
 72
14
 0
VERTEX
 8
MESH_411_F0
 10
136.057
 20
243.2456
 30
-93.1457
 70
192
 0
VERTEX
 8
MESH_411_F0
 10
136.2302
 20
248.9889
 30
-93.0455
 70
192
 0
VERTEX
 8
MESH_411_F0
 10
136.3987
 20
254.8252
 30
-92.9436
 70
192
 0
VERTEX
 8
MESH_411_F0
 10
136.5623
 20
260.7544
 30
-92.8401
 70
192
 0
VERTEX
 8
MESH_411_F0
 10
136.2813
 20
260.7561
 30
-92.7998
 70
192
 0
VERTEX
 8
MESH_411_F0
 10
136.0228
 20
260.7573
 30
-92.682
 70
192
 0
VERTEX
 8
MESH_411_F0
 10
135.8078
 20
260.758
 30
-92.4962
 70
192
 0
VERTEX
 8
MESH_411_F0
 10
135.6537
 20
260.758
 30
-92.2573
 70
192
 0
VERTEX
 8
MESH_411_F0
 10
135.573
 20
260.7573
 30
-91.9847
 70
192
 0
VERTEX
 8
MESH_411_F0
 10
135.5723
 20
260.7561
 30
-91.7005
 70
192
 0
VERTEX
 8
MESH_411_F0
 10
135.6515
 20
260.7544
 30
-91.4278
 70
192
 0
VERTEX
 8
MESH_411_F0
 10
135.4316
 20
251.9998
 30
-91.5305
 70
192
 0
VERTEX
 8
MESH_411_F0
 10
135.2009
 20
243.2456
 30
-91.6294
 70
192
 0
VERTEX
 8
MESH_411_F0
 10
135.0608
 20
243.2424
 30
-92.1328
 70
192
 0
VERTEX
 8
MESH_411_F0
 10
135.186
 20
243.2411
 30
-92.6376
 70
192
 0
VERTEX
 8
MESH_411_F0
 10
135.5537
 20
243.2424
 30
-93.0055
 70
192
 0
VERTEX
 8
MESH_411_F0
 10
0
 20
0
 30
0
 70
128
 71
16
 72
2
 73
1
 74
1
 0
VERTEX
 8
MESH_411_F0
 10
0
 20
0
 30
0
 70
128
 71
3
 72
2
 73
16
 74
16
 0
VERTEX
 8
MESH_411_F0
 10
0
 20
0
 30
0
 70
128
 71
4
 72
3
 73
5
 74
5
 0
VERTEX
 8
MESH_411_F0
 10
0
 20
0
 30
0
 70
128
 71
3
 72
16
 73
5
 74
5
 0
VERTEX
 8
MESH_411_F0
 10
0
 20
0
 30
0
 70
128
 71
16
 72
6
 73
5
 74
5
 0
VERTEX
 8
MESH_411_F0
 10
0
 20
0
 30
0
 70
128
 71
15
 72
6
 73
16
 74
16
 0
VERTEX
 8
MESH_411_F0
 10
0
 20
0
 30
0
 70
128
 71
7
 72
6
 73
15
 74
15
 0
VERTEX
 8
MESH_411_F0
 10
0
 20
0
 30
0
 70
128
 71
7
 72
15
 73
8
 74
8
 0
VERTEX
 8
MESH_411_F0
 10
0
 20
0
 30
0
 70
128
 71
15
 72
14
 73
8
 74
8
 0
VERTEX
 8
MESH_411_F0
 10
0
 20
0
 30
0
 70
128
 71
14
 72
9
 73
8
 74
8
 0
VERTEX
 8
MESH_411_F0
 10
0
 20
0
 30
0
 70
128
 71
10
 72
9
 73
14
 74
14
 0
VERTEX
 8
MESH_411_F0
 10
0
 20
0
 30
0
 70
128
 71
11
 72
10
 73
12
 74
12
 0
VERTEX
 8
MESH_411_F0
 10
0
 20
0
 30
0
 70
128
 71
10
 72
14
 73
12
 74
12
 0
VERTEX
 8
MESH_411_F0
 10
0
 20
0
 30
0
 70
128
 71
14
 72
13
 73
12
 74
12
 0
SEQEND
 0
POLYLINE
 8
MESH_410_F0
 66
1
 10
0.0
 20
0.0
 30
0.0
 70
64
 71
8
 72
6
 0
VERTEX
 8
MESH_410_F0
 10
160.943
 20
243.2456
 30
-93.1457
 70
192
 0
VERTEX
 8
MESH_410_F0
 10
160.7698
 20
248.9889
 30
-93.0455
 70
192
 0
VERTEX
 8
MESH_410_F0
 10
160.6013
 20
254.8252
 30
-92.9436
 70
192
 0
VERTEX
 8
MESH_410_F0
 10
160.4377
 20
260.7544
 30
-92.8401
 70
192
 0
VERTEX
 8
MESH_410_F0
 10
136.5623
 20
260.7544
 30
-92.8401
 70
192
 0
VERTEX
 8
MESH_410_F0
 10
136.3987
 20
254.8252
 30
-92.9436
 70
192
 0
VERTEX
 8
MESH_410_F0
 10
136.2302
 20
248.9889
 30
-93.0455
 70
192
 0
VERTEX
 8
MESH_410_F0
 10
136.057
 20
243.2456
 30
-93.1457
 70
192
 0
VERTEX
 8
MESH_410_F0
 10
0
 20
0
 30
0
 70
128
 71
7
 72
1
 73
8
 74
8
 0
VERTEX
 8
MESH_410_F0
 10
0
 20
0
 30
0
 70
128
 71
2
 72
1
 73
7
 74
7
 0
VERTEX
 8
MESH_410_F0
 10
0
 20
0
 30
0
 70
128
 71
3
 72
2
 73
6
 74
6
 0
VERTEX
 8
MESH_410_F0
 10
0
 20
0
 30
0
 70
128
 71
3
 72
6
 73
4
 74
4
 0
VERTEX
 8
MESH_410_F0
 10
0
 20
0
 30
0
 70
128
 71
6
 72
5
 73
4
 74
4
 0
VERTEX
 8
MESH_410_F0
 10
0
 20
0
 30
0
 70
128
 71
2
 72
7
 73
6
 74
6
 0
SEQEND
 0
POLYLINE
 8
MESH_409_F0
 66
1
 10
0.0
 20
0.0
 30
0.0
 70
64
 71
8
 72
6
 0
VERTEX
 8
MESH_409_F0
 10
160.943
 20
243
 30
-93.3957
 70
192
 0
VERTEX
 8
MESH_409_F0
 10
160.943
 20
243.0328
 30
-93.2719
 70
192
 0
VERTEX
 8
MESH_409_F0
 10
160.943
 20
243.1225
 30
-93.1806
 70
192
 0
VERTEX
 8
MESH_409_F0
 10
160.943
 20
243.2456
 30
-93.1457
 70
192
 0
VERTEX
 8
MESH_409_F0
 10
136.057
 20
243.2456
 30
-93.1457
 70
192
 0
VERTEX
 8
MESH_409_F0
 10
136.057
 20
243.1225
 30
-93.1806
 70
192
 0
VERTEX
 8
MESH_409_F0
 10
136.057
 20
243.0328
 30
-93.2719
 70
192
 0
VERTEX
 8
MESH_409_F0
 10
136.057
 20
243
 30
-93.3956
 70
192
 0
VERTEX
 8
MESH_409_F0
 10
0
 20
0
 30
0
 70
128
 71
8
 72
2
 73
1
 74
1
 0
VERTEX
 8
MESH_409_F0
 10
0
 20
0
 30
0
 70
128
 71
7
 72
2
 73
8
 74
8
 0
VERTEX
 8
MESH_409_F0
 10
0
 20
0
 30
0
 70
128
 71
3
 72
2
 73
7
 74
7
 0
VERTEX
 8
MESH_409_F0
 10
0
 20
0
 30
0
 70
128
 71
4
 72
3
 73
6
 74
6
 0
VERTEX
 8
MESH_409_F0
 10
0
 20
0
 30
0
 70
128
 71
4
 72
6
 73
5
 74
5
 0
VERTEX
 8
MESH_409_F0
 10
0
 20
0
 30
0
 70
128
 71
3
 72
7
 73
6
 74
6
 0
SEQEND
 0
POLYLINE
 8
MESH_408_F0
 66
1
 10
0.0
 20
0.0
 30
0.0
 70
64
 71
26
 72
29
 0
VERTEX
 8
MESH_408_F0
 10
162.0132
 20
243
 30
-91.5003
 70
192
 0
VERTEX
 8
MESH_408_F0
 10
161.9072
 20
243.0328
 30
-91.5642
 70
192
 0
VERTEX
 8
MESH_408_F0
 10
161.829
 20
243.1225
 30
-91.6113
 70
192
 0
VERTEX
 8
MESH_408_F0
 10
161.7991
 20
243.2456
 30
-91.6294
 70
192
 0
VERTEX
 8
MESH_408_F0
 10
161.9391
 20
243.2424
 30
-92.1328
 70
192
 0
VERTEX
 8
MESH_408_F0
 10
161.814
 20
243.2411
 30
-92.6376
 70
192
 0
VERTEX
 8
MESH_408_F0
 10
161.4463
 20
243.2424
 30
-93.0055
 70
192
 0
VERTEX
 8
MESH_408_F0
 10
160.943
 20
243.2456
 30
-93.1457
 70
192
 0
VERTEX
 8
MESH_408_F0
 10
160.943
 20
243.1225
 30
-93.1806
 70
192
 0
VERTEX
 8
MESH_408_F0
 10
160.943
 20
243.0328
 30
-93.2719
 70
192
 0
VERTEX
 8
MESH_408_F0
 10
160.943
 20
243
 30
-93.3957
 70
192
 0
VERTEX
 8
MESH_408_F0
 10
161.315
 20
243
 30
-93.3391
 70
192
 0
VERTEX
 8
MESH_408_F0
 10
161.653
 20
243
 30
-93.1746
 70
192
 0
VERTEX
 8
MESH_408_F0
 10
161.9268
 20
243
 30
-92.917
 70
192
 0
VERTEX
 8
MESH_408_F0
 10
162.1115
 20
243
 30
-92.5897
 70
192
 0
VERTEX
 8
MESH_408_F0
 10
162.1906
 20
243
 30
-92.2223
 70
192
 0
VERTEX
 8
MESH_408_F0
 10
162.1568
 20
243
 30
-91.8479
 70
192
 0
VERTEX
 8
MESH_408_F0
 10
161.9629
 20
243.1518
 30
-92.1313
 70
192
 0
VERTEX
 8
MESH_408_F0
 10
162.02
 20
243.0694
 30
-92.1305
 70
192
 0
VERTEX
 8
MESH_408_F0
 10
162.1048
 20
243.016
 30
-92.1293
 70
192
 0
VERTEX
 8
MESH_408_F0
 10
161.4575
 20
243.1518
 30
-93.0266
 70
192
 0
VERTEX
 8
MESH_408_F0
 10
161.4863
 20
243.0694
 30
-93.0759
 70
192
 0
VERTEX
 8
MESH_408_F0
 10
161.529
 20
243.016
 30
-93.1491
 70
192
 0
VERTEX
 8
MESH_408_F0
 10
161.9559
 20
243.0156
 30
-92.7176
 70
192
 0
VERTEX
 8
MESH_408_F0
 10
161.8818
 20
243.0685
 30
-92.6758
 70
192
 0
VERTEX
 8
MESH_408_F0
 10
161.8318
 20
243.1507
 30
-92.6475
 70
192
 0
VERTEX
 8
MESH_408_F0
 10
0
 20
0
 30
0
 70
128
 71
17
 72
2
 73
1
 74
1
 0
VERTEX
 8
MESH_408_F0
 10
0
 20
0
 30
0
 70
128
 71
20
 72
2
 73
17
 74
17
 0
VERTEX
 8
MESH_408_F0
 10
0
 20
0
 30
0
 70
128
 71
15
 72
20
 73
16
 74
16
 0
VERTEX
 8
MESH_408_F0
 10
0
 20
0
 30
0
 70
128
 71
20
 72
17
 73
16
 74
16
 0
VERTEX
 8
MESH_408_F0
 10
0
 20
0
 30
0
 70
128
 71
19
 72
2
 73
20
 74
20
 0
VERTEX
 8
MESH_408_F0
 10
0
 20
0
 30
0
 70
128
 71
26
 72
18
 73
19
 74
25
 0
VERTEX
 8
MESH_408_F0
 10
0
 20
0
 30
0
 70
128
 71
25
 72
22
 73
21
 74
26
 0
VERTEX
 8
MESH_408_F0
 10
0
 20
0
 30
0
 70
128
 71
18
 72
26
 73
6
 74
6
 0
VERTEX
 8
MESH_408_F0
 10
0
 20
0
 30
0
 70
128
 71
4
 72
18
 73
5
 74
5
 0
VERTEX
 8
MESH_408_F0
 10
0
 20
0
 30
0
 70
128
 71
18
 72
6
 73
5
 74
5
 0
VERTEX
 8
MESH_408_F0
 10
0
 20
0
 30
0
 70
128
 71
3
 72
18
 73
4
 74
4
 0
VERTEX
 8
MESH_408_F0
 10
0
 20
0
 30
0
 70
128
 71
19
 72
18
 73
3
 74
3
 0
VERTEX
 8
MESH_408_F0
 10
0
 20
0
 30
0
 70
128
 71
19
 72
3
 73
2
 74
2
 0
VERTEX
 8
MESH_408_F0
 10
0
 20
0
 30
0
 70
128
 71
21
 72
6
 73
26
 74
26
 0
VERTEX
 8
MESH_408_F0
 10
0
 20
0
 30
0
 70
128
 71
7
 72
6
 73
21
 74
21
 0
VERTEX
 8
MESH_408_F0
 10
0
 20
0
 30
0
 70
128
 71
7
 72
21
 73
8
 74
8
 0
VERTEX
 8
MESH_408_F0
 10
0
 20
0
 30
0
 70
128
 71
21
 72
9
 73
8
 74
8
 0
VERTEX
 8
MESH_408_F0
 10
0
 20
0
 30
0
 70
128
 71
22
 72
9
 73
21
 74
21
 0
VERTEX
 8
MESH_408_F0
 10
0
 20
0
 30
0
 70
128
 71
10
 72
9
 73
22
 74
22
 0
VERTEX
 8
MESH_408_F0
 10
0
 20
0
 30
0
 70
128
 71
11
 72
10
 73
23
 74
23
 0
VERTEX
 8
MESH_408_F0
 10
0
 20
0
 30
0
 70
128
 71
11
 72
23
 73
12
 74
12
 0
VERTEX
 8
MESH_408_F0
 10
0
 20
0
 30
0
 70
128
 71
23
 72
13
 73
12
 74
12
 0
VERTEX
 8
MESH_408_F0
 10
0
 20
0
 30
0
 70
128
 71
14
 72
13
 73
23
 74
23
 0
VERTEX
 8
MESH_408_F0
 10
0
 20
0
 30
0
 70
128
 71
15
 72
14
 73
24
 74
24
 0
VERTEX
 8
MESH_408_F0
 10
0
 20
0
 30
0
 70
128
 71
15
 72
24
 73
20
 74
20
 0
VERTEX
 8
MESH_408_F0
 10
0
 20
0
 30
0
 70
128
 71
24
 72
25
 73
19
 74
20
 0
VERTEX
 8
MESH_408_F0
 10
0
 20
0
 30
0
 70
128
 71
23
 72
22
 73
25
 74
24
 0
VERTEX
 8
MESH_408_F0
 10
0
 20
0
 30
0
 70
128
 71
14
 72
23
 73
24
 74
24
 0
VERTEX
 8
MESH_408_F0
 10
0
 20
0
 30
0
 70
128
 71
10
 72
22
 73
23
 74
23
 0
SEQEND
 0
POLYLINE
 8
MESH_407_F0
 66
1
 10
0.0
 20
0.0
 30
0.0
 70
64
 71
16
 72
17
 0
VERTEX
 8
MESH_407_F0
 10
162.0132
 20
243
 30
-88.4997
 70
192
 0
VERTEX
 8
MESH_407_F0
 10
161.9072
 20
243.0328
 30
-88.4358
 70
192
 0
VERTEX
 8
MESH_407_F0
 10
161.829
 20
243.1225
 30
-88.3886
 70
192
 0
VERTEX
 8
MESH_407_F0
 10
161.7991
 20
243.2456
 30
-88.3706
 70
192
 0
VERTEX
 8
MESH_407_F0
 10
161.3972
 20
243.2456
 30
-89.4324
 70
192
 0
VERTEX
 8
MESH_407_F0
 10
161.3972
 20
243.2456
 30
-90.5676
 70
192
 0
VERTEX
 8
MESH_407_F0
 10
161.7991
 20
243.2456
 30
-91.6294
 70
192
 0
VERTEX
 8
MESH_407_F0
 10
161.829
 20
243.1225
 30
-91.6113
 70
192
 0
VERTEX
 8
MESH_407_F0
 10
161.9072
 20
243.0328
 30
-91.5642
 70
192
 0
VERTEX
 8
MESH_407_F0
 10
162.0132
 20
243
 30
-91.5003
 70
192
 0
VERTEX
 8
MESH_407_F0
 10
161.6431
 20
243
 30
-90.5226
 70
192
 0
VERTEX
 8
MESH_407_F0
 10
161.6431
 20
243
 30
-89.4773
 70
192
 0
VERTEX
 8
MESH_407_F0
 10
161.3797
 20
243.125
 30
-89.94
 70
192
 0
VERTEX
 8
MESH_407_F0
 10
161.4712
 20
243.0335
 30
-89.9417
 70
192
 0
VERTEX
 8
MESH_407_F0
 10
161.7678
 20
243.125
 30
-91.5081
 70
192
 0
VERTEX
 8
MESH_407_F0
 10
161.8479
 20
243.0335
 30
-91.4639
 70
192
 0
VERTEX
 8
MESH_407_F0
 10
0
 20
0
 30
0
 70
128
 71
12
 72
2
 73
1
 74
1
 0
VERTEX
 8
MESH_407_F0
 10
0
 20
0
 30
0
 70
128
 71
14
 72
2
 73
12
 74
12
 0
VERTEX
 8
MESH_407_F0
 10
0
 20
0
 30
0
 70
128
 71
16
 72
14
 73
11
 74
11
 0
VERTEX
 8
MESH_407_F0
 10
0
 20
0
 30
0
 70
128
 71
9
 72
16
 73
10
 74
10
 0
VERTEX
 8
MESH_407_F0
 10
0
 20
0
 30
0
 70
128
 71
16
 72
11
 73
10
 74
10
 0
VERTEX
 8
MESH_407_F0
 10
0
 20
0
 30
0
 70
128
 71
14
 72
3
 73
2
 74
2
 0
VERTEX
 8
MESH_407_F0
 10
0
 20
0
 30
0
 70
128
 71
13
 72
3
 73
14
 74
14
 0
VERTEX
 8
MESH_407_F0
 10
0
 20
0
 30
0
 70
128
 71
6
 72
13
 73
15
 74
15
 0
VERTEX
 8
MESH_407_F0
 10
0
 20
0
 30
0
 70
128
 71
6
 72
15
 73
7
 74
7
 0
VERTEX
 8
MESH_407_F0
 10
0
 20
0
 30
0
 70
128
 71
15
 72
8
 73
7
 74
7
 0
VERTEX
 8
MESH_407_F0
 10
0
 20
0
 30
0
 70
128
 71
9
 72
8
 73
15
 74
15
 0
VERTEX
 8
MESH_407_F0
 10
0
 20
0
 30
0
 70
128
 71
9
 72
15
 73
16
 74
16
 0
VERTEX
 8
MESH_407_F0
 10
0
 20
0
 30
0
 70
128
 71
15
 72
13
 73
14
 74
16
 0
VERTEX
 8
MESH_407_F0
 10
0
 20
0
 30
0
 70
128
 71
3
 72
5
 73
4
 74
4
 0
VERTEX
 8
MESH_407_F0
 10
0
 20
0
 30
0
 70
128
 71
13
 72
5
 73
3
 74
3
 0
VERTEX
 8
MESH_407_F0
 10
0
 20
0
 30
0
 70
128
 71
6
 72
5
 73
13
 74
13
 0
VERTEX
 8
MESH_407_F0
 10
0
 20
0
 30
0
 70
128
 71
14
 72
12
 73
11
 74
11
 0
SEQEND
 0
POLYLINE
 8
MESH_406_F0
 66
1
 10
0.0
 20
0.0
 30
0.0
 70
64
 71
26
 72
29
 0
VERTEX
 8
MESH_406_F0
 10
160.943
 20
243
 30
-86.6043
 70
192
 0
VERTEX
 8
MESH_406_F0
 10
160.943
 20
243.0328
 30
-86.7281
 70
192
 0
VERTEX
 8
MESH_406_F0
 10
160.943
 20
243.1225
 30
-86.8194
 70
192
 0
VERTEX
 8
MESH_406_F0
 10
160.943
 20
243.2456
 30
-86.8543
 70
192
 0
VERTEX
 8
MESH_406_F0
 10
161.4463
 20
243.2424
 30
-86.9945
 70
192
 0
VERTEX
 8
MESH_406_F0
 10
161.814
 20
243.2411
 30
-87.3624
 70
192
 0
VERTEX
 8
MESH_406_F0
 10
161.9392
 20
243.2424
 30
-87.8672
 70
192
 0
VERTEX
 8
MESH_406_F0
 10
161.7991
 20
243.2456
 30
-88.3706
 70
192
 0
VERTEX
 8
MESH_406_F0
 10
161.829
 20
243.1225
 30
-88.3886
 70
192
 0
VERTEX
 8
MESH_406_F0
 10
161.9072
 20
243.0328
 30
-88.4358
 70
192
 0
VERTEX
 8
MESH_406_F0
 10
162.0132
 20
243
 30
-88.4997
 70
192
 0
VERTEX
 8
MESH_406_F0
 10
162.1569
 20
243
 30
-88.152
 70
192
 0
VERTEX
 8
MESH_406_F0
 10
162.1906
 20
243
 30
-87.7776
 70
192
 0
VERTEX
 8
MESH_406_F0
 10
162.1115
 20
243
 30
-87.4101
 70
192
 0
VERTEX
 8
MESH_406_F0
 10
161.9267
 20
243
 30
-87.0829
 70
192
 0
VERTEX
 8
MESH_406_F0
 10
161.6529
 20
243
 30
-86.8253
 70
192
 0
VERTEX
 8
MESH_406_F0
 10
161.3149
 20
243
 30
-86.6609
 70
192
 0
VERTEX
 8
MESH_406_F0
 10
161.4574
 20
243.1518
 30
-86.9733
 70
192
 0
VERTEX
 8
MESH_406_F0
 10
161.4862
 20
243.0694
 30
-86.9241
 70
192
 0
VERTEX
 8
MESH_406_F0
 10
161.5289
 20
243.016
 30
-86.8508
 70
192
 0
VERTEX
 8
MESH_406_F0
 10
161.9629
 20
243.1518
 30
-87.8686
 70
192
 0
VERTEX
 8
MESH_406_F0
 10
162.02
 20
243.0694
 30
-87.8694
 70
192
 0
VERTEX
 8
MESH_406_F0
 10
162.1048
 20
243.016
 30
-87.8706
 70
192
 0
VERTEX
 8
MESH_406_F0
 10
161.9558
 20
243.0156
 30
-87.2822
 70
192
 0
VERTEX
 8
MESH_406_F0
 10
161.8817
 20
243.0685
 30
-87.324
 70
192
 0
VERTEX
 8
MESH_406_F0
 10
161.8317
 20
243.1507
 30
-87.3523
 70
192
 0
VERTEX
 8
MESH_406_F0
 10
0
 20
0
 30
0
 70
128
 71
17
 72
2
 73
1
 74
1
 0
VERTEX
 8
MESH_406_F0
 10
0
 20
0
 30
0
 70
128
 71
20
 72
2
 73
17
 74
17
 0
VERTEX
 8
MESH_406_F0
 10
0
 20
0
 30
0
 70
128
 71
15
 72
20
 73
16
 74
16
 0
VERTEX
 8
MESH_406_F0
 10
0
 20
0
 30
0
 70
128
 71
20
 72
17
 73
16
 74
16
 0
VERTEX
 8
MESH_406_F0
 10
0
 20
0
 30
0
 70
128
 71
19
 72
2
 73
20
 74
20
 0
VERTEX
 8
MESH_406_F0
 10
0
 20
0
 30
0
 70
128
 71
26
 72
18
 73
19
 74
25
 0
VERTEX
 8
MESH_406_F0
 10
0
 20
0
 30
0
 70
128
 71
25
 72
22
 73
21
 74
26
 0
VERTEX
 8
MESH_406_F0
 10
0
 20
0
 30
0
 70
128
 71
5
 72
26
 73
6
 74
6
 0
VERTEX
 8
MESH_406_F0
 10
0
 20
0
 30
0
 70
128
 71
26
 72
21
 73
6
 74
6
 0
VERTEX
 8
MESH_406_F0
 10
0
 20
0
 30
0
 70
128
 71
21
 72
7
 73
6
 74
6
 0
VERTEX
 8
MESH_406_F0
 10
0
 20
0
 30
0
 70
128
 71
8
 72
7
 73
21
 74
21
 0
VERTEX
 8
MESH_406_F0
 10
0
 20
0
 30
0
 70
128
 71
8
 72
21
 73
9
 74
9
 0
VERTEX
 8
MESH_406_F0
 10
0
 20
0
 30
0
 70
128
 71
21
 72
22
 73
9
 74
9
 0
VERTEX
 8
MESH_406_F0
 10
0
 20
0
 30
0
 70
128
 71
22
 72
10
 73
9
 74
9
 0
VERTEX
 8
MESH_406_F0
 10
0
 20
0
 30
0
 70
128
 71
23
 72
10
 73
22
 74
22
 0
VERTEX
 8
MESH_406_F0
 10
0
 20
0
 30
0
 70
128
 71
13
 72
23
 73
24
 74
24
 0
VERTEX
 8
MESH_406_F0
 10
0
 20
0
 30
0
 70
128
 71
13
 72
24
 73
14
 74
14
 0
VERTEX
 8
MESH_406_F0
 10
0
 20
0
 30
0
 70
128
 71
24
 72
15
 73
14
 74
14
 0
VERTEX
 8
MESH_406_F0
 10
0
 20
0
 30
0
 70
128
 71
20
 72
15
 73
24
 74
24
 0
VERTEX
 8
MESH_406_F0
 10
0
 20
0
 30
0
 70
128
 71
20
 72
24
 73
25
 74
19
 0
VERTEX
 8
MESH_406_F0
 10
0
 20
0
 30
0
 70
128
 71
24
 72
23
 73
22
 74
25
 0
VERTEX
 8
MESH_406_F0
 10
0
 20
0
 30
0
 70
128
 71
3
 72
18
 73
4
 74
4
 0
VERTEX
 8
MESH_406_F0
 10
0
 20
0
 30
0
 70
128
 71
18
 72
5
 73
4
 74
4
 0
VERTEX
 8
MESH_406_F0
 10
0
 20
0
 30
0
 70
128
 71
26
 72
5
 73
18
 74
18
 0
VERTEX
 8
MESH_406_F0
 10
0
 20
0
 30
0
 70
128
 71
10
 72
12
 73
11
 74
11
 0
VERTEX
 8
MESH_406_F0
 10
0
 20
0
 30
0
 70
128
 71
23
 72
12
 73
10
 74
10
 0
VERTEX
 8
MESH_406_F0
 10
0
 20
0
 30
0
 70
128
 71
13
 72
12
 73
23
 74
23
 0
VERTEX
 8
MESH_406_F0
 10
0
 20
0
 30
0
 70
128
 71
19
 72
3
 73
2
 74
2
 0
VERTEX
 8
MESH_406_F0
 10
0
 20
0
 30
0
 70
128
 71
18
 72
3
 73
19
 74
19
 0
SEQEND
 0
POLYLINE
 8
MESH_405_F0
 66
1
 10
0.0
 20
0.0
 30
0.0
 70
64
 71
8
 72
6
 0
VERTEX
 8
MESH_405_F0
 10
136.057
 20
243
 30
-86.6043
 70
192
 0
VERTEX
 8
MESH_405_F0
 10
136.057
 20
243.0328
 30
-86.7281
 70
192
 0
VERTEX
 8
MESH_405_F0
 10
136.057
 20
243.1225
 30
-86.8194
 70
192
 0
VERTEX
 8
MESH_405_F0
 10
136.057
 20
243.2456
 30
-86.8543
 70
192
 0
VERTEX
 8
MESH_405_F0
 10
160.943
 20
243.2456
 30
-86.8543
 70
192
 0
VERTEX
 8
MESH_405_F0
 10
160.943
 20
243.1225
 30
-86.8194
 70
192
 0
VERTEX
 8
MESH_405_F0
 10
160.943
 20
243.0328
 30
-86.7281
 70
192
 0
VERTEX
 8
MESH_405_F0
 10
160.943
 20
243
 30
-86.6043
 70
192
 0
VERTEX
 8
MESH_405_F0
 10
0
 20
0
 30
0
 70
128
 71
8
 72
2
 73
1
 74
1
 0
VERTEX
 8
MESH_405_F0
 10
0
 20
0
 30
0
 70
128
 71
7
 72
2
 73
8
 74
8
 0
VERTEX
 8
MESH_405_F0
 10
0
 20
0
 30
0
 70
128
 71
3
 72
2
 73
7
 74
7
 0
VERTEX
 8
MESH_405_F0
 10
0
 20
0
 30
0
 70
128
 71
4
 72
3
 73
6
 74
6
 0
VERTEX
 8
MESH_405_F0
 10
0
 20
0
 30
0
 70
128
 71
4
 72
6
 73
5
 74
5
 0
VERTEX
 8
MESH_405_F0
 10
0
 20
0
 30
0
 70
128
 71
3
 72
7
 73
6
 74
6
 0
SEQEND
 0
POLYLINE
 8
MESH_404_F0
 66
1
 10
0.0
 20
0.0
 30
0.0
 70
64
 71
26
 72
29
 0
VERTEX
 8
MESH_404_F0
 10
134.9868
 20
243
 30
-88.4997
 70
192
 0
VERTEX
 8
MESH_404_F0
 10
135.0928
 20
243.0328
 30
-88.4358
 70
192
 0
VERTEX
 8
MESH_404_F0
 10
135.171
 20
243.1225
 30
-88.3886
 70
192
 0
VERTEX
 8
MESH_404_F0
 10
135.2009
 20
243.2456
 30
-88.3706
 70
192
 0
VERTEX
 8
MESH_404_F0
 10
135.0609
 20
243.2424
 30
-87.8672
 70
192
 0
VERTEX
 8
MESH_404_F0
 10
135.186
 20
243.2411
 30
-87.3624
 70
192
 0
VERTEX
 8
MESH_404_F0
 10
135.5537
 20
243.2424
 30
-86.9945
 70
192
 0
VERTEX
 8
MESH_404_F0
 10
136.057
 20
243.2456
 30
-86.8543
 70
192
 0
VERTEX
 8
MESH_404_F0
 10
136.057
 20
243.1225
 30
-86.8194
 70
192
 0
VERTEX
 8
MESH_404_F0
 10
136.057
 20
243.0328
 30
-86.7281
 70
192
 0
VERTEX
 8
MESH_404_F0
 10
136.057
 20
243
 30
-86.6043
 70
192
 0
VERTEX
 8
MESH_404_F0
 10
135.685
 20
243
 30
-86.6609
 70
192
 0
VERTEX
 8
MESH_404_F0
 10
135.347
 20
243
 30
-86.8254
 70
192
 0
VERTEX
 8
MESH_404_F0
 10
135.0732
 20
243
 30
-87.083
 70
192
 0
VERTEX
 8
MESH_404_F0
 10
134.8885
 20
243
 30
-87.4103
 70
192
 0
VERTEX
 8
MESH_404_F0
 10
134.8094
 20
243
 30
-87.7777
 70
192
 0
VERTEX
 8
MESH_404_F0
 10
134.8432
 20
243
 30
-88.1521
 70
192
 0
VERTEX
 8
MESH_404_F0
 10
135.037
 20
243.1518
 30
-87.8687
 70
192
 0
VERTEX
 8
MESH_404_F0
 10
134.98
 20
243.0694
 30
-87.8695
 70
192
 0
VERTEX
 8
MESH_404_F0
 10
134.8952
 20
243.016
 30
-87.8707
 70
192
 0
VERTEX
 8
MESH_404_F0
 10
135.5425
 20
243.1518
 30
-86.9734
 70
192
 0
VERTEX
 8
MESH_404_F0
 10
135.5137
 20
243.0694
 30
-86.9241
 70
192
 0
VERTEX
 8
MESH_404_F0
 10
135.471
 20
243.016
 30
-86.8509
 70
192
 0
VERTEX
 8
MESH_404_F0
 10
135.0441
 20
243.0156
 30
-87.2824
 70
192
 0
VERTEX
 8
MESH_404_F0
 10
135.1182
 20
243.0685
 30
-87.3242
 70
192
 0
VERTEX
 8
MESH_404_F0
 10
135.1682
 20
243.1507
 30
-87.3525
 70
192
 0
VERTEX
 8
MESH_404_F0
 10
0
 20
0
 30
0
 70
128
 71
17
 72
2
 73
1
 74
1
 0
VERTEX
 8
MESH_404_F0
 10
0
 20
0
 30
0
 70
128
 71
20
 72
2
 73
17
 74
17
 0
VERTEX
 8
MESH_404_F0
 10
0
 20
0
 30
0
 70
128
 71
15
 72
20
 73
16
 74
16
 0
VERTEX
 8
MESH_404_F0
 10
0
 20
0
 30
0
 70
128
 71
20
 72
17
 73
16
 74
16
 0
VERTEX
 8
MESH_404_F0
 10
0
 20
0
 30
0
 70
128
 71
19
 72
2
 73
20
 74
20
 0
VERTEX
 8
MESH_404_F0
 10
0
 20
0
 30
0
 70
128
 71
26
 72
18
 73
19
 74
25
 0
VERTEX
 8
MESH_404_F0
 10
0
 20
0
 30
0
 70
128
 71
25
 72
22
 73
21
 74
26
 0
VERTEX
 8
MESH_404_F0
 10
0
 20
0
 30
0
 70
128
 71
18
 72
26
 73
6
 74
6
 0
VERTEX
 8
MESH_404_F0
 10
0
 20
0
 30
0
 70
128
 71
4
 72
18
 73
5
 74
5
 0
VERTEX
 8
MESH_404_F0
 10
0
 20
0
 30
0
 70
128
 71
18
 72
6
 73
5
 74
5
 0
VERTEX
 8
MESH_404_F0
 10
0
 20
0
 30
0
 70
128
 71
3
 72
18
 73
4
 74
4
 0
VERTEX
 8
MESH_404_F0
 10
0
 20
0
 30
0
 70
128
 71
19
 72
18
 73
3
 74
3
 0
VERTEX
 8
MESH_404_F0
 10
0
 20
0
 30
0
 70
128
 71
19
 72
3
 73
2
 74
2
 0
VERTEX
 8
MESH_404_F0
 10
0
 20
0
 30
0
 70
128
 71
21
 72
6
 73
26
 74
26
 0
VERTEX
 8
MESH_404_F0
 10
0
 20
0
 30
0
 70
128
 71
7
 72
6
 73
21
 74
21
 0
VERTEX
 8
MESH_404_F0
 10
0
 20
0
 30
0
 70
128
 71
7
 72
21
 73
8
 74
8
 0
VERTEX
 8
MESH_404_F0
 10
0
 20
0
 30
0
 70
128
 71
21
 72
9
 73
8
 74
8
 0
VERTEX
 8
MESH_404_F0
 10
0
 20
0
 30
0
 70
128
 71
22
 72
9
 73
21
 74
21
 0
VERTEX
 8
MESH_404_F0
 10
0
 20
0
 30
0
 70
128
 71
10
 72
9
 73
22
 74
22
 0
VERTEX
 8
MESH_404_F0
 10
0
 20
0
 30
0
 70
128
 71
11
 72
10
 73
23
 74
23
 0
VERTEX
 8
MESH_404_F0
 10
0
 20
0
 30
0
 70
128
 71
11
 72
23
 73
12
 74
12
 0
VERTEX
 8
MESH_404_F0
 10
0
 20
0
 30
0
 70
128
 71
23
 72
13
 73
12
 74
12
 0
VERTEX
 8
MESH_404_F0
 10
0
 20
0
 30
0
 70
128
 71
14
 72
13
 73
23
 74
23
 0
VERTEX
 8
MESH_404_F0
 10
0
 20
0
 30
0
 70
128
 71
15
 72
14
 73
24
 74
24
 0
VERTEX
 8
MESH_404_F0
 10
0
 20
0
 30
0
 70
128
 71
15
 72
24
 73
20
 74
20
 0
VERTEX
 8
MESH_404_F0
 10
0
 20
0
 30
0
 70
128
 71
24
 72
25
 73
19
 74
20
 0
VERTEX
 8
MESH_404_F0
 10
0
 20
0
 30
0
 70
128
 71
23
 72
22
 73
25
 74
24
 0
VERTEX
 8
MESH_404_F0
 10
0
 20
0
 30
0
 70
128
 71
14
 72
23
 73
24
 74
24
 0
VERTEX
 8
MESH_404_F0
 10
0
 20
0
 30
0
 70
128
 71
10
 72
22
 73
23
 74
23
 0
SEQEND
 0
POLYLINE
 8
MESH_403_F0
 66
1
 10
0.0
 20
0.0
 30
0.0
 70
64
 71
16
 72
17
 0
VERTEX
 8
MESH_403_F0
 10
134.9868
 20
243
 30
-91.5003
 70
192
 0
VERTEX
 8
MESH_403_F0
 10
135.0928
 20
243.0328
 30
-91.5642
 70
192
 0
VERTEX
 8
MESH_403_F0
 10
135.171
 20
243.1225
 30
-91.6113
 70
192
 0
VERTEX
 8
MESH_403_F0
 10
135.2009
 20
243.2456
 30
-91.6294
 70
192
 0
VERTEX
 8
MESH_403_F0
 10
135.6028
 20
243.2456
 30
-90.5676
 70
192
 0
VERTEX
 8
MESH_403_F0
 10
135.6028
 20
243.2456
 30
-89.4324
 70
192
 0
VERTEX
 8
MESH_403_F0
 10
135.2009
 20
243.2456
 30
-88.3706
 70
192
 0
VERTEX
 8
MESH_403_F0
 10
135.171
 20
243.1225
 30
-88.3886
 70
192
 0
VERTEX
 8
MESH_403_F0
 10
135.0928
 20
243.0328
 30
-88.4358
 70
192
 0
VERTEX
 8
MESH_403_F0
 10
134.9868
 20
243
 30
-88.4997
 70
192
 0
VERTEX
 8
MESH_403_F0
 10
135.3569
 20
243
 30
-89.4773
 70
192
 0
VERTEX
 8
MESH_403_F0
 10
135.3569
 20
243
 30
-90.5226
 70
192
 0
VERTEX
 8
MESH_403_F0
 10
135.6203
 20
243.125
 30
-90.06
 70
192
 0
VERTEX
 8
MESH_403_F0
 10
135.5288
 20
243.0335
 30
-90.0582
 70
192
 0
VERTEX
 8
MESH_403_F0
 10
135.2322
 20
243.125
 30
-88.4918
 70
192
 0
VERTEX
 8
MESH_403_F0
 10
135.1521
 20
243.0335
 30
-88.5361
 70
192
 0
VERTEX
 8
MESH_403_F0
 10
0
 20
0
 30
0
 70
128
 71
12
 72
2
 73
1
 74
1
 0
VERTEX
 8
MESH_403_F0
 10
0
 20
0
 30
0
 70
128
 71
14
 72
2
 73
12
 74
12
 0
VERTEX
 8
MESH_403_F0
 10
0
 20
0
 30
0
 70
128
 71
16
 72
14
 73
11
 74
11
 0
VERTEX
 8
MESH_403_F0
 10
0
 20
0
 30
0
 70
128
 71
9
 72
16
 73
10
 74
10
 0
VERTEX
 8
MESH_403_F0
 10
0
 20
0
 30
0
 70
128
 71
16
 72
11
 73
10
 74
10
 0
VERTEX
 8
MESH_403_F0
 10
0
 20
0
 30
0
 70
128
 71
14
 72
3
 73
2
 74
2
 0
VERTEX
 8
MESH_403_F0
 10
0
 20
0
 30
0
 70
128
 71
13
 72
3
 73
14
 74
14
 0
VERTEX
 8
MESH_403_F0
 10
0
 20
0
 30
0
 70
128
 71
6
 72
13
 73
15
 74
15
 0
VERTEX
 8
MESH_403_F0
 10
0
 20
0
 30
0
 70
128
 71
6
 72
15
 73
7
 74
7
 0
VERTEX
 8
MESH_403_F0
 10
0
 20
0
 30
0
 70
128
 71
15
 72
8
 73
7
 74
7
 0
VERTEX
 8
MESH_403_F0
 10
0
 20
0
 30
0
 70
128
 71
9
 72
8
 73
15
 74
15
 0
VERTEX
 8
MESH_403_F0
 10
0
 20
0
 30
0
 70
128
 71
9
 72
15
 73
16
 74
16
 0
VERTEX
 8
MESH_403_F0
 10
0
 20
0
 30
0
 70
128
 71
15
 72
13
 73
14
 74
16
 0
VERTEX
 8
MESH_403_F0
 10
0
 20
0
 30
0
 70
128
 71
3
 72
5
 73
4
 74
4
 0
VERTEX
 8
MESH_403_F0
 10
0
 20
0
 30
0
 70
128
 71
13
 72
5
 73
3
 74
3
 0
VERTEX
 8
MESH_403_F0
 10
0
 20
0
 30
0
 70
128
 71
6
 72
5
 73
13
 74
13
 0
VERTEX
 8
MESH_403_F0
 10
0
 20
0
 30
0
 70
128
 71
14
 72
12
 73
11
 74
11
 0
SEQEND
 0
POLYLINE
 8
MESH_402_F0
 66
1
 10
0.0
 20
0.0
 30
0.0
 70
64
 71
26
 72
29
 0
VERTEX
 8
MESH_402_F0
 10
136.057
 20
243
 30
-93.3956
 70
192
 0
VERTEX
 8
MESH_402_F0
 10
136.057
 20
243.0328
 30
-93.2719
 70
192
 0
VERTEX
 8
MESH_402_F0
 10
136.057
 20
243.1225
 30
-93.1806
 70
192
 0
VERTEX
 8
MESH_402_F0
 10
136.057
 20
243.2456
 30
-93.1457
 70
192
 0
VERTEX
 8
MESH_402_F0
 10
135.5537
 20
243.2424
 30
-93.0055
 70
192
 0
VERTEX
 8
MESH_402_F0
 10
135.186
 20
243.2411
 30
-92.6376
 70
192
 0
VERTEX
 8
MESH_402_F0
 10
135.0608
 20
243.2424
 30
-92.1328
 70
192
 0
VERTEX
 8
MESH_402_F0
 10
135.2009
 20
243.2456
 30
-91.6294
 70
192
 0
VERTEX
 8
MESH_402_F0
 10
135.171
 20
243.1225
 30
-91.6113
 70
192
 0
VERTEX
 8
MESH_402_F0
 10
135.0928
 20
243.0328
 30
-91.5642
 70
192
 0
VERTEX
 8
MESH_402_F0
 10
134.9868
 20
243
 30
-91.5003
 70
192
 0
VERTEX
 8
MESH_402_F0
 10
134.8431
 20
243
 30
-91.8479
 70
192
 0
VERTEX
 8
MESH_402_F0
 10
134.8094
 20
243
 30
-92.2224
 70
192
 0
VERTEX
 8
MESH_402_F0
 10
134.8885
 20
243
 30
-92.5899
 70
192
 0
VERTEX
 8
MESH_402_F0
 10
135.0733
 20
243
 30
-92.9171
 70
192
 0
VERTEX
 8
MESH_402_F0
 10
135.3471
 20
243
 30
-93.1746
 70
192
 0
VERTEX
 8
MESH_402_F0
 10
135.6851
 20
243
 30
-93.3391
 70
192
 0
VERTEX
 8
MESH_402_F0
 10
135.5426
 20
243.1518
 30
-93.0267
 70
192
 0
VERTEX
 8
MESH_402_F0
 10
135.5138
 20
243.0694
 30
-93.0759
 70
192
 0
VERTEX
 8
MESH_402_F0
 10
135.4711
 20
243.016
 30
-93.1492
 70
192
 0
VERTEX
 8
MESH_402_F0
 10
135.037
 20
243.1518
 30
-92.1314
 70
192
 0
VERTEX
 8
MESH_402_F0
 10
134.98
 20
243.0694
 30
-92.1306
 70
192
 0
VERTEX
 8
MESH_402_F0
 10
134.8952
 20
243.016
 30
-92.1293
 70
192
 0
VERTEX
 8
MESH_402_F0
 10
135.0442
 20
243.0156
 30
-92.7178
 70
192
 0
VERTEX
 8
MESH_402_F0
 10
135.1183
 20
243.0685
 30
-92.676
 70
192
 0
VERTEX
 8
MESH_402_F0
 10
135.1683
 20
243.1507
 30
-92.6477
 70
192
 0
VERTEX
 8
MESH_402_F0
 10
0
 20
0
 30
0
 70
128
 71
17
 72
2
 73
1
 74
1
 0
VERTEX
 8
MESH_402_F0
 10
0
 20
0
 30
0
 70
128
 71
20
 72
2
 73
17
 74
17
 0
VERTEX
 8
MESH_402_F0
 10
0
 20
0
 30
0
 70
128
 71
15
 72
20
 73
16
 74
16
 0
VERTEX
 8
MESH_402_F0
 10
0
 20
0
 30
0
 70
128
 71
20
 72
17
 73
16
 74
16
 0
VERTEX
 8
MESH_402_F0
 10
0
 20
0
 30
0
 70
128
 71
19
 72
2
 73
20
 74
20
 0
VERTEX
 8
MESH_402_F0
 10
0
 20
0
 30
0
 70
128
 71
26
 72
18
 73
19
 74
25
 0
VERTEX
 8
MESH_402_F0
 10
0
 20
0
 30
0
 70
128
 71
25
 72
22
 73
21
 74
26
 0
VERTEX
 8
MESH_402_F0
 10
0
 20
0
 30
0
 70
128
 71
5
 72
26
 73
6
 74
6
 0
VERTEX
 8
MESH_402_F0
 10
0
 20
0
 30
0
 70
128
 71
26
 72
21
 73
6
 74
6
 0
VERTEX
 8
MESH_402_F0
 10
0
 20
0
 30
0
 70
128
 71
21
 72
7
 73
6
 74
6
 0
VERTEX
 8
MESH_402_F0
 10
0
 20
0
 30
0
 70
128
 71
8
 72
7
 73
21
 74
21
 0
VERTEX
 8
MESH_402_F0
 10
0
 20
0
 30
0
 70
128
 71
8
 72
21
 73
9
 74
9
 0
VERTEX
 8
MESH_402_F0
 10
0
 20
0
 30
0
 70
128
 71
21
 72
22
 73
9
 74
9
 0
VERTEX
 8
MESH_402_F0
 10
0
 20
0
 30
0
 70
128
 71
22
 72
10
 73
9
 74
9
 0
VERTEX
 8
MESH_402_F0
 10
0
 20
0
 30
0
 70
128
 71
23
 72
10
 73
22
 74
22
 0
VERTEX
 8
MESH_402_F0
 10
0
 20
0
 30
0
 70
128
 71
13
 72
23
 73
24
 74
24
 0
VERTEX
 8
MESH_402_F0
 10
0
 20
0
 30
0
 70
128
 71
13
 72
24
 73
14
 74
14
 0
VERTEX
 8
MESH_402_F0
 10
0
 20
0
 30
0
 70
128
 71
24
 72
15
 73
14
 74
14
 0
VERTEX
 8
MESH_402_F0
 10
0
 20
0
 30
0
 70
128
 71
20
 72
15
 73
24
 74
24
 0
VERTEX
 8
MESH_402_F0
 10
0
 20
0
 30
0
 70
128
 71
20
 72
24
 73
25
 74
19
 0
VERTEX
 8
MESH_402_F0
 10
0
 20
0
 30
0
 70
128
 71
24
 72
23
 73
22
 74
25
 0
VERTEX
 8
MESH_402_F0
 10
0
 20
0
 30
0
 70
128
 71
3
 72
18
 73
4
 74
4
 0
VERTEX
 8
MESH_402_F0
 10
0
 20
0
 30
0
 70
128
 71
18
 72
5
 73
4
 74
4
 0
VERTEX
 8
MESH_402_F0
 10
0
 20
0
 30
0
 70
128
 71
26
 72
5
 73
18
 74
18
 0
VERTEX
 8
MESH_402_F0
 10
0
 20
0
 30
0
 70
128
 71
10
 72
12
 73
11
 74
11
 0
VERTEX
 8
MESH_402_F0
 10
0
 20
0
 30
0
 70
128
 71
23
 72
12
 73
10
 74
10
 0
VERTEX
 8
MESH_402_F0
 10
0
 20
0
 30
0
 70
128
 71
13
 72
12
 73
23
 74
23
 0
VERTEX
 8
MESH_402_F0
 10
0
 20
0
 30
0
 70
128
 71
19
 72
3
 73
2
 74
2
 0
VERTEX
 8
MESH_402_F0
 10
0
 20
0
 30
0
 70
128
 71
18
 72
3
 73
19
 74
19
 0
SEQEND
 0
POLYLINE
 8
MESH_401_F0
 66
1
 10
0.0
 20
0.0
 30
0.0
 70
64
 71
9
 72
4
 0
VERTEX
 8
MESH_401_F0
 10
134.15
 20
258
 30
-90
 70
192
 0
VERTEX
 8
MESH_401_F0
 10
133.6667
 20
258
 30
-88.8333
 70
192
 0
VERTEX
 8
MESH_401_F0
 10
132.5
 20
258
 30
-88.35
 70
192
 0
VERTEX
 8
MESH_401_F0
 10
131.3333
 20
258
 30
-88.8333
 70
192
 0
VERTEX
 8
MESH_401_F0
 10
130.85
 20
258
 30
-90
 70
192
 0
VERTEX
 8
MESH_401_F0
 10
132.5
 20
258.9914
 30
-90
 70
192
 0
VERTEX
 8
MESH_401_F0
 10
132.5
 20
258.9914
 30
-90
 70
192
 0
VERTEX
 8
MESH_401_F0
 10
132.5
 20
258.9914
 30
-90
 70
192
 0
VERTEX
 8
MESH_401_F0
 10
132.5
 20
258.9914
 30
-90
 70
192
 0
VERTEX
 8
MESH_401_F0
 10
0
 20
0
 30
0
 70
128
 71
6
 72
2
 73
1
 74
1
 0
VERTEX
 8
MESH_401_F0
 10
0
 20
0
 30
0
 70
128
 71
7
 72
3
 73
2
 74
2
 0
VERTEX
 8
MESH_401_F0
 10
0
 20
0
 30
0
 70
128
 71
4
 72
9
 73
5
 74
5
 0
VERTEX
 8
MESH_401_F0
 10
0
 20
0
 30
0
 70
128
 71
3
 72
8
 73
4
 74
4
 0
SEQEND
 0
POLYLINE
 8
MESH_400_F0
 66
1
 10
0.0
 20
0.0
 30
0.0
 70
64
 71
9
 72
4
 0
VERTEX
 8
MESH_400_F0
 10
130.85
 20
258
 30
-90
 70
192
 0
VERTEX
 8
MESH_400_F0
 10
131.3333
 20
258
 30
-91.1667
 70
192
 0
VERTEX
 8
MESH_400_F0
 10
132.5
 20
258
 30
-91.65
 70
192
 0
VERTEX
 8
MESH_400_F0
 10
133.6667
 20
258
 30
-91.1667
 70
192
 0
VERTEX
 8
MESH_400_F0
 10
134.15
 20
258
 30
-90
 70
192
 0
VERTEX
 8
MESH_400_F0
 10
132.5
 20
258.9914
 30
-90
 70
192
 0
VERTEX
 8
MESH_400_F0
 10
132.5
 20
258.9914
 30
-90
 70
192
 0
VERTEX
 8
MESH_400_F0
 10
132.5
 20
258.9914
 30
-90
 70
192
 0
VERTEX
 8
MESH_400_F0
 10
132.5
 20
258.9914
 30
-90
 70
192
 0
VERTEX
 8
MESH_400_F0
 10
0
 20
0
 30
0
 70
128
 71
9
 72
4
 73
3
 74
3
 0
VERTEX
 8
MESH_400_F0
 10
0
 20
0
 30
0
 70
128
 71
4
 72
6
 73
5
 74
5
 0
VERTEX
 8
MESH_400_F0
 10
0
 20
0
 30
0
 70
128
 71
1
 72
7
 73
2
 74
2
 0
VERTEX
 8
MESH_400_F0
 10
0
 20
0
 30
0
 70
128
 71
2
 72
8
 73
3
 74
3
 0
SEQEND
 0
POLYLINE
 8
MESH_399_F0
 66
1
 10
0.0
 20
0.0
 30
0.0
 70
64
 71
10
 72
8
 0
VERTEX
 8
MESH_399_F0
 10
130.85
 20
243
 30
-90
 70
192
 0
VERTEX
 8
MESH_399_F0
 10
131.3333
 20
243
 30
-91.1667
 70
192
 0
VERTEX
 8
MESH_399_F0
 10
132.5
 20
243
 30
-91.65
 70
192
 0
VERTEX
 8
MESH_399_F0
 10
133.6667
 20
243
 30
-91.1667
 70
192
 0
VERTEX
 8
MESH_399_F0
 10
134.15
 20
243
 30
-90
 70
192
 0
VERTEX
 8
MESH_399_F0
 10
134.15
 20
258
 30
-90
 70
192
 0
VERTEX
 8
MESH_399_F0
 10
133.6667
 20
258
 30
-91.1667
 70
192
 0
VERTEX
 8
MESH_399_F0
 10
132.5
 20
258
 30
-91.65
 70
192
 0
VERTEX
 8
MESH_399_F0
 10
131.3333
 20
258
 30
-91.1667
 70
192
 0
VERTEX
 8
MESH_399_F0
 10
130.85
 20
258
 30
-90
 70
192
 0
VERTEX
 8
MESH_399_F0
 10
0
 20
0
 30
0
 70
128
 71
9
 72
1
 73
10
 74
10
 0
VERTEX
 8
MESH_399_F0
 10
0
 20
0
 30
0
 70
128
 71
2
 72
1
 73
9
 74
9
 0
VERTEX
 8
MESH_399_F0
 10
0
 20
0
 30
0
 70
128
 71
3
 72
2
 73
8
 74
8
 0
VERTEX
 8
MESH_399_F0
 10
0
 20
0
 30
0
 70
128
 71
4
 72
3
 73
7
 74
7
 0
VERTEX
 8
MESH_399_F0
 10
0
 20
0
 30
0
 70
128
 71
5
 72
4
 73
6
 74
6
 0
VERTEX
 8
MESH_399_F0
 10
0
 20
0
 30
0
 70
128
 71
4
 72
7
 73
6
 74
6
 0
VERTEX
 8
MESH_399_F0
 10
0
 20
0
 30
0
 70
128
 71
3
 72
8
 73
7
 74
7
 0
VERTEX
 8
MESH_399_F0
 10
0
 20
0
 30
0
 70
128
 71
2
 72
9
 73
8
 74
8
 0
SEQEND
 0
POLYLINE
 8
MESH_398_F0
 66
1
 10
0.0
 20
0.0
 30
0.0
 70
64
 71
10
 72
8
 0
VERTEX
 8
MESH_398_F0
 10
130.85
 20
258
 30
-90
 70
192
 0
VERTEX
 8
MESH_398_F0
 10
131.3333
 20
258
 30
-88.8333
 70
192
 0
VERTEX
 8
MESH_398_F0
 10
132.5
 20
258
 30
-88.35
 70
192
 0
VERTEX
 8
MESH_398_F0
 10
133.6667
 20
258
 30
-88.8333
 70
192
 0
VERTEX
 8
MESH_398_F0
 10
134.15
 20
258
 30
-90
 70
192
 0
VERTEX
 8
MESH_398_F0
 10
134.15
 20
243
 30
-90
 70
192
 0
VERTEX
 8
MESH_398_F0
 10
133.6667
 20
243
 30
-88.8333
 70
192
 0
VERTEX
 8
MESH_398_F0
 10
132.5
 20
243
 30
-88.35
 70
192
 0
VERTEX
 8
MESH_398_F0
 10
131.3333
 20
243
 30
-88.8333
 70
192
 0
VERTEX
 8
MESH_398_F0
 10
130.85
 20
243
 30
-90
 70
192
 0
VERTEX
 8
MESH_398_F0
 10
0
 20
0
 30
0
 70
128
 71
9
 72
1
 73
10
 74
10
 0
VERTEX
 8
MESH_398_F0
 10
0
 20
0
 30
0
 70
128
 71
2
 72
1
 73
9
 74
9
 0
VERTEX
 8
MESH_398_F0
 10
0
 20
0
 30
0
 70
128
 71
3
 72
2
 73
8
 74
8
 0
VERTEX
 8
MESH_398_F0
 10
0
 20
0
 30
0
 70
128
 71
4
 72
3
 73
7
 74
7
 0
VERTEX
 8
MESH_398_F0
 10
0
 20
0
 30
0
 70
128
 71
5
 72
4
 73
6
 74
6
 0
VERTEX
 8
MESH_398_F0
 10
0
 20
0
 30
0
 70
128
 71
4
 72
7
 73
6
 74
6
 0
VERTEX
 8
MESH_398_F0
 10
0
 20
0
 30
0
 70
128
 71
3
 72
8
 73
7
 74
7
 0
VERTEX
 8
MESH_398_F0
 10
0
 20
0
 30
0
 70
128
 71
2
 72
9
 73
8
 74
8
 0
SEQEND
 0
POLYLINE
 8
MESH_397_F0
 66
1
 10
0.0
 20
0.0
 30
0.0
 70
64
 71
9
 72
4
 0
VERTEX
 8
MESH_397_F0
 10
166.15
 20
258
 30
-90
 70
192
 0
VERTEX
 8
MESH_397_F0
 10
165.6667
 20
258
 30
-88.8333
 70
192
 0
VERTEX
 8
MESH_397_F0
 10
164.5
 20
258
 30
-88.35
 70
192
 0
VERTEX
 8
MESH_397_F0
 10
163.3333
 20
258
 30
-88.8333
 70
192
 0
VERTEX
 8
MESH_397_F0
 10
162.85
 20
258
 30
-90
 70
192
 0
VERTEX
 8
MESH_397_F0
 10
164.5
 20
258.9914
 30
-90
 70
192
 0
VERTEX
 8
MESH_397_F0
 10
164.5
 20
258.9914
 30
-90
 70
192
 0
VERTEX
 8
MESH_397_F0
 10
164.5
 20
258.9914
 30
-90
 70
192
 0
VERTEX
 8
MESH_397_F0
 10
164.5
 20
258.9914
 30
-90
 70
192
 0
VERTEX
 8
MESH_397_F0
 10
0
 20
0
 30
0
 70
128
 71
9
 72
4
 73
3
 74
3
 0
VERTEX
 8
MESH_397_F0
 10
0
 20
0
 30
0
 70
128
 71
4
 72
6
 73
5
 74
5
 0
VERTEX
 8
MESH_397_F0
 10
0
 20
0
 30
0
 70
128
 71
1
 72
7
 73
2
 74
2
 0
VERTEX
 8
MESH_397_F0
 10
0
 20
0
 30
0
 70
128
 71
2
 72
8
 73
3
 74
3
 0
SEQEND
 0
POLYLINE
 8
MESH_396_F0
 66
1
 10
0.0
 20
0.0
 30
0.0
 70
64
 71
9
 72
4
 0
VERTEX
 8
MESH_396_F0
 10
162.85
 20
258
 30
-90
 70
192
 0
VERTEX
 8
MESH_396_F0
 10
163.3333
 20
258
 30
-91.1667
 70
192
 0
VERTEX
 8
MESH_396_F0
 10
164.5
 20
258
 30
-91.65
 70
192
 0
VERTEX
 8
MESH_396_F0
 10
165.6667
 20
258
 30
-91.1667
 70
192
 0
VERTEX
 8
MESH_396_F0
 10
166.15
 20
258
 30
-90
 70
192
 0
VERTEX
 8
MESH_396_F0
 10
164.5
 20
258.9914
 30
-90
 70
192
 0
VERTEX
 8
MESH_396_F0
 10
164.5
 20
258.9914
 30
-90
 70
192
 0
VERTEX
 8
MESH_396_F0
 10
164.5
 20
258.9914
 30
-90
 70
192
 0
VERTEX
 8
MESH_396_F0
 10
164.5
 20
258.9914
 30
-90
 70
192
 0
VERTEX
 8
MESH_396_F0
 10
0
 20
0
 30
0
 70
128
 71
6
 72
2
 73
1
 74
1
 0
VERTEX
 8
MESH_396_F0
 10
0
 20
0
 30
0
 70
128
 71
7
 72
3
 73
2
 74
2
 0
VERTEX
 8
MESH_396_F0
 10
0
 20
0
 30
0
 70
128
 71
4
 72
9
 73
5
 74
5
 0
VERTEX
 8
MESH_396_F0
 10
0
 20
0
 30
0
 70
128
 71
3
 72
8
 73
4
 74
4
 0
SEQEND
 0
POLYLINE
 8
MESH_395_F0
 66
1
 10
0.0
 20
0.0
 30
0.0
 70
64
 71
10
 72
8
 0
VERTEX
 8
MESH_395_F0
 10
166.15
 20
243
 30
-90
 70
192
 0
VERTEX
 8
MESH_395_F0
 10
166.15
 20
258
 30
-90
 70
192
 0
VERTEX
 8
MESH_395_F0
 10
165.6667
 20
258
 30
-91.1667
 70
192
 0
VERTEX
 8
MESH_395_F0
 10
164.5
 20
258
 30
-91.65
 70
192
 0
VERTEX
 8
MESH_395_F0
 10
163.3333
 20
258
 30
-91.1667
 70
192
 0
VERTEX
 8
MESH_395_F0
 10
162.85
 20
258
 30
-90
 70
192
 0
VERTEX
 8
MESH_395_F0
 10
162.85
 20
243
 30
-90
 70
192
 0
VERTEX
 8
MESH_395_F0
 10
163.3333
 20
243
 30
-91.1667
 70
192
 0
VERTEX
 8
MESH_395_F0
 10
164.5
 20
243
 30
-91.65
 70
192
 0
VERTEX
 8
MESH_395_F0
 10
165.6667
 20
243
 30
-91.1667
 70
192
 0
VERTEX
 8
MESH_395_F0
 10
0
 20
0
 30
0
 70
128
 71
10
 72
2
 73
1
 74
1
 0
VERTEX
 8
MESH_395_F0
 10
0
 20
0
 30
0
 70
128
 71
3
 72
2
 73
10
 74
10
 0
VERTEX
 8
MESH_395_F0
 10
0
 20
0
 30
0
 70
128
 71
4
 72
3
 73
9
 74
9
 0
VERTEX
 8
MESH_395_F0
 10
0
 20
0
 30
0
 70
128
 71
5
 72
4
 73
8
 74
8
 0
VERTEX
 8
MESH_395_F0
 10
0
 20
0
 30
0
 70
128
 71
6
 72
5
 73
7
 74
7
 0
VERTEX
 8
MESH_395_F0
 10
0
 20
0
 30
0
 70
128
 71
5
 72
8
 73
7
 74
7
 0
VERTEX
 8
MESH_395_F0
 10
0
 20
0
 30
0
 70
128
 71
4
 72
9
 73
8
 74
8
 0
VERTEX
 8
MESH_395_F0
 10
0
 20
0
 30
0
 70
128
 71
3
 72
10
 73
9
 74
9
 0
SEQEND
 0
POLYLINE
 8
MESH_394_F0
 66
1
 10
0.0
 20
0.0
 30
0.0
 70
64
 71
10
 72
8
 0
VERTEX
 8
MESH_394_F0
 10
162.85
 20
243
 30
-90
 70
192
 0
VERTEX
 8
MESH_394_F0
 10
162.85
 20
258
 30
-90
 70
192
 0
VERTEX
 8
MESH_394_F0
 10
163.3333
 20
258
 30
-88.8333
 70
192
 0
VERTEX
 8
MESH_394_F0
 10
164.5
 20
258
 30
-88.35
 70
192
 0
VERTEX
 8
MESH_394_F0
 10
165.6667
 20
258
 30
-88.8333
 70
192
 0
VERTEX
 8
MESH_394_F0
 10
166.15
 20
258
 30
-90
 70
192
 0
VERTEX
 8
MESH_394_F0
 10
166.15
 20
243
 30
-90
 70
192
 0
VERTEX
 8
MESH_394_F0
 10
165.6667
 20
243
 30
-88.8333
 70
192
 0
VERTEX
 8
MESH_394_F0
 10
164.5
 20
243
 30
-88.35
 70
192
 0
VERTEX
 8
MESH_394_F0
 10
163.3333
 20
243
 30
-88.8333
 70
192
 0
VERTEX
 8
MESH_394_F0
 10
0
 20
0
 30
0
 70
128
 71
10
 72
2
 73
1
 74
1
 0
VERTEX
 8
MESH_394_F0
 10
0
 20
0
 30
0
 70
128
 71
3
 72
2
 73
10
 74
10
 0
VERTEX
 8
MESH_394_F0
 10
0
 20
0
 30
0
 70
128
 71
4
 72
3
 73
9
 74
9
 0
VERTEX
 8
MESH_394_F0
 10
0
 20
0
 30
0
 70
128
 71
5
 72
4
 73
8
 74
8
 0
VERTEX
 8
MESH_394_F0
 10
0
 20
0
 30
0
 70
128
 71
6
 72
5
 73
7
 74
7
 0
VERTEX
 8
MESH_394_F0
 10
0
 20
0
 30
0
 70
128
 71
5
 72
8
 73
7
 74
7
 0
VERTEX
 8
MESH_394_F0
 10
0
 20
0
 30
0
 70
128
 71
4
 72
9
 73
8
 74
8
 0
VERTEX
 8
MESH_394_F0
 10
0
 20
0
 30
0
 70
128
 71
3
 72
10
 73
9
 74
9
 0
SEQEND
 0
POLYLINE
 8
MESH_393_F0
 66
1
 10
0.0
 20
0.0
 30
0.0
 70
64
 71
8
 72
6
 0
VERTEX
 8
MESH_393_F0
 10
130.55
 20
243
 30
-94.15
 70
192
 0
VERTEX
 8
MESH_393_F0
 10
130.55
 20
243.0268
 30
-94.25
 70
192
 0
VERTEX
 8
MESH_393_F0
 10
130.55
 20
243.1
 30
-94.3232
 70
192
 0
VERTEX
 8
MESH_393_F0
 10
130.55
 20
243.2
 30
-94.35
 70
192
 0
VERTEX
 8
MESH_393_F0
 10
166.45
 20
243.2
 30
-94.35
 70
192
 0
VERTEX
 8
MESH_393_F0
 10
166.45
 20
243.1
 30
-94.3232
 70
192
 0
VERTEX
 8
MESH_393_F0
 10
166.45
 20
243.0268
 30
-94.25
 70
192
 0
VERTEX
 8
MESH_393_F0
 10
166.45
 20
243
 30
-94.15
 70
192
 0
VERTEX
 8
MESH_393_F0
 10
0
 20
0
 30
0
 70
128
 71
7
 72
1
 73
8
 74
8
 0
VERTEX
 8
MESH_393_F0
 10
0
 20
0
 30
0
 70
128
 71
2
 72
1
 73
7
 74
7
 0
VERTEX
 8
MESH_393_F0
 10
0
 20
0
 30
0
 70
128
 71
2
 72
7
 73
3
 74
3
 0
VERTEX
 8
MESH_393_F0
 10
0
 20
0
 30
0
 70
128
 71
7
 72
6
 73
3
 74
3
 0
VERTEX
 8
MESH_393_F0
 10
0
 20
0
 30
0
 70
128
 71
6
 72
4
 73
3
 74
3
 0
VERTEX
 8
MESH_393_F0
 10
0
 20
0
 30
0
 70
128
 71
5
 72
4
 73
6
 74
6
 0
SEQEND
 0
POLYLINE
 8
MESH_392_F0
 66
1
 10
0.0
 20
0.0
 30
0.0
 70
64
 71
4
 72
2
 0
VERTEX
 8
MESH_392_F0
 10
130.55
 20
243.2
 30
-94.35
 70
192
 0
VERTEX
 8
MESH_392_F0
 10
130.55
 20
257.2303
 30
-94.35
 70
192
 0
VERTEX
 8
MESH_392_F0
 10
166.45
 20
257.2303
 30
-94.35
 70
192
 0
VERTEX
 8
MESH_392_F0
 10
166.45
 20
243.2
 30
-94.35
 70
192
 0
VERTEX
 8
MESH_392_F0
 10
0
 20
0
 30
0
 70
128
 71
4
 72
2
 73
1
 74
1
 0
VERTEX
 8
MESH_392_F0
 10
0
 20
0
 30
0
 70
128
 71
3
 72
2
 73
4
 74
4
 0
SEQEND
 0
POLYLINE
 8
MESH_391_F0
 66
1
 10
0.0
 20
0.0
 30
0.0
 70
64
 71
8
 72
6
 0
VERTEX
 8
MESH_391_F0
 10
166.45
 20
261.0461
 30
-97.15
 70
192
 0
VERTEX
 8
MESH_391_F0
 10
166.45
 20
260.2197
 30
-95.6923
 70
192
 0
VERTEX
 8
MESH_391_F0
 10
166.45
 20
258.8688
 30
-94.701
 70
192
 0
VERTEX
 8
MESH_391_F0
 10
166.45
 20
257.2303
 30
-94.35
 70
192
 0
VERTEX
 8
MESH_391_F0
 10
130.55
 20
257.2303
 30
-94.35
 70
192
 0
VERTEX
 8
MESH_391_F0
 10
130.55
 20
258.8688
 30
-94.701
 70
192
 0
VERTEX
 8
MESH_391_F0
 10
130.55
 20
260.2197
 30
-95.6923
 70
192
 0
VERTEX
 8
MESH_391_F0
 10
130.55
 20
261.0457
 30
-97.1501
 70
192
 0
VERTEX
 8
MESH_391_F0
 10
0
 20
0
 30
0
 70
128
 71
8
 72
2
 73
1
 74
1
 0
VERTEX
 8
MESH_391_F0
 10
0
 20
0
 30
0
 70
128
 71
7
 72
2
 73
8
 74
8
 0
VERTEX
 8
MESH_391_F0
 10
0
 20
0
 30
0
 70
128
 71
3
 72
2
 73
7
 74
7
 0
VERTEX
 8
MESH_391_F0
 10
0
 20
0
 30
0
 70
128
 71
4
 72
3
 73
6
 74
6
 0
VERTEX
 8
MESH_391_F0
 10
0
 20
0
 30
0
 70
128
 71
4
 72
6
 73
5
 74
5
 0
VERTEX
 8
MESH_391_F0
 10
0
 20
0
 30
0
 70
128
 71
3
 72
7
 73
6
 74
6
 0
SEQEND
 0
POLYLINE
 8
MESH_390_F0
 66
1
 10
0.0
 20
0.0
 30
0.0
 70
64
 71
21
 72
23
 0
VERTEX
 8
MESH_390_F0
 10
171.2251
 20
261
 30
-96.8499
 70
192
 0
VERTEX
 8
MESH_390_F0
 10
170.0812
 20
260.4641
 30
-95.2093
 70
192
 0
VERTEX
 8
MESH_390_F0
 10
169.244
 20
259
 30
-94.0082
 70
192
 0
VERTEX
 8
MESH_390_F0
 10
168.9375
 20
257
 30
-93.5686
 70
192
 0
VERTEX
 8
MESH_390_F0
 10
168.1773
 20
257.0665
 30
-93.9923
 70
192
 0
VERTEX
 8
MESH_390_F0
 10
167.3479
 20
257.1772
 30
-94.2563
 70
192
 0
VERTEX
 8
MESH_390_F0
 10
166.45
 20
257.2303
 30
-94.35
 70
192
 0
VERTEX
 8
MESH_390_F0
 10
166.45
 20
258.8688
 30
-94.701
 70
192
 0
VERTEX
 8
MESH_390_F0
 10
166.45
 20
260.2197
 30
-95.6923
 70
192
 0
VERTEX
 8
MESH_390_F0
 10
166.45
 20
261.0461
 30
-97.15
 70
192
 0
VERTEX
 8
MESH_390_F0
 10
167.0959
 20
261.0443
 30
-97.1442
 70
192
 0
VERTEX
 8
MESH_390_F0
 10
167.8045
 20
261.0393
 30
-97.1277
 70
192
 0
VERTEX
 8
MESH_390_F0
 10
168.5737
 20
261.0305
 30
-97.0953
 70
192
 0
VERTEX
 8
MESH_390_F0
 10
169.4025
 20
261.0187
 30
-97.0424
 70
192
 0
VERTEX
 8
MESH_390_F0
 10
170.2875
 20
261.0063
 30
-96.9622
 70
192
 0
VERTEX
 8
MESH_390_F0
 10
168.5287
 20
260.6368
 30
-96.0938
 70
192
 0
VERTEX
 8
MESH_390_F0
 10
169.5416
 20
260.5414
 30
-95.6463
 70
192
 0
VERTEX
 8
MESH_390_F0
 10
168.834
 20
259.2395
 30
-94.4131
 70
192
 0
VERTEX
 8
MESH_390_F0
 10
168.0358
 20
259.3361
 30
-94.7592
 70
192
 0
VERTEX
 8
MESH_390_F0
 10
168.5471
 20
258.1221
 30
-93.983
 70
192
 0
VERTEX
 8
MESH_390_F0
 10
167.8157
 20
258.2196
 30
-94.2894
 70
192
 0
VERTEX
 8
MESH_390_F0
 10
0
 20
0
 30
0
 70
128
 71
17
 72
1
 73
15
 74
15
 0
VERTEX
 8
MESH_390_F0
 10
0
 20
0
 30
0
 70
128
 71
16
 72
17
 73
14
 74
14
 0
VERTEX
 8
MESH_390_F0
 10
0
 20
0
 30
0
 70
128
 71
12
 72
16
 73
13
 74
13
 0
VERTEX
 8
MESH_390_F0
 10
0
 20
0
 30
0
 70
128
 71
16
 72
14
 73
13
 74
13
 0
VERTEX
 8
MESH_390_F0
 10
0
 20
0
 30
0
 70
128
 71
3
 72
20
 73
4
 74
4
 0
VERTEX
 8
MESH_390_F0
 10
0
 20
0
 30
0
 70
128
 71
20
 72
5
 73
4
 74
4
 0
VERTEX
 8
MESH_390_F0
 10
0
 20
0
 30
0
 70
128
 71
21
 72
5
 73
20
 74
20
 0
VERTEX
 8
MESH_390_F0
 10
0
 20
0
 30
0
 70
128
 71
8
 72
21
 73
19
 74
19
 0
VERTEX
 8
MESH_390_F0
 10
0
 20
0
 30
0
 70
128
 71
8
 72
19
 73
9
 74
9
 0
VERTEX
 8
MESH_390_F0
 10
0
 20
0
 30
0
 70
128
 71
19
 72
16
 73
9
 74
9
 0
VERTEX
 8
MESH_390_F0
 10
0
 20
0
 30
0
 70
128
 71
16
 72
12
 73
9
 74
9
 0
VERTEX
 8
MESH_390_F0
 10
0
 20
0
 30
0
 70
128
 71
12
 72
11
 73
9
 74
9
 0
VERTEX
 8
MESH_390_F0
 10
0
 20
0
 30
0
 70
128
 71
11
 72
10
 73
9
 74
9
 0
VERTEX
 8
MESH_390_F0
 10
0
 20
0
 30
0
 70
128
 71
21
 72
6
 73
5
 74
5
 0
VERTEX
 8
MESH_390_F0
 10
0
 20
0
 30
0
 70
128
 71
7
 72
6
 73
21
 74
21
 0
VERTEX
 8
MESH_390_F0
 10
0
 20
0
 30
0
 70
128
 71
7
 72
21
 73
8
 74
8
 0
VERTEX
 8
MESH_390_F0
 10
0
 20
0
 30
0
 70
128
 71
17
 72
15
 73
14
 74
14
 0
VERTEX
 8
MESH_390_F0
 10
0
 20
0
 30
0
 70
128
 71
19
 72
18
 73
17
 74
16
 0
VERTEX
 8
MESH_390_F0
 10
0
 20
0
 30
0
 70
128
 71
18
 72
2
 73
17
 74
17
 0
VERTEX
 8
MESH_390_F0
 10
0
 20
0
 30
0
 70
128
 71
2
 72
1
 73
17
 74
17
 0
VERTEX
 8
MESH_390_F0
 10
0
 20
0
 30
0
 70
128
 71
21
 72
20
 73
18
 74
19
 0
VERTEX
 8
MESH_390_F0
 10
0
 20
0
 30
0
 70
128
 71
20
 72
3
 73
18
 74
18
 0
VERTEX
 8
MESH_390_F0
 10
0
 20
0
 30
0
 70
128
 71
3
 72
2
 73
18
 74
18
 0
SEQEND
 0
POLYLINE
 8
MESH_389_F0
 66
1
 10
0.0
 20
0.0
 30
0.0
 70
64
 71
18
 72
16
 0
VERTEX
 8
MESH_389_F0
 10
166.45
 20
243.2
 30
-94.35
 70
192
 0
VERTEX
 8
MESH_389_F0
 10
166.45
 20
257.2303
 30
-94.35
 70
192
 0
VERTEX
 8
MESH_389_F0
 10
167.3479
 20
257.1772
 30
-94.2563
 70
192
 0
VERTEX
 8
MESH_389_F0
 10
168.1773
 20
257.0665
 30
-93.9923
 70
192
 0
VERTEX
 8
MESH_389_F0
 10
168.9375
 20
257
 30
-93.5686
 70
192
 0
VERTEX
 8
MESH_389_F0
 10
170.3064
 20
257
 30
-92.0126
 70
192
 0
VERTEX
 8
MESH_389_F0
 10
170.8
 20
257
 30
-89.9999
 70
192
 0
VERTEX
 8
MESH_389_F0
 10
170.3063
 20
257
 30
-87.9872
 70
192
 0
VERTEX
 8
MESH_389_F0
 10
168.9374
 20
257
 30
-86.4314
 70
192
 0
VERTEX
 8
MESH_389_F0
 10
168.1753
 20
257.0667
 30
-86.0068
 70
192
 0
VERTEX
 8
MESH_389_F0
 10
167.3457
 20
257.1774
 30
-85.7432
 70
192
 0
VERTEX
 8
MESH_389_F0
 10
166.45
 20
257.2303
 30
-85.65
 70
192
 0
VERTEX
 8
MESH_389_F0
 10
166.45
 20
243.2
 30
-85.65
 70
192
 0
VERTEX
 8
MESH_389_F0
 10
168.625
 20
243.2
 30
-86.2328
 70
192
 0
VERTEX
 8
MESH_389_F0
 10
170.2172
 20
243.2
 30
-87.825
 70
192
 0
VERTEX
 8
MESH_389_F0
 10
170.8
 20
243.2
 30
-90
 70
192
 0
VERTEX
 8
MESH_389_F0
 10
170.2172
 20
243.2
 30
-92.175
 70
192
 0
VERTEX
 8
MESH_389_F0
 10
168.625
 20
243.2
 30
-93.7672
 70
192
 0
VERTEX
 8
MESH_389_F0
 10
0
 20
0
 30
0
 70
128
 71
1
 72
3
 73
2
 74
2
 0
VERTEX
 8
MESH_389_F0
 10
0
 20
0
 30
0
 70
128
 71
18
 72
3
 73
1
 74
1
 0
VERTEX
 8
MESH_389_F0
 10
0
 20
0
 30
0
 70
128
 71
4
 72
3
 73
18
 74
18
 0
VERTEX
 8
MESH_389_F0
 10
0
 20
0
 30
0
 70
128
 71
4
 72
18
 73
5
 74
5
 0
VERTEX
 8
MESH_389_F0
 10
0
 20
0
 30
0
 70
128
 71
18
 72
17
 73
5
 74
5
 0
VERTEX
 8
MESH_389_F0
 10
0
 20
0
 30
0
 70
128
 71
17
 72
6
 73
5
 74
5
 0
VERTEX
 8
MESH_389_F0
 10
0
 20
0
 30
0
 70
128
 71
16
 72
6
 73
17
 74
17
 0
VERTEX
 8
MESH_389_F0
 10
0
 20
0
 30
0
 70
128
 71
7
 72
6
 73
16
 74
16
 0
VERTEX
 8
MESH_389_F0
 10
0
 20
0
 30
0
 70
128
 71
7
 72
16
 73
8
 74
8
 0
VERTEX
 8
MESH_389_F0
 10
0
 20
0
 30
0
 70
128
 71
16
 72
15
 73
8
 74
8
 0
VERTEX
 8
MESH_389_F0
 10
0
 20
0
 30
0
 70
128
 71
15
 72
9
 73
8
 74
8
 0
VERTEX
 8
MESH_389_F0
 10
0
 20
0
 30
0
 70
128
 71
14
 72
9
 73
15
 74
15
 0
VERTEX
 8
MESH_389_F0
 10
0
 20
0
 30
0
 70
128
 71
10
 72
9
 73
14
 74
14
 0
VERTEX
 8
MESH_389_F0
 10
0
 20
0
 30
0
 70
128
 71
10
 72
14
 73
11
 74
11
 0
VERTEX
 8
MESH_389_F0
 10
0
 20
0
 30
0
 70
128
 71
14
 72
13
 73
11
 74
11
 0
VERTEX
 8
MESH_389_F0
 10
0
 20
0
 30
0
 70
128
 71
13
 72
12
 73
11
 74
11
 0
SEQEND
 0
POLYLINE
 8
MESH_388_F0
 66
1
 10
0.0
 20
0.0
 30
0.0
 70
64
 71
8
 72
6
 0
VERTEX
 8
MESH_388_F0
 10
130.55
 20
261.0461
 30
-82.85
 70
192
 0
VERTEX
 8
MESH_388_F0
 10
130.55
 20
260.2197
 30
-84.3077
 70
192
 0
VERTEX
 8
MESH_388_F0
 10
130.55
 20
258.8688
 30
-85.299
 70
192
 0
VERTEX
 8
MESH_388_F0
 10
130.55
 20
257.2303
 30
-85.65
 70
192
 0
VERTEX
 8
MESH_388_F0
 10
166.45
 20
257.2303
 30
-85.65
 70
192
 0
VERTEX
 8
MESH_388_F0
 10
166.45
 20
258.8688
 30
-85.299
 70
192
 0
VERTEX
 8
MESH_388_F0
 10
166.45
 20
260.2197
 30
-84.3077
 70
192
 0
VERTEX
 8
MESH_388_F0
 10
166.45
 20
261.0457
 30
-82.8499
 70
192
 0
VERTEX
 8
MESH_388_F0
 10
0
 20
0
 30
0
 70
128
 71
8
 72
2
 73
1
 74
1
 0
VERTEX
 8
MESH_388_F0
 10
0
 20
0
 30
0
 70
128
 71
7
 72
2
 73
8
 74
8
 0
VERTEX
 8
MESH_388_F0
 10
0
 20
0
 30
0
 70
128
 71
3
 72
2
 73
7
 74
7
 0
VERTEX
 8
MESH_388_F0
 10
0
 20
0
 30
0
 70
128
 71
4
 72
3
 73
6
 74
6
 0
VERTEX
 8
MESH_388_F0
 10
0
 20
0
 30
0
 70
128
 71
4
 72
6
 73
5
 74
5
 0
VERTEX
 8
MESH_388_F0
 10
0
 20
0
 30
0
 70
128
 71
3
 72
7
 73
6
 74
6
 0
SEQEND
 0
POLYLINE
 8
MESH_387_F0
 66
1
 10
0.0
 20
0.0
 30
0.0
 70
64
 71
4
 72
2
 0
VERTEX
 8
MESH_387_F0
 10
166.45
 20
243.2
 30
-85.65
 70
192
 0
VERTEX
 8
MESH_387_F0
 10
166.45
 20
257.2303
 30
-85.65
 70
192
 0
VERTEX
 8
MESH_387_F0
 10
130.55
 20
257.2303
 30
-85.65
 70
192
 0
VERTEX
 8
MESH_387_F0
 10
130.55
 20
243.2
 30
-85.65
 70
192
 0
VERTEX
 8
MESH_387_F0
 10
0
 20
0
 30
0
 70
128
 71
1
 72
3
 73
2
 74
2
 0
VERTEX
 8
MESH_387_F0
 10
0
 20
0
 30
0
 70
128
 71
4
 72
3
 73
1
 74
1
 0
SEQEND
 0
POLYLINE
 8
MESH_386_F0
 66
1
 10
0.0
 20
0.0
 30
0.0
 70
64
 71
8
 72
6
 0
VERTEX
 8
MESH_386_F0
 10
166.45
 20
243
 30
-85.85
 70
192
 0
VERTEX
 8
MESH_386_F0
 10
166.45
 20
243.0268
 30
-85.75
 70
192
 0
VERTEX
 8
MESH_386_F0
 10
166.45
 20
243.1
 30
-85.6768
 70
192
 0
VERTEX
 8
MESH_386_F0
 10
166.45
 20
243.2
 30
-85.65
 70
192
 0
VERTEX
 8
MESH_386_F0
 10
130.55
 20
243.2
 30
-85.65
 70
192
 0
VERTEX
 8
MESH_386_F0
 10
130.55
 20
243.1
 30
-85.6768
 70
192
 0
VERTEX
 8
MESH_386_F0
 10
130.55
 20
243.0268
 30
-85.75
 70
192
 0
VERTEX
 8
MESH_386_F0
 10
130.55
 20
243
 30
-85.85
 70
192
 0
VERTEX
 8
MESH_386_F0
 10
0
 20
0
 30
0
 70
128
 71
7
 72
1
 73
8
 74
8
 0
VERTEX
 8
MESH_386_F0
 10
0
 20
0
 30
0
 70
128
 71
2
 72
1
 73
7
 74
7
 0
VERTEX
 8
MESH_386_F0
 10
0
 20
0
 30
0
 70
128
 71
2
 72
7
 73
3
 74
3
 0
VERTEX
 8
MESH_386_F0
 10
0
 20
0
 30
0
 70
128
 71
7
 72
6
 73
3
 74
3
 0
VERTEX
 8
MESH_386_F0
 10
0
 20
0
 30
0
 70
128
 71
6
 72
5
 73
3
 74
3
 0
VERTEX
 8
MESH_386_F0
 10
0
 20
0
 30
0
 70
128
 71
5
 72
4
 73
3
 74
3
 0
SEQEND
 0
POLYLINE
 8
MESH_385_F0
 66
1
 10
0.0
 20
0.0
 30
0.0
 70
64
 71
36
 72
42
 0
VERTEX
 8
MESH_385_F0
 10
166.45
 20
243
 30
-94.15
 70
192
 0
VERTEX
 8
MESH_385_F0
 10
166.45
 20
243.0268
 30
-94.25
 70
192
 0
VERTEX
 8
MESH_385_F0
 10
166.45
 20
243.1
 30
-94.3232
 70
192
 0
VERTEX
 8
MESH_385_F0
 10
166.45
 20
243.2
 30
-94.35
 70
192
 0
VERTEX
 8
MESH_385_F0
 10
168.625
 20
243.2
 30
-93.7672
 70
192
 0
VERTEX
 8
MESH_385_F0
 10
170.2172
 20
243.2
 30
-92.175
 70
192
 0
VERTEX
 8
MESH_385_F0
 10
170.8
 20
243.2
 30
-90
 70
192
 0
VERTEX
 8
MESH_385_F0
 10
170.2172
 20
243.2
 30
-87.825
 70
192
 0
VERTEX
 8
MESH_385_F0
 10
168.625
 20
243.2
 30
-86.2328
 70
192
 0
VERTEX
 8
MESH_385_F0
 10
166.45
 20
243.2
 30
-85.65
 70
192
 0
VERTEX
 8
MESH_385_F0
 10
166.45
 20
243.1
 30
-85.6768
 70
192
 0
VERTEX
 8
MESH_385_F0
 10
166.45
 20
243.0268
 30
-85.75
 70
192
 0
VERTEX
 8
MESH_385_F0
 10
166.45
 20
243
 30
-85.85
 70
192
 0
VERTEX
 8
MESH_385_F0
 10
168.525
 20
243
 30
-86.406
 70
192
 0
VERTEX
 8
MESH_385_F0
 10
170.044
 20
243
 30
-87.925
 70
192
 0
VERTEX
 8
MESH_385_F0
 10
170.5999
 20
243
 30
-90
 70
192
 0
VERTEX
 8
MESH_385_F0
 10
170.044
 20
243
 30
-92.075
 70
192
 0
VERTEX
 8
MESH_385_F0
 10
168.525
 20
243
 30
-93.594
 70
192
 0
VERTEX
 8
MESH_385_F0
 10
168.3258
 20
243.1
 30
-93.8951
 70
192
 0
VERTEX
 8
MESH_385_F0
 10
168.294
 20
243.0268
 30
-93.8291
 70
192
 0
VERTEX
 8
MESH_385_F0
 10
168.0742
 20
243.008
 30
-93.8797
 70
192
 0
VERTEX
 8
MESH_385_F0
 10
169.83
 20
243.1
 30
-92.6955
 70
192
 0
VERTEX
 8
MESH_385_F0
 10
169.7728
 20
243.0268
 30
-92.6498
 70
192
 0
VERTEX
 8
MESH_385_F0
 10
169.623
 20
243.0079
 30
-92.7606
 70
192
 0
VERTEX
 8
MESH_385_F0
 10
170.6648
 20
243.1
 30
-90.962
 70
192
 0
VERTEX
 8
MESH_385_F0
 10
170.5934
 20
243.0268
 30
-90.9457
 70
192
 0
VERTEX
 8
MESH_385_F0
 10
170.5333
 20
243.0079
 30
-91.0073
 70
192
 0
VERTEX
 8
MESH_385_F0
 10
170.6648
 20
243.1
 30
-89.038
 70
192
 0
VERTEX
 8
MESH_385_F0
 10
170.5934
 20
243.0268
 30
-89.0543
 70
192
 0
VERTEX
 8
MESH_385_F0
 10
170.5432
 20
243.0079
 30
-89.0335
 70
192
 0
VERTEX
 8
MESH_385_F0
 10
169.83
 20
243.1
 30
-87.3045
 70
192
 0
VERTEX
 8
MESH_385_F0
 10
169.7728
 20
243.0268
 30
-87.3502
 70
192
 0
VERTEX
 8
MESH_385_F0
 10
169.6987
 20
243.008
 30
-87.3287
 70
192
 0
VERTEX
 8
MESH_385_F0
 10
168.3258
 20
243.1
 30
-86.1049
 70
192
 0
VERTEX
 8
MESH_385_F0
 10
168.294
 20
243.0268
 30
-86.1709
 70
192
 0
VERTEX
 8
MESH_385_F0
 10
168.4571
 20
243.0065
 30
-86.3098
 70
192
 0
VERTEX
 8
MESH_385_F0
 10
0
 20
0
 30
0
 70
128
 71
21
 72
1
 73
18
 74
18
 0
VERTEX
 8
MESH_385_F0
 10
0
 20
0
 30
0
 70
128
 71
23
 72
20
 73
21
 74
24
 0
VERTEX
 8
MESH_385_F0
 10
0
 20
0
 30
0
 70
128
 71
24
 72
27
 73
26
 74
23
 0
VERTEX
 8
MESH_385_F0
 10
0
 20
0
 30
0
 70
128
 71
19
 72
20
 73
23
 74
22
 0
VERTEX
 8
MESH_385_F0
 10
0
 20
0
 30
0
 70
128
 71
22
 72
5
 73
19
 74
19
 0
VERTEX
 8
MESH_385_F0
 10
0
 20
0
 30
0
 70
128
 71
5
 72
4
 73
19
 74
19
 0
VERTEX
 8
MESH_385_F0
 10
0
 20
0
 30
0
 70
128
 71
4
 72
3
 73
19
 74
19
 0
VERTEX
 8
MESH_385_F0
 10
0
 20
0
 30
0
 70
128
 71
3
 72
20
 73
19
 74
19
 0
VERTEX
 8
MESH_385_F0
 10
0
 20
0
 30
0
 70
128
 71
2
 72
20
 73
3
 74
3
 0
VERTEX
 8
MESH_385_F0
 10
0
 20
0
 30
0
 70
128
 71
21
 72
20
 73
2
 74
2
 0
VERTEX
 8
MESH_385_F0
 10
0
 20
0
 30
0
 70
128
 71
21
 72
2
 73
1
 74
1
 0
VERTEX
 8
MESH_385_F0
 10
0
 20
0
 30
0
 70
128
 71
22
 72
6
 73
5
 74
5
 0
VERTEX
 8
MESH_385_F0
 10
0
 20
0
 30
0
 70
128
 71
25
 72
6
 73
22
 74
22
 0
VERTEX
 8
MESH_385_F0
 10
0
 20
0
 30
0
 70
128
 71
29
 72
28
 73
25
 74
26
 0
VERTEX
 8
MESH_385_F0
 10
0
 20
0
 30
0
 70
128
 71
26
 72
27
 73
30
 74
29
 0
VERTEX
 8
MESH_385_F0
 10
0
 20
0
 30
0
 70
128
 71
31
 72
28
 73
29
 74
32
 0
VERTEX
 8
MESH_385_F0
 10
0
 20
0
 30
0
 70
128
 71
32
 72
35
 73
34
 74
31
 0
VERTEX
 8
MESH_385_F0
 10
0
 20
0
 30
0
 70
128
 71
8
 72
31
 73
9
 74
9
 0
VERTEX
 8
MESH_385_F0
 10
0
 20
0
 30
0
 70
128
 71
31
 72
34
 73
9
 74
9
 0
VERTEX
 8
MESH_385_F0
 10
0
 20
0
 30
0
 70
128
 71
34
 72
10
 73
9
 74
9
 0
VERTEX
 8
MESH_385_F0
 10
0
 20
0
 30
0
 70
128
 71
11
 72
10
 73
34
 74
34
 0
VERTEX
 8
MESH_385_F0
 10
0
 20
0
 30
0
 70
128
 71
11
 72
34
 73
12
 74
12
 0
VERTEX
 8
MESH_385_F0
 10
0
 20
0
 30
0
 70
128
 71
34
 72
35
 73
12
 74
12
 0
VERTEX
 8
MESH_385_F0
 10
0
 20
0
 30
0
 70
128
 71
35
 72
13
 73
12
 74
12
 0
VERTEX
 8
MESH_385_F0
 10
0
 20
0
 30
0
 70
128
 71
36
 72
13
 73
35
 74
35
 0
VERTEX
 8
MESH_385_F0
 10
0
 20
0
 30
0
 70
128
 71
14
 72
36
 73
33
 74
33
 0
VERTEX
 8
MESH_385_F0
 10
0
 20
0
 30
0
 70
128
 71
14
 72
33
 73
15
 74
15
 0
VERTEX
 8
MESH_385_F0
 10
0
 20
0
 30
0
 70
128
 71
33
 72
30
 73
15
 74
15
 0
VERTEX
 8
MESH_385_F0
 10
0
 20
0
 30
0
 70
128
 71
30
 72
16
 73
15
 74
15
 0
VERTEX
 8
MESH_385_F0
 10
0
 20
0
 30
0
 70
128
 71
27
 72
16
 73
30
 74
30
 0
VERTEX
 8
MESH_385_F0
 10
0
 20
0
 30
0
 70
128
 71
17
 72
16
 73
27
 74
27
 0
VERTEX
 8
MESH_385_F0
 10
0
 20
0
 30
0
 70
128
 71
18
 72
17
 73
24
 74
24
 0
VERTEX
 8
MESH_385_F0
 10
0
 20
0
 30
0
 70
128
 71
18
 72
24
 73
21
 74
21
 0
VERTEX
 8
MESH_385_F0
 10
0
 20
0
 30
0
 70
128
 71
25
 72
7
 73
6
 74
6
 0
VERTEX
 8
MESH_385_F0
 10
0
 20
0
 30
0
 70
128
 71
28
 72
7
 73
25
 74
25
 0
VERTEX
 8
MESH_385_F0
 10
0
 20
0
 30
0
 70
128
 71
8
 72
7
 73
28
 74
28
 0
VERTEX
 8
MESH_385_F0
 10
0
 20
0
 30
0
 70
128
 71
8
 72
28
 73
31
 74
31
 0
VERTEX
 8
MESH_385_F0
 10
0
 20
0
 30
0
 70
128
 71
36
 72
14
 73
13
 74
13
 0
VERTEX
 8
MESH_385_F0
 10
0
 20
0
 30
0
 70
128
 71
26
 72
25
 73
22
 74
23
 0
VERTEX
 8
MESH_385_F0
 10
0
 20
0
 30
0
 70
128
 71
17
 72
27
 73
24
 74
24
 0
VERTEX
 8
MESH_385_F0
 10
0
 20
0
 30
0
 70
128
 71
33
 72
32
 73
29
 74
30
 0
VERTEX
 8
MESH_385_F0
 10
0
 20
0
 30
0
 70
128
 71
36
 72
35
 73
32
 74
33
 0
SEQEND
 0
POLYLINE
 8
MESH_384_F0
 66
1
 10
0.0
 20
0.0
 30
0.0
 70
64
 71
66
 72
70
 0
VERTEX
 8
MESH_384_F0
 10
166.45
 20
243
 30
-85.85
 70
192
 0
VERTEX
 8
MESH_384_F0
 10
130.55
 20
243
 30
-85.85
 70
192
 0
VERTEX
 8
MESH_384_F0
 10
128.475
 20
243
 30
-86.406
 70
192
 0
VERTEX
 8
MESH_384_F0
 10
126.956
 20
243
 30
-87.925
 70
192
 0
VERTEX
 8
MESH_384_F0
 10
126.4
 20
243
 30
-90
 70
192
 0
VERTEX
 8
MESH_384_F0
 10
126.956
 20
243
 30
-92.075
 70
192
 0
VERTEX
 8
MESH_384_F0
 10
128.475
 20
243
 30
-93.594
 70
192
 0
VERTEX
 8
MESH_384_F0
 10
130.55
 20
243
 30
-94.15
 70
192
 0
VERTEX
 8
MESH_384_F0
 10
166.45
 20
243
 30
-94.15
 70
192
 0
VERTEX
 8
MESH_384_F0
 10
168.525
 20
243
 30
-93.594
 70
192
 0
VERTEX
 8
MESH_384_F0
 10
170.044
 20
243
 30
-92.075
 70
192
 0
VERTEX
 8
MESH_384_F0
 10
170.5999
 20
243
 30
-90
 70
192
 0
VERTEX
 8
MESH_384_F0
 10
170.044
 20
243
 30
-87.925
 70
192
 0
VERTEX
 8
MESH_384_F0
 10
168.525
 20
243
 30
-86.406
 70
192
 0
VERTEX
 8
MESH_384_F0
 10
166.15
 20
243
 30
-90
 70
192
 0
VERTEX
 8
MESH_384_F0
 10
165.6667
 20
243
 30
-91.1667
 70
192
 0
VERTEX
 8
MESH_384_F0
 10
164.5
 20
243
 30
-91.65
 70
192
 0
VERTEX
 8
MESH_384_F0
 10
163.3333
 20
243
 30
-91.1667
 70
192
 0
VERTEX
 8
MESH_384_F0
 10
162.85
 20
243
 30
-90
 70
192
 0
VERTEX
 8
MESH_384_F0
 10
163.3333
 20
243
 30
-88.8333
 70
192
 0
VERTEX
 8
MESH_384_F0
 10
164.5
 20
243
 30
-88.35
 70
192
 0
VERTEX
 8
MESH_384_F0
 10
165.6667
 20
243
 30
-88.8333
 70
192
 0
VERTEX
 8
MESH_384_F0
 10
134.15
 20
243
 30
-90
 70
192
 0
VERTEX
 8
MESH_384_F0
 10
133.6667
 20
243
 30
-91.1667
 70
192
 0
VERTEX
 8
MESH_384_F0
 10
132.5
 20
243
 30
-91.65
 70
192
 0
VERTEX
 8
MESH_384_F0
 10
131.3333
 20
243
 30
-91.1667
 70
192
 0
VERTEX
 8
MESH_384_F0
 10
130.85
 20
243
 30
-90
 70
192
 0
VERTEX
 8
MESH_384_F0
 10
131.3333
 20
243
 30
-88.8333
 70
192
 0
VERTEX
 8
MESH_384_F0
 10
132.5
 20
243
 30
-88.35
 70
192
 0
VERTEX
 8
MESH_384_F0
 10
133.6667
 20
243
 30
-88.8333
 70
192
 0
VERTEX
 8
MESH_384_F0
 10
134.9868
 20
243
 30
-91.5003
 70
192
 0
VERTEX
 8
MESH_384_F0
 10
135.3569
 20
243
 30
-90.5226
 70
192
 0
VERTEX
 8
MESH_384_F0
 10
135.3569
 20
243
 30
-89.4773
 70
192
 0
VERTEX
 8
MESH_384_F0
 10
134.9868
 20
243
 30
-88.4997
 70
192
 0
VERTEX
 8
MESH_384_F0
 10
134.8432
 20
243
 30
-88.1521
 70
192
 0
VERTEX
 8
MESH_384_F0
 10
134.8094
 20
243
 30
-87.7777
 70
192
 0
VERTEX
 8
MESH_384_F0
 10
134.8885
 20
243
 30
-87.4103
 70
192
 0
VERTEX
 8
MESH_384_F0
 10
135.0732
 20
243
 30
-87.083
 70
192
 0
VERTEX
 8
MESH_384_F0
 10
135.347
 20
243
 30
-86.8254
 70
192
 0
VERTEX
 8
MESH_384_F0
 10
135.685
 20
243
 30
-86.6609
 70
192
 0
VERTEX
 8
MESH_384_F0
 10
136.057
 20
243
 30
-86.6043
 70
192
 0
VERTEX
 8
MESH_384_F0
 10
160.943
 20
243
 30
-86.6043
 70
192
 0
VERTEX
 8
MESH_384_F0
 10
161.3149
 20
243
 30
-86.6609
 70
192
 0
VERTEX
 8
MESH_384_F0
 10
161.6529
 20
243
 30
-86.8253
 70
192
 0
VERTEX
 8
MESH_384_F0
 10
161.9267
 20
243
 30
-87.0829
 70
192
 0
VERTEX
 8
MESH_384_F0
 10
162.1115
 20
243
 30
-87.4101
 70
192
 0
VERTEX
 8
MESH_384_F0
 10
162.1906
 20
243
 30
-87.7776
 70
192
 0
VERTEX
 8
MESH_384_F0
 10
162.1569
 20
243
 30
-88.152
 70
192
 0
VERTEX
 8
MESH_384_F0
 10
162.0132
 20
243
 30
-88.4997
 70
192
 0
VERTEX
 8
MESH_384_F0
 10
161.6431
 20
243
 30
-89.4773
 70
192
 0
VERTEX
 8
MESH_384_F0
 10
161.6431
 20
243
 30
-90.5226
 70
192
 0
VERTEX
 8
MESH_384_F0
 10
162.0132
 20
243
 30
-91.5003
 70
192
 0
VERTEX
 8
MESH_384_F0
 10
162.1568
 20
243
 30
-91.8479
 70
192
 0
VERTEX
 8
MESH_384_F0
 10
162.1906
 20
243
 30
-92.2223
 70
192
 0
VERTEX
 8
MESH_384_F0
 10
162.1115
 20
243
 30
-92.5897
 70
192
 0
VERTEX
 8
MESH_384_F0
 10
161.9268
 20
243
 30
-92.917
 70
192
 0
VERTEX
 8
MESH_384_F0
 10
161.653
 20
243
 30
-93.1746
 70
192
 0
VERTEX
 8
MESH_384_F0
 10
161.315
 20
243
 30
-93.3391
 70
192
 0
VERTEX
 8
MESH_384_F0
 10
160.943
 20
243
 30
-93.3957
 70
192
 0
VERTEX
 8
MESH_384_F0
 10
136.057
 20
243
 30
-93.3956
 70
192
 0
VERTEX
 8
MESH_384_F0
 10
135.6851
 20
243
 30
-93.3391
 70
192
 0
VERTEX
 8
MESH_384_F0
 10
135.3471
 20
243
 30
-93.1746
 70
192
 0
VERTEX
 8
MESH_384_F0
 10
135.0733
 20
243
 30
-92.9171
 70
192
 0
VERTEX
 8
MESH_384_F0
 10
134.8885
 20
243
 30
-92.5899
 70
192
 0
VERTEX
 8
MESH_384_F0
 10
134.8094
 20
243
 30
-92.2224
 70
192
 0
VERTEX
 8
MESH_384_F0
 10
134.8431
 20
243
 30
-91.8479
 70
192
 0
VERTEX
 8
MESH_384_F0
 10
0
 20
0
 30
0
 70
128
 71
2
 72
41
 73
40
 74
40
 0
VERTEX
 8
MESH_384_F0
 10
0
 20
0
 30
0
 70
128
 71
2
 72
40
 73
3
 74
3
 0
VERTEX
 8
MESH_384_F0
 10
0
 20
0
 30
0
 70
128
 71
40
 72
39
 73
3
 74
3
 0
VERTEX
 8
MESH_384_F0
 10
0
 20
0
 30
0
 70
128
 71
39
 72
38
 73
3
 74
3
 0
VERTEX
 8
MESH_384_F0
 10
0
 20
0
 30
0
 70
128
 71
38
 72
37
 73
3
 74
3
 0
VERTEX
 8
MESH_384_F0
 10
0
 20
0
 30
0
 70
128
 71
37
 72
4
 73
3
 74
3
 0
VERTEX
 8
MESH_384_F0
 10
0
 20
0
 30
0
 70
128
 71
36
 72
4
 73
37
 74
37
 0
VERTEX
 8
MESH_384_F0
 10
0
 20
0
 30
0
 70
128
 71
29
 72
4
 73
36
 74
36
 0
VERTEX
 8
MESH_384_F0
 10
0
 20
0
 30
0
 70
128
 71
34
 72
29
 73
35
 74
35
 0
VERTEX
 8
MESH_384_F0
 10
0
 20
0
 30
0
 70
128
 71
29
 72
36
 73
35
 74
35
 0
VERTEX
 8
MESH_384_F0
 10
0
 20
0
 30
0
 70
128
 71
28
 72
4
 73
29
 74
29
 0
VERTEX
 8
MESH_384_F0
 10
0
 20
0
 30
0
 70
128
 71
5
 72
4
 73
28
 74
28
 0
VERTEX
 8
MESH_384_F0
 10
0
 20
0
 30
0
 70
128
 71
26
 72
5
 73
27
 74
27
 0
VERTEX
 8
MESH_384_F0
 10
0
 20
0
 30
0
 70
128
 71
5
 72
28
 73
27
 74
27
 0
VERTEX
 8
MESH_384_F0
 10
0
 20
0
 30
0
 70
128
 71
26
 72
6
 73
5
 74
5
 0
VERTEX
 8
MESH_384_F0
 10
0
 20
0
 30
0
 70
128
 71
25
 72
6
 73
26
 74
26
 0
VERTEX
 8
MESH_384_F0
 10
0
 20
0
 30
0
 70
128
 71
65
 72
6
 73
25
 74
25
 0
VERTEX
 8
MESH_384_F0
 10
0
 20
0
 30
0
 70
128
 71
65
 72
25
 73
66
 74
66
 0
VERTEX
 8
MESH_384_F0
 10
0
 20
0
 30
0
 70
128
 71
25
 72
31
 73
66
 74
66
 0
VERTEX
 8
MESH_384_F0
 10
0
 20
0
 30
0
 70
128
 71
24
 72
31
 73
25
 74
25
 0
VERTEX
 8
MESH_384_F0
 10
0
 20
0
 30
0
 70
128
 71
32
 72
31
 73
24
 74
24
 0
VERTEX
 8
MESH_384_F0
 10
0
 20
0
 30
0
 70
128
 71
33
 72
32
 73
23
 74
23
 0
VERTEX
 8
MESH_384_F0
 10
0
 20
0
 30
0
 70
128
 71
34
 72
33
 73
30
 74
30
 0
VERTEX
 8
MESH_384_F0
 10
0
 20
0
 30
0
 70
128
 71
34
 72
30
 73
29
 74
29
 0
VERTEX
 8
MESH_384_F0
 10
0
 20
0
 30
0
 70
128
 71
64
 72
6
 73
65
 74
65
 0
VERTEX
 8
MESH_384_F0
 10
0
 20
0
 30
0
 70
128
 71
7
 72
6
 73
64
 74
64
 0
VERTEX
 8
MESH_384_F0
 10
0
 20
0
 30
0
 70
128
 71
62
 72
7
 73
63
 74
63
 0
VERTEX
 8
MESH_384_F0
 10
0
 20
0
 30
0
 70
128
 71
7
 72
64
 73
63
 74
63
 0
VERTEX
 8
MESH_384_F0
 10
0
 20
0
 30
0
 70
128
 71
61
 72
7
 73
62
 74
62
 0
VERTEX
 8
MESH_384_F0
 10
0
 20
0
 30
0
 70
128
 71
8
 72
7
 73
61
 74
61
 0
VERTEX
 8
MESH_384_F0
 10
0
 20
0
 30
0
 70
128
 71
9
 72
8
 73
60
 74
60
 0
VERTEX
 8
MESH_384_F0
 10
0
 20
0
 30
0
 70
128
 71
58
 72
9
 73
59
 74
59
 0
VERTEX
 8
MESH_384_F0
 10
0
 20
0
 30
0
 70
128
 71
9
 72
60
 73
59
 74
59
 0
VERTEX
 8
MESH_384_F0
 10
0
 20
0
 30
0
 70
128
 71
58
 72
10
 73
9
 74
9
 0
VERTEX
 8
MESH_384_F0
 10
0
 20
0
 30
0
 70
128
 71
57
 72
10
 73
58
 74
58
 0
VERTEX
 8
MESH_384_F0
 10
0
 20
0
 30
0
 70
128
 71
56
 72
10
 73
57
 74
57
 0
VERTEX
 8
MESH_384_F0
 10
0
 20
0
 30
0
 70
128
 71
55
 72
10
 73
56
 74
56
 0
VERTEX
 8
MESH_384_F0
 10
0
 20
0
 30
0
 70
128
 71
11
 72
10
 73
55
 74
55
 0
VERTEX
 8
MESH_384_F0
 10
0
 20
0
 30
0
 70
128
 71
17
 72
11
 73
54
 74
54
 0
VERTEX
 8
MESH_384_F0
 10
0
 20
0
 30
0
 70
128
 71
52
 72
17
 73
53
 74
53
 0
VERTEX
 8
MESH_384_F0
 10
0
 20
0
 30
0
 70
128
 71
17
 72
54
 73
53
 74
53
 0
VERTEX
 8
MESH_384_F0
 10
0
 20
0
 30
0
 70
128
 71
16
 72
11
 73
17
 74
17
 0
VERTEX
 8
MESH_384_F0
 10
0
 20
0
 30
0
 70
128
 71
12
 72
11
 73
16
 74
16
 0
VERTEX
 8
MESH_384_F0
 10
0
 20
0
 30
0
 70
128
 71
22
 72
12
 73
15
 74
15
 0
VERTEX
 8
MESH_384_F0
 10
0
 20
0
 30
0
 70
128
 71
12
 72
16
 73
15
 74
15
 0
VERTEX
 8
MESH_384_F0
 10
0
 20
0
 30
0
 70
128
 71
22
 72
13
 73
12
 74
12
 0
VERTEX
 8
MESH_384_F0
 10
0
 20
0
 30
0
 70
128
 71
21
 72
13
 73
22
 74
22
 0
VERTEX
 8
MESH_384_F0
 10
0
 20
0
 30
0
 70
128
 71
47
 72
13
 73
21
 74
21
 0
VERTEX
 8
MESH_384_F0
 10
0
 20
0
 30
0
 70
128
 71
47
 72
21
 73
48
 74
48
 0
VERTEX
 8
MESH_384_F0
 10
0
 20
0
 30
0
 70
128
 71
21
 72
49
 73
48
 74
48
 0
VERTEX
 8
MESH_384_F0
 10
0
 20
0
 30
0
 70
128
 71
20
 72
49
 73
21
 74
21
 0
VERTEX
 8
MESH_384_F0
 10
0
 20
0
 30
0
 70
128
 71
50
 72
49
 73
20
 74
20
 0
VERTEX
 8
MESH_384_F0
 10
0
 20
0
 30
0
 70
128
 71
51
 72
50
 73
19
 74
19
 0
VERTEX
 8
MESH_384_F0
 10
0
 20
0
 30
0
 70
128
 71
52
 72
51
 73
18
 74
18
 0
VERTEX
 8
MESH_384_F0
 10
0
 20
0
 30
0
 70
128
 71
52
 72
18
 73
17
 74
17
 0
VERTEX
 8
MESH_384_F0
 10
0
 20
0
 30
0
 70
128
 71
46
 72
13
 73
47
 74
47
 0
VERTEX
 8
MESH_384_F0
 10
0
 20
0
 30
0
 70
128
 71
14
 72
13
 73
46
 74
46
 0
VERTEX
 8
MESH_384_F0
 10
0
 20
0
 30
0
 70
128
 71
44
 72
14
 73
45
 74
45
 0
VERTEX
 8
MESH_384_F0
 10
0
 20
0
 30
0
 70
128
 71
14
 72
46
 73
45
 74
45
 0
VERTEX
 8
MESH_384_F0
 10
0
 20
0
 30
0
 70
128
 71
43
 72
14
 73
44
 74
44
 0
VERTEX
 8
MESH_384_F0
 10
0
 20
0
 30
0
 70
128
 71
1
 72
14
 73
43
 74
43
 0
VERTEX
 8
MESH_384_F0
 10
0
 20
0
 30
0
 70
128
 71
2
 72
1
 73
42
 74
42
 0
VERTEX
 8
MESH_384_F0
 10
0
 20
0
 30
0
 70
128
 71
2
 72
42
 73
41
 74
41
 0
VERTEX
 8
MESH_384_F0
 10
0
 20
0
 30
0
 70
128
 71
51
 72
19
 73
18
 74
18
 0
VERTEX
 8
MESH_384_F0
 10
0
 20
0
 30
0
 70
128
 71
50
 72
20
 73
19
 74
19
 0
VERTEX
 8
MESH_384_F0
 10
0
 20
0
 30
0
 70
128
 71
32
 72
24
 73
23
 74
23
 0
VERTEX
 8
MESH_384_F0
 10
0
 20
0
 30
0
 70
128
 71
33
 72
23
 73
30
 74
30
 0
VERTEX
 8
MESH_384_F0
 10
0
 20
0
 30
0
 70
128
 71
1
 72
43
 73
42
 74
42
 0
VERTEX
 8
MESH_384_F0
 10
0
 20
0
 30
0
 70
128
 71
11
 72
55
 73
54
 74
54
 0
VERTEX
 8
MESH_384_F0
 10
0
 20
0
 30
0
 70
128
 71
8
 72
61
 73
60
 74
60
 0
SEQEND
 0
POLYLINE
 8
MESH_383_F0
 66
1
 10
0.0
 20
0.0
 30
0.0
 70
64
 71
36
 72
42
 0
VERTEX
 8
MESH_383_F0
 10
130.55
 20
243
 30
-85.85
 70
192
 0
VERTEX
 8
MESH_383_F0
 10
130.55
 20
243.0268
 30
-85.75
 70
192
 0
VERTEX
 8
MESH_383_F0
 10
130.55
 20
243.1
 30
-85.6768
 70
192
 0
VERTEX
 8
MESH_383_F0
 10
130.55
 20
243.2
 30
-85.65
 70
192
 0
VERTEX
 8
MESH_383_F0
 10
128.375
 20
243.2
 30
-86.2328
 70
192
 0
VERTEX
 8
MESH_383_F0
 10
126.7828
 20
243.2
 30
-87.825
 70
192
 0
VERTEX
 8
MESH_383_F0
 10
126.2
 20
243.2
 30
-90
 70
192
 0
VERTEX
 8
MESH_383_F0
 10
126.7828
 20
243.2
 30
-92.175
 70
192
 0
VERTEX
 8
MESH_383_F0
 10
128.375
 20
243.2
 30
-93.7672
 70
192
 0
VERTEX
 8
MESH_383_F0
 10
130.55
 20
243.2
 30
-94.35
 70
192
 0
VERTEX
 8
MESH_383_F0
 10
130.55
 20
243.1
 30
-94.3232
 70
192
 0
VERTEX
 8
MESH_383_F0
 10
130.55
 20
243.0268
 30
-94.25
 70
192
 0
VERTEX
 8
MESH_383_F0
 10
130.55
 20
243
 30
-94.15
 70
192
 0
VERTEX
 8
MESH_383_F0
 10
128.475
 20
243
 30
-93.594
 70
192
 0
VERTEX
 8
MESH_383_F0
 10
126.956
 20
243
 30
-92.075
 70
192
 0
VERTEX
 8
MESH_383_F0
 10
126.4
 20
243
 30
-90
 70
192
 0
VERTEX
 8
MESH_383_F0
 10
126.956
 20
243
 30
-87.925
 70
192
 0
VERTEX
 8
MESH_383_F0
 10
128.475
 20
243
 30
-86.406
 70
192
 0
VERTEX
 8
MESH_383_F0
 10
128.6742
 20
243.1
 30
-86.1049
 70
192
 0
VERTEX
 8
MESH_383_F0
 10
128.706
 20
243.0268
 30
-86.1709
 70
192
 0
VERTEX
 8
MESH_383_F0
 10
128.9259
 20
243.008
 30
-86.1203
 70
192
 0
VERTEX
 8
MESH_383_F0
 10
127.17
 20
243.1
 30
-87.3045
 70
192
 0
VERTEX
 8
MESH_383_F0
 10
127.2272
 20
243.0268
 30
-87.3502
 70
192
 0
VERTEX
 8
MESH_383_F0
 10
127.377
 20
243.0079
 30
-87.2394
 70
192
 0
VERTEX
 8
MESH_383_F0
 10
126.3352
 20
243.1
 30
-89.038
 70
192
 0
VERTEX
 8
MESH_383_F0
 10
126.4065
 20
243.0268
 30
-89.0543
 70
192
 0
VERTEX
 8
MESH_383_F0
 10
126.4667
 20
243.0079
 30
-88.9927
 70
192
 0
VERTEX
 8
MESH_383_F0
 10
126.3352
 20
243.1
 30
-90.962
 70
192
 0
VERTEX
 8
MESH_383_F0
 10
126.4065
 20
243.0268
 30
-90.9457
 70
192
 0
VERTEX
 8
MESH_383_F0
 10
126.4568
 20
243.0079
 30
-90.9664
 70
192
 0
VERTEX
 8
MESH_383_F0
 10
127.17
 20
243.1
 30
-92.6955
 70
192
 0
VERTEX
 8
MESH_383_F0
 10
127.2272
 20
243.0268
 30
-92.6498
 70
192
 0
VERTEX
 8
MESH_383_F0
 10
127.3013
 20
243.008
 30
-92.6713
 70
192
 0
VERTEX
 8
MESH_383_F0
 10
128.6742
 20
243.1
 30
-93.8951
 70
192
 0
VERTEX
 8
MESH_383_F0
 10
128.706
 20
243.0268
 30
-93.8291
 70
192
 0
VERTEX
 8
MESH_383_F0
 10
128.5429
 20
243.0065
 30
-93.6902
 70
192
 0
VERTEX
 8
MESH_383_F0
 10
0
 20
0
 30
0
 70
128
 71
21
 72
1
 73
18
 74
18
 0
VERTEX
 8
MESH_383_F0
 10
0
 20
0
 30
0
 70
128
 71
23
 72
20
 73
21
 74
24
 0
VERTEX
 8
MESH_383_F0
 10
0
 20
0
 30
0
 70
128
 71
24
 72
27
 73
26
 74
23
 0
VERTEX
 8
MESH_383_F0
 10
0
 20
0
 30
0
 70
128
 71
19
 72
20
 73
23
 74
22
 0
VERTEX
 8
MESH_383_F0
 10
0
 20
0
 30
0
 70
128
 71
22
 72
5
 73
19
 74
19
 0
VERTEX
 8
MESH_383_F0
 10
0
 20
0
 30
0
 70
128
 71
5
 72
4
 73
19
 74
19
 0
VERTEX
 8
MESH_383_F0
 10
0
 20
0
 30
0
 70
128
 71
4
 72
3
 73
19
 74
19
 0
VERTEX
 8
MESH_383_F0
 10
0
 20
0
 30
0
 70
128
 71
3
 72
20
 73
19
 74
19
 0
VERTEX
 8
MESH_383_F0
 10
0
 20
0
 30
0
 70
128
 71
2
 72
20
 73
3
 74
3
 0
VERTEX
 8
MESH_383_F0
 10
0
 20
0
 30
0
 70
128
 71
21
 72
20
 73
2
 74
2
 0
VERTEX
 8
MESH_383_F0
 10
0
 20
0
 30
0
 70
128
 71
21
 72
2
 73
1
 74
1
 0
VERTEX
 8
MESH_383_F0
 10
0
 20
0
 30
0
 70
128
 71
22
 72
6
 73
5
 74
5
 0
VERTEX
 8
MESH_383_F0
 10
0
 20
0
 30
0
 70
128
 71
25
 72
6
 73
22
 74
22
 0
VERTEX
 8
MESH_383_F0
 10
0
 20
0
 30
0
 70
128
 71
29
 72
28
 73
25
 74
26
 0
VERTEX
 8
MESH_383_F0
 10
0
 20
0
 30
0
 70
128
 71
26
 72
27
 73
30
 74
29
 0
VERTEX
 8
MESH_383_F0
 10
0
 20
0
 30
0
 70
128
 71
31
 72
28
 73
29
 74
32
 0
VERTEX
 8
MESH_383_F0
 10
0
 20
0
 30
0
 70
128
 71
32
 72
35
 73
34
 74
31
 0
VERTEX
 8
MESH_383_F0
 10
0
 20
0
 30
0
 70
128
 71
8
 72
31
 73
9
 74
9
 0
VERTEX
 8
MESH_383_F0
 10
0
 20
0
 30
0
 70
128
 71
31
 72
34
 73
9
 74
9
 0
VERTEX
 8
MESH_383_F0
 10
0
 20
0
 30
0
 70
128
 71
34
 72
10
 73
9
 74
9
 0
VERTEX
 8
MESH_383_F0
 10
0
 20
0
 30
0
 70
128
 71
11
 72
10
 73
34
 74
34
 0
VERTEX
 8
MESH_383_F0
 10
0
 20
0
 30
0
 70
128
 71
11
 72
34
 73
12
 74
12
 0
VERTEX
 8
MESH_383_F0
 10
0
 20
0
 30
0
 70
128
 71
34
 72
35
 73
12
 74
12
 0
VERTEX
 8
MESH_383_F0
 10
0
 20
0
 30
0
 70
128
 71
35
 72
13
 73
12
 74
12
 0
VERTEX
 8
MESH_383_F0
 10
0
 20
0
 30
0
 70
128
 71
36
 72
13
 73
35
 74
35
 0
VERTEX
 8
MESH_383_F0
 10
0
 20
0
 30
0
 70
128
 71
14
 72
36
 73
33
 74
33
 0
VERTEX
 8
MESH_383_F0
 10
0
 20
0
 30
0
 70
128
 71
14
 72
33
 73
15
 74
15
 0
VERTEX
 8
MESH_383_F0
 10
0
 20
0
 30
0
 70
128
 71
33
 72
30
 73
15
 74
15
 0
VERTEX
 8
MESH_383_F0
 10
0
 20
0
 30
0
 70
128
 71
30
 72
16
 73
15
 74
15
 0
VERTEX
 8
MESH_383_F0
 10
0
 20
0
 30
0
 70
128
 71
27
 72
16
 73
30
 74
30
 0
VERTEX
 8
MESH_383_F0
 10
0
 20
0
 30
0
 70
128
 71
17
 72
16
 73
27
 74
27
 0
VERTEX
 8
MESH_383_F0
 10
0
 20
0
 30
0
 70
128
 71
18
 72
17
 73
24
 74
24
 0
VERTEX
 8
MESH_383_F0
 10
0
 20
0
 30
0
 70
128
 71
18
 72
24
 73
21
 74
21
 0
VERTEX
 8
MESH_383_F0
 10
0
 20
0
 30
0
 70
128
 71
25
 72
7
 73
6
 74
6
 0
VERTEX
 8
MESH_383_F0
 10
0
 20
0
 30
0
 70
128
 71
28
 72
7
 73
25
 74
25
 0
VERTEX
 8
MESH_383_F0
 10
0
 20
0
 30
0
 70
128
 71
8
 72
7
 73
28
 74
28
 0
VERTEX
 8
MESH_383_F0
 10
0
 20
0
 30
0
 70
128
 71
8
 72
28
 73
31
 74
31
 0
VERTEX
 8
MESH_383_F0
 10
0
 20
0
 30
0
 70
128
 71
36
 72
14
 73
13
 74
13
 0
VERTEX
 8
MESH_383_F0
 10
0
 20
0
 30
0
 70
128
 71
26
 72
25
 73
22
 74
23
 0
VERTEX
 8
MESH_383_F0
 10
0
 20
0
 30
0
 70
128
 71
17
 72
27
 73
24
 74
24
 0
VERTEX
 8
MESH_383_F0
 10
0
 20
0
 30
0
 70
128
 71
33
 72
32
 73
29
 74
30
 0
VERTEX
 8
MESH_383_F0
 10
0
 20
0
 30
0
 70
128
 71
36
 72
35
 73
32
 74
33
 0
SEQEND
 0
POLYLINE
 8
MESH_382_F0
 66
1
 10
0.0
 20
0.0
 30
0.0
 70
64
 71
18
 72
16
 0
VERTEX
 8
MESH_382_F0
 10
130.55
 20
243.2
 30
-85.65
 70
192
 0
VERTEX
 8
MESH_382_F0
 10
130.55
 20
257.2303
 30
-85.65
 70
192
 0
VERTEX
 8
MESH_382_F0
 10
129.6521
 20
257.1772
 30
-85.7437
 70
192
 0
VERTEX
 8
MESH_382_F0
 10
128.8227
 20
257.0665
 30
-86.0076
 70
192
 0
VERTEX
 8
MESH_382_F0
 10
128.0625
 20
257
 30
-86.4314
 70
192
 0
VERTEX
 8
MESH_382_F0
 10
126.6936
 20
257
 30
-87.9874
 70
192
 0
VERTEX
 8
MESH_382_F0
 10
126.2
 20
257
 30
-90.0001
 70
192
 0
VERTEX
 8
MESH_382_F0
 10
126.6937
 20
257
 30
-92.0127
 70
192
 0
VERTEX
 8
MESH_382_F0
 10
128.0626
 20
257
 30
-93.5686
 70
192
 0
VERTEX
 8
MESH_382_F0
 10
128.8247
 20
257.0667
 30
-93.9932
 70
192
 0
VERTEX
 8
MESH_382_F0
 10
129.6543
 20
257.1774
 30
-94.2568
 70
192
 0
VERTEX
 8
MESH_382_F0
 10
130.55
 20
257.2303
 30
-94.35
 70
192
 0
VERTEX
 8
MESH_382_F0
 10
130.55
 20
243.2
 30
-94.35
 70
192
 0
VERTEX
 8
MESH_382_F0
 10
128.375
 20
243.2
 30
-93.7672
 70
192
 0
VERTEX
 8
MESH_382_F0
 10
126.7828
 20
243.2
 30
-92.175
 70
192
 0
VERTEX
 8
MESH_382_F0
 10
126.2
 20
243.2
 30
-90
 70
192
 0
VERTEX
 8
MESH_382_F0
 10
126.7828
 20
243.2
 30
-87.825
 70
192
 0
VERTEX
 8
MESH_382_F0
 10
128.375
 20
243.2
 30
-86.2328
 70
192
 0
VERTEX
 8
MESH_382_F0
 10
0
 20
0
 30
0
 70
128
 71
1
 72
3
 73
2
 74
2
 0
VERTEX
 8
MESH_382_F0
 10
0
 20
0
 30
0
 70
128
 71
18
 72
3
 73
1
 74
1
 0
VERTEX
 8
MESH_382_F0
 10
0
 20
0
 30
0
 70
128
 71
4
 72
3
 73
18
 74
18
 0
VERTEX
 8
MESH_382_F0
 10
0
 20
0
 30
0
 70
128
 71
4
 72
18
 73
5
 74
5
 0
VERTEX
 8
MESH_382_F0
 10
0
 20
0
 30
0
 70
128
 71
18
 72
17
 73
5
 74
5
 0
VERTEX
 8
MESH_382_F0
 10
0
 20
0
 30
0
 70
128
 71
17
 72
6
 73
5
 74
5
 0
VERTEX
 8
MESH_382_F0
 10
0
 20
0
 30
0
 70
128
 71
16
 72
6
 73
17
 74
17
 0
VERTEX
 8
MESH_382_F0
 10
0
 20
0
 30
0
 70
128
 71
7
 72
6
 73
16
 74
16
 0
VERTEX
 8
MESH_382_F0
 10
0
 20
0
 30
0
 70
128
 71
7
 72
16
 73
8
 74
8
 0
VERTEX
 8
MESH_382_F0
 10
0
 20
0
 30
0
 70
128
 71
16
 72
15
 73
8
 74
8
 0
VERTEX
 8
MESH_382_F0
 10
0
 20
0
 30
0
 70
128
 71
15
 72
9
 73
8
 74
8
 0
VERTEX
 8
MESH_382_F0
 10
0
 20
0
 30
0
 70
128
 71
14
 72
9
 73
15
 74
15
 0
VERTEX
 8
MESH_382_F0
 10
0
 20
0
 30
0
 70
128
 71
10
 72
9
 73
14
 74
14
 0
VERTEX
 8
MESH_382_F0
 10
0
 20
0
 30
0
 70
128
 71
10
 72
14
 73
11
 74
11
 0
VERTEX
 8
MESH_382_F0
 10
0
 20
0
 30
0
 70
128
 71
14
 72
13
 73
11
 74
11
 0
VERTEX
 8
MESH_382_F0
 10
0
 20
0
 30
0
 70
128
 71
13
 72
12
 73
11
 74
11
 0
SEQEND
 0
POLYLINE
 8
MESH_381_F0
 66
1
 10
0.0
 20
0.0
 30
0.0
 70
64
 71
18
 72
20
 0
VERTEX
 8
MESH_381_F0
 10
130.55
 20
261.0457
 30
-97.1501
 70
192
 0
VERTEX
 8
MESH_381_F0
 10
130.55
 20
260.2197
 30
-95.6923
 70
192
 0
VERTEX
 8
MESH_381_F0
 10
130.55
 20
258.8688
 30
-94.701
 70
192
 0
VERTEX
 8
MESH_381_F0
 10
130.55
 20
257.2303
 30
-94.35
 70
192
 0
VERTEX
 8
MESH_381_F0
 10
129.6543
 20
257.1774
 30
-94.2568
 70
192
 0
VERTEX
 8
MESH_381_F0
 10
128.8247
 20
257.0667
 30
-93.9932
 70
192
 0
VERTEX
 8
MESH_381_F0
 10
128.0626
 20
257
 30
-93.5686
 70
192
 0
VERTEX
 8
MESH_381_F0
 10
127.7561
 20
259
 30
-94.0083
 70
192
 0
VERTEX
 8
MESH_381_F0
 10
126.9189
 20
260.4641
 30
-95.2094
 70
192
 0
VERTEX
 8
MESH_381_F0
 10
125.7751
 20
261
 30
-96.85
 70
192
 0
VERTEX
 8
MESH_381_F0
 10
127.4273
 20
261.0161
 30
-97.0285
 70
192
 0
VERTEX
 8
MESH_381_F0
 10
129.0046
 20
261.0375
 30
-97.1213
 70
192
 0
VERTEX
 8
MESH_381_F0
 10
129.1257
 20
258.2118
 30
-94.2703
 70
192
 0
VERTEX
 8
MESH_381_F0
 10
129.5849
 20
260.718
 30
-96.3634
 70
192
 0
VERTEX
 8
MESH_381_F0
 10
128.3864
 20
260.6289
 30
-96.0644
 70
192
 0
VERTEX
 8
MESH_381_F0
 10
129.8181
 20
259.4153
 30
-94.9616
 70
192
 0
VERTEX
 8
MESH_381_F0
 10
128.8984
 20
259.3282
 30
-94.7369
 70
192
 0
VERTEX
 8
MESH_381_F0
 10
129.9271
 20
258.2971
 30
-94.458
 70
192
 0
VERTEX
 8
MESH_381_F0
 10
0
 20
0
 30
0
 70
128
 71
14
 72
1
 73
12
 74
12
 0
VERTEX
 8
MESH_381_F0
 10
0
 20
0
 30
0
 70
128
 71
17
 72
16
 73
14
 74
15
 0
VERTEX
 8
MESH_381_F0
 10
0
 20
0
 30
0
 70
128
 71
15
 72
9
 73
17
 74
17
 0
VERTEX
 8
MESH_381_F0
 10
0
 20
0
 30
0
 70
128
 71
9
 72
8
 73
17
 74
17
 0
VERTEX
 8
MESH_381_F0
 10
0
 20
0
 30
0
 70
128
 71
8
 72
13
 73
17
 74
17
 0
VERTEX
 8
MESH_381_F0
 10
0
 20
0
 30
0
 70
128
 71
13
 72
18
 73
16
 74
17
 0
VERTEX
 8
MESH_381_F0
 10
0
 20
0
 30
0
 70
128
 71
18
 72
3
 73
16
 74
16
 0
VERTEX
 8
MESH_381_F0
 10
0
 20
0
 30
0
 70
128
 71
3
 72
2
 73
16
 74
16
 0
VERTEX
 8
MESH_381_F0
 10
0
 20
0
 30
0
 70
128
 71
2
 72
14
 73
16
 74
16
 0
VERTEX
 8
MESH_381_F0
 10
0
 20
0
 30
0
 70
128
 71
1
 72
14
 73
2
 74
2
 0
VERTEX
 8
MESH_381_F0
 10
0
 20
0
 30
0
 70
128
 71
18
 72
4
 73
3
 74
3
 0
VERTEX
 8
MESH_381_F0
 10
0
 20
0
 30
0
 70
128
 71
5
 72
4
 73
18
 74
18
 0
VERTEX
 8
MESH_381_F0
 10
0
 20
0
 30
0
 70
128
 71
6
 72
5
 73
13
 74
13
 0
VERTEX
 8
MESH_381_F0
 10
0
 20
0
 30
0
 70
128
 71
7
 72
6
 73
8
 74
8
 0
VERTEX
 8
MESH_381_F0
 10
0
 20
0
 30
0
 70
128
 71
6
 72
13
 73
8
 74
8
 0
VERTEX
 8
MESH_381_F0
 10
0
 20
0
 30
0
 70
128
 71
9
 72
11
 73
10
 74
10
 0
VERTEX
 8
MESH_381_F0
 10
0
 20
0
 30
0
 70
128
 71
15
 72
11
 73
9
 74
9
 0
VERTEX
 8
MESH_381_F0
 10
0
 20
0
 30
0
 70
128
 71
12
 72
11
 73
15
 74
15
 0
VERTEX
 8
MESH_381_F0
 10
0
 20
0
 30
0
 70
128
 71
12
 72
15
 73
14
 74
14
 0
VERTEX
 8
MESH_381_F0
 10
0
 20
0
 30
0
 70
128
 71
5
 72
18
 73
13
 74
13
 0
SEQEND
 0
POLYLINE
 8
MESH_380_F0
 66
1
 10
0.0
 20
0.0
 30
0.0
 70
64
 71
19
 72
17
 0
VERTEX
 8
MESH_380_F0
 10
125.7751
 20
261
 30
-96.85
 70
192
 0
VERTEX
 8
MESH_380_F0
 10
116.55
 20
261
 30
-96.85
 70
192
 0
VERTEX
 8
MESH_380_F0
 10
116.55
 20
261.134
 30
-97.35
 70
192
 0
VERTEX
 8
MESH_380_F0
 10
116.55
 20
261.5
 30
-97.716
 70
192
 0
VERTEX
 8
MESH_380_F0
 10
116.55
 20
262
 30
-97.85
 70
192
 0
VERTEX
 8
MESH_380_F0
 10
180.45
 20
262
 30
-97.85
 70
192
 0
VERTEX
 8
MESH_380_F0
 10
180.45
 20
261.5
 30
-97.716
 70
192
 0
VERTEX
 8
MESH_380_F0
 10
180.45
 20
261.134
 30
-97.35
 70
192
 0
VERTEX
 8
MESH_380_F0
 10
180.45
 20
261
 30
-96.85
 70
192
 0
VERTEX
 8
MESH_380_F0
 10
171.2251
 20
261
 30
-96.8499
 70
192
 0
VERTEX
 8
MESH_380_F0
 10
170.2875
 20
261.0063
 30
-96.9622
 70
192
 0
VERTEX
 8
MESH_380_F0
 10
169.4025
 20
261.0187
 30
-97.0424
 70
192
 0
VERTEX
 8
MESH_380_F0
 10
168.5737
 20
261.0305
 30
-97.0953
 70
192
 0
VERTEX
 8
MESH_380_F0
 10
167.8045
 20
261.0393
 30
-97.1277
 70
192
 0
VERTEX
 8
MESH_380_F0
 10
167.0959
 20
261.0443
 30
-97.1442
 70
192
 0
VERTEX
 8
MESH_380_F0
 10
166.45
 20
261.0461
 30
-97.15
 70
192
 0
VERTEX
 8
MESH_380_F0
 10
130.55
 20
261.0457
 30
-97.1501
 70
192
 0
VERTEX
 8
MESH_380_F0
 10
129.0046
 20
261.0375
 30
-97.1213
 70
192
 0
VERTEX
 8
MESH_380_F0
 10
127.4273
 20
261.0161
 30
-97.0285
 70
192
 0
VERTEX
 8
MESH_380_F0
 10
0
 20
0
 30
0
 70
128
 71
19
 72
2
 73
1
 74
1
 0
VERTEX
 8
MESH_380_F0
 10
0
 20
0
 30
0
 70
128
 71
3
 72
2
 73
19
 74
19
 0
VERTEX
 8
MESH_380_F0
 10
0
 20
0
 30
0
 70
128
 71
17
 72
3
 73
18
 74
18
 0
VERTEX
 8
MESH_380_F0
 10
0
 20
0
 30
0
 70
128
 71
3
 72
19
 73
18
 74
18
 0
VERTEX
 8
MESH_380_F0
 10
0
 20
0
 30
0
 70
128
 71
4
 72
7
 73
6
 74
6
 0
VERTEX
 8
MESH_380_F0
 10
0
 20
0
 30
0
 70
128
 71
4
 72
6
 73
5
 74
5
 0
VERTEX
 8
MESH_380_F0
 10
0
 20
0
 30
0
 70
128
 71
4
 72
8
 73
7
 74
7
 0
VERTEX
 8
MESH_380_F0
 10
0
 20
0
 30
0
 70
128
 71
3
 72
8
 73
4
 74
4
 0
VERTEX
 8
MESH_380_F0
 10
0
 20
0
 30
0
 70
128
 71
16
 72
8
 73
3
 74
3
 0
VERTEX
 8
MESH_380_F0
 10
0
 20
0
 30
0
 70
128
 71
16
 72
3
 73
17
 74
17
 0
VERTEX
 8
MESH_380_F0
 10
0
 20
0
 30
0
 70
128
 71
9
 72
11
 73
10
 74
10
 0
VERTEX
 8
MESH_380_F0
 10
0
 20
0
 30
0
 70
128
 71
12
 72
11
 73
9
 74
9
 0
VERTEX
 8
MESH_380_F0
 10
0
 20
0
 30
0
 70
128
 71
13
 72
12
 73
8
 74
8
 0
VERTEX
 8
MESH_380_F0
 10
0
 20
0
 30
0
 70
128
 71
13
 72
8
 73
14
 74
14
 0
VERTEX
 8
MESH_380_F0
 10
0
 20
0
 30
0
 70
128
 71
8
 72
15
 73
14
 74
14
 0
VERTEX
 8
MESH_380_F0
 10
0
 20
0
 30
0
 70
128
 71
16
 72
15
 73
8
 74
8
 0
VERTEX
 8
MESH_380_F0
 10
0
 20
0
 30
0
 70
128
 71
9
 72
8
 73
12
 74
12
 0
SEQEND
 0
POLYLINE
 8
MESH_379_F0
 66
1
 10
0.0
 20
0.0
 30
0.0
 70
64
 71
46
 72
54
 0
VERTEX
 8
MESH_379_F0
 10
180.45
 20
261
 30
-96.85
 70
192
 0
VERTEX
 8
MESH_379_F0
 10
180.45
 20
261.134
 30
-97.35
 70
192
 0
VERTEX
 8
MESH_379_F0
 10
180.45
 20
261.5
 30
-97.716
 70
192
 0
VERTEX
 8
MESH_379_F0
 10
180.45
 20
262
 30
-97.85
 70
192
 0
VERTEX
 8
MESH_379_F0
 10
183.4541
 20
262
 30
-97.2524
 70
192
 0
VERTEX
 8
MESH_379_F0
 10
186.0008
 20
262
 30
-95.5508
 70
192
 0
VERTEX
 8
MESH_379_F0
 10
187.7025
 20
262
 30
-93.0041
 70
192
 0
VERTEX
 8
MESH_379_F0
 10
188.3
 20
262
 30
-90
 70
192
 0
VERTEX
 8
MESH_379_F0
 10
187.7025
 20
262
 30
-86.9959
 70
192
 0
VERTEX
 8
MESH_379_F0
 10
186.0008
 20
262
 30
-84.4492
 70
192
 0
VERTEX
 8
MESH_379_F0
 10
183.4541
 20
262
 30
-82.7475
 70
192
 0
VERTEX
 8
MESH_379_F0
 10
180.45
 20
262
 30
-82.15
 70
192
 0
VERTEX
 8
MESH_379_F0
 10
180.45
 20
261.5
 30
-82.284
 70
192
 0
VERTEX
 8
MESH_379_F0
 10
180.45
 20
261.134
 30
-82.65
 70
192
 0
VERTEX
 8
MESH_379_F0
 10
180.45
 20
261
 30
-83.15
 70
192
 0
VERTEX
 8
MESH_379_F0
 10
183.0714
 20
261
 30
-83.6714
 70
192
 0
VERTEX
 8
MESH_379_F0
 10
185.2937
 20
261
 30
-85.1563
 70
192
 0
VERTEX
 8
MESH_379_F0
 10
186.7786
 20
261
 30
-87.3786
 70
192
 0
VERTEX
 8
MESH_379_F0
 10
187.3
 20
261
 30
-90
 70
192
 0
VERTEX
 8
MESH_379_F0
 10
186.7786
 20
261
 30
-92.6214
 70
192
 0
VERTEX
 8
MESH_379_F0
 10
185.2937
 20
261
 30
-94.8437
 70
192
 0
VERTEX
 8
MESH_379_F0
 10
183.0714
 20
261
 30
-96.3286
 70
192
 0
VERTEX
 8
MESH_379_F0
 10
183.089
 20
261.5
 30
-97.2507
 70
192
 0
VERTEX
 8
MESH_379_F0
 10
182.9638
 20
261.134
 30
-96.9067
 70
192
 0
VERTEX
 8
MESH_379_F0
 10
182.8813
 20
261.0341
 30
-96.6801
 70
192
 0
VERTEX
 8
MESH_379_F0
 10
185.4098
 20
261.5
 30
-95.9108
 70
192
 0
VERTEX
 8
MESH_379_F0
 10
185.1745
 20
261.134
 30
-95.6304
 70
192
 0
VERTEX
 8
MESH_379_F0
 10
185.05
 20
261.0348
 30
-95.4234
 70
192
 0
VERTEX
 8
MESH_379_F0
 10
187.1323
 20
261.5
 30
-93.858
 70
192
 0
VERTEX
 8
MESH_379_F0
 10
186.8153
 20
261.134
 30
-93.675
 70
192
 0
VERTEX
 8
MESH_379_F0
 10
186.6526
 20
261.0356
 30
-93.4843
 70
192
 0
VERTEX
 8
MESH_379_F0
 10
188.0488
 20
261.5
 30
-91.3399
 70
192
 0
VERTEX
 8
MESH_379_F0
 10
187.6883
 20
261.134
 30
-91.2763
 70
192
 0
VERTEX
 8
MESH_379_F0
 10
187.4807
 20
261.0364
 30
-91.1068
 70
192
 0
VERTEX
 8
MESH_379_F0
 10
188.0488
 20
261.5
 30
-88.6601
 70
192
 0
VERTEX
 8
MESH_379_F0
 10
187.6883
 20
261.134
 30
-88.7237
 70
192
 0
VERTEX
 8
MESH_379_F0
 10
187.4293
 20
261.0372
 30
-88.5898
 70
192
 0
VERTEX
 8
MESH_379_F0
 10
187.1323
 20
261.5
 30
-86.142
 70
192
 0
VERTEX
 8
MESH_379_F0
 10
186.8153
 20
261.134
 30
-86.325
 70
192
 0
VERTEX
 8
MESH_379_F0
 10
186.5057
 20
261.0381
 30
-86.2483
 70
192
 0
VERTEX
 8
MESH_379_F0
 10
185.4098
 20
261.5
 30
-84.0892
 70
192
 0
VERTEX
 8
MESH_379_F0
 10
185.1745
 20
261.134
 30
-84.3696
 70
192
 0
VERTEX
 8
MESH_379_F0
 10
184.8262
 20
261.0392
 30
-84.3746
 70
192
 0
VERTEX
 8
MESH_379_F0
 10
183.089
 20
261.5
 30
-82.7493
 70
192
 0
VERTEX
 8
MESH_379_F0
 10
182.9638
 20
261.134
 30
-83.0932
 70
192
 0
VERTEX
 8
MESH_379_F0
 10
183.1175
 20
261.0331
 30
-83.4145
 70
192
 0
VERTEX
 8
MESH_379_F0
 10
0
 20
0
 30
0
 70
128
 71
25
 72
1
 73
22
 74
22
 0
VERTEX
 8
MESH_379_F0
 10
0
 20
0
 30
0
 70
128
 71
27
 72
24
 73
25
 74
28
 0
VERTEX
 8
MESH_379_F0
 10
0
 20
0
 30
0
 70
128
 71
28
 72
31
 73
30
 74
27
 0
VERTEX
 8
MESH_379_F0
 10
0
 20
0
 30
0
 70
128
 71
23
 72
24
 73
27
 74
26
 0
VERTEX
 8
MESH_379_F0
 10
0
 20
0
 30
0
 70
128
 71
26
 72
5
 73
23
 74
23
 0
VERTEX
 8
MESH_379_F0
 10
0
 20
0
 30
0
 70
128
 71
5
 72
4
 73
23
 74
23
 0
VERTEX
 8
MESH_379_F0
 10
0
 20
0
 30
0
 70
128
 71
4
 72
3
 73
23
 74
23
 0
VERTEX
 8
MESH_379_F0
 10
0
 20
0
 30
0
 70
128
 71
3
 72
24
 73
23
 74
23
 0
VERTEX
 8
MESH_379_F0
 10
0
 20
0
 30
0
 70
128
 71
2
 72
24
 73
3
 74
3
 0
VERTEX
 8
MESH_379_F0
 10
0
 20
0
 30
0
 70
128
 71
25
 72
24
 73
2
 74
2
 0
VERTEX
 8
MESH_379_F0
 10
0
 20
0
 30
0
 70
128
 71
25
 72
2
 73
1
 74
1
 0
VERTEX
 8
MESH_379_F0
 10
0
 20
0
 30
0
 70
128
 71
26
 72
6
 73
5
 74
5
 0
VERTEX
 8
MESH_379_F0
 10
0
 20
0
 30
0
 70
128
 71
29
 72
6
 73
26
 74
26
 0
VERTEX
 8
MESH_379_F0
 10
0
 20
0
 30
0
 70
128
 71
33
 72
32
 73
29
 74
30
 0
VERTEX
 8
MESH_379_F0
 10
0
 20
0
 30
0
 70
128
 71
30
 72
31
 73
34
 74
33
 0
VERTEX
 8
MESH_379_F0
 10
0
 20
0
 30
0
 70
128
 71
35
 72
32
 73
33
 74
36
 0
VERTEX
 8
MESH_379_F0
 10
0
 20
0
 30
0
 70
128
 71
36
 72
39
 73
38
 74
35
 0
VERTEX
 8
MESH_379_F0
 10
0
 20
0
 30
0
 70
128
 71
8
 72
35
 73
9
 74
9
 0
VERTEX
 8
MESH_379_F0
 10
0
 20
0
 30
0
 70
128
 71
35
 72
38
 73
9
 74
9
 0
VERTEX
 8
MESH_379_F0
 10
0
 20
0
 30
0
 70
128
 71
38
 72
10
 73
9
 74
9
 0
VERTEX
 8
MESH_379_F0
 10
0
 20
0
 30
0
 70
128
 71
41
 72
10
 73
38
 74
38
 0
VERTEX
 8
MESH_379_F0
 10
0
 20
0
 30
0
 70
128
 71
45
 72
44
 73
41
 74
42
 0
VERTEX
 8
MESH_379_F0
 10
0
 20
0
 30
0
 70
128
 71
42
 72
43
 73
46
 74
45
 0
VERTEX
 8
MESH_379_F0
 10
0
 20
0
 30
0
 70
128
 71
14
 72
45
 73
15
 74
15
 0
VERTEX
 8
MESH_379_F0
 10
0
 20
0
 30
0
 70
128
 71
45
 72
46
 73
15
 74
15
 0
VERTEX
 8
MESH_379_F0
 10
0
 20
0
 30
0
 70
128
 71
46
 72
16
 73
15
 74
15
 0
VERTEX
 8
MESH_379_F0
 10
0
 20
0
 30
0
 70
128
 71
43
 72
16
 73
46
 74
46
 0
VERTEX
 8
MESH_379_F0
 10
0
 20
0
 30
0
 70
128
 71
17
 72
16
 73
43
 74
43
 0
VERTEX
 8
MESH_379_F0
 10
0
 20
0
 30
0
 70
128
 71
18
 72
17
 73
40
 74
40
 0
VERTEX
 8
MESH_379_F0
 10
0
 20
0
 30
0
 70
128
 71
19
 72
18
 73
37
 74
37
 0
VERTEX
 8
MESH_379_F0
 10
0
 20
0
 30
0
 70
128
 71
20
 72
19
 73
34
 74
34
 0
VERTEX
 8
MESH_379_F0
 10
0
 20
0
 30
0
 70
128
 71
21
 72
20
 73
31
 74
31
 0
VERTEX
 8
MESH_379_F0
 10
0
 20
0
 30
0
 70
128
 71
22
 72
21
 73
28
 74
28
 0
VERTEX
 8
MESH_379_F0
 10
0
 20
0
 30
0
 70
128
 71
22
 72
28
 73
25
 74
25
 0
VERTEX
 8
MESH_379_F0
 10
0
 20
0
 30
0
 70
128
 71
29
 72
7
 73
6
 74
6
 0
VERTEX
 8
MESH_379_F0
 10
0
 20
0
 30
0
 70
128
 71
32
 72
7
 73
29
 74
29
 0
VERTEX
 8
MESH_379_F0
 10
0
 20
0
 30
0
 70
128
 71
8
 72
7
 73
32
 74
32
 0
VERTEX
 8
MESH_379_F0
 10
0
 20
0
 30
0
 70
128
 71
8
 72
32
 73
35
 74
35
 0
VERTEX
 8
MESH_379_F0
 10
0
 20
0
 30
0
 70
128
 71
41
 72
11
 73
10
 74
10
 0
VERTEX
 8
MESH_379_F0
 10
0
 20
0
 30
0
 70
128
 71
44
 72
11
 73
41
 74
41
 0
VERTEX
 8
MESH_379_F0
 10
0
 20
0
 30
0
 70
128
 71
12
 72
11
 73
44
 74
44
 0
VERTEX
 8
MESH_379_F0
 10
0
 20
0
 30
0
 70
128
 71
12
 72
44
 73
13
 74
13
 0
VERTEX
 8
MESH_379_F0
 10
0
 20
0
 30
0
 70
128
 71
44
 72
14
 73
13
 74
13
 0
VERTEX
 8
MESH_379_F0
 10
0
 20
0
 30
0
 70
128
 71
45
 72
14
 73
44
 74
44
 0
VERTEX
 8
MESH_379_F0
 10
0
 20
0
 30
0
 70
128
 71
30
 72
29
 73
26
 74
27
 0
VERTEX
 8
MESH_379_F0
 10
0
 20
0
 30
0
 70
128
 71
21
 72
31
 73
28
 74
28
 0
VERTEX
 8
MESH_379_F0
 10
0
 20
0
 30
0
 70
128
 71
37
 72
36
 73
33
 74
34
 0
VERTEX
 8
MESH_379_F0
 10
0
 20
0
 30
0
 70
128
 71
19
 72
37
 73
34
 74
34
 0
VERTEX
 8
MESH_379_F0
 10
0
 20
0
 30
0
 70
128
 71
20
 72
34
 73
31
 74
31
 0
VERTEX
 8
MESH_379_F0
 10
0
 20
0
 30
0
 70
128
 71
40
 72
39
 73
36
 74
37
 0
VERTEX
 8
MESH_379_F0
 10
0
 20
0
 30
0
 70
128
 71
18
 72
40
 73
37
 74
37
 0
VERTEX
 8
MESH_379_F0
 10
0
 20
0
 30
0
 70
128
 71
42
 72
41
 73
38
 74
39
 0
VERTEX
 8
MESH_379_F0
 10
0
 20
0
 30
0
 70
128
 71
17
 72
43
 73
40
 74
40
 0
VERTEX
 8
MESH_379_F0
 10
0
 20
0
 30
0
 70
128
 71
43
 72
42
 73
39
 74
40
 0
SEQEND
 0
POLYLINE
 8
MESH_378_F0
 66
1
 10
0.0
 20
0.0
 30
0.0
 70
64
 71
15
 72
13
 0
VERTEX
 8
MESH_378_F0
 10
171.2251
 20
261
 30
-96.8499
 70
192
 0
VERTEX
 8
MESH_378_F0
 10
180.45
 20
261
 30
-96.85
 70
192
 0
VERTEX
 8
MESH_378_F0
 10
183.0714
 20
261
 30
-96.3286
 70
192
 0
VERTEX
 8
MESH_378_F0
 10
185.2937
 20
261
 30
-94.8437
 70
192
 0
VERTEX
 8
MESH_378_F0
 10
186.7786
 20
261
 30
-92.6214
 70
192
 0
VERTEX
 8
MESH_378_F0
 10
187.3
 20
261
 30
-90
 70
192
 0
VERTEX
 8
MESH_378_F0
 10
186.7786
 20
261
 30
-87.3786
 70
192
 0
VERTEX
 8
MESH_378_F0
 10
185.2937
 20
261
 30
-85.1563
 70
192
 0
VERTEX
 8
MESH_378_F0
 10
183.0714
 20
261
 30
-83.6714
 70
192
 0
VERTEX
 8
MESH_378_F0
 10
180.45
 20
261
 30
-83.15
 70
192
 0
VERTEX
 8
MESH_378_F0
 10
171.2249
 20
261
 30
-83.15
 70
192
 0
VERTEX
 8
MESH_378_F0
 10
173.4471
 20
261
 30
-85.4434
 70
192
 0
VERTEX
 8
MESH_378_F0
 10
174.6459
 20
261
 30
-88.4032
 70
192
 0
VERTEX
 8
MESH_378_F0
 10
174.6459
 20
261
 30
-91.5966
 70
192
 0
VERTEX
 8
MESH_378_F0
 10
173.4472
 20
261
 30
-94.5565
 70
192
 0
VERTEX
 8
MESH_378_F0
 10
0
 20
0
 30
0
 70
128
 71
15
 72
2
 73
1
 74
1
 0
VERTEX
 8
MESH_378_F0
 10
0
 20
0
 30
0
 70
128
 71
14
 72
2
 73
15
 74
15
 0
VERTEX
 8
MESH_378_F0
 10
0
 20
0
 30
0
 70
128
 71
3
 72
2
 73
14
 74
14
 0
VERTEX
 8
MESH_378_F0
 10
0
 20
0
 30
0
 70
128
 71
3
 72
14
 73
4
 74
4
 0
VERTEX
 8
MESH_378_F0
 10
0
 20
0
 30
0
 70
128
 71
14
 72
5
 73
4
 74
4
 0
VERTEX
 8
MESH_378_F0
 10
0
 20
0
 30
0
 70
128
 71
6
 72
5
 73
14
 74
14
 0
VERTEX
 8
MESH_378_F0
 10
0
 20
0
 30
0
 70
128
 71
7
 72
6
 73
13
 74
13
 0
VERTEX
 8
MESH_378_F0
 10
0
 20
0
 30
0
 70
128
 71
7
 72
13
 73
8
 74
8
 0
VERTEX
 8
MESH_378_F0
 10
0
 20
0
 30
0
 70
128
 71
13
 72
9
 73
8
 74
8
 0
VERTEX
 8
MESH_378_F0
 10
0
 20
0
 30
0
 70
128
 71
10
 72
9
 73
13
 74
13
 0
VERTEX
 8
MESH_378_F0
 10
0
 20
0
 30
0
 70
128
 71
11
 72
10
 73
12
 74
12
 0
VERTEX
 8
MESH_378_F0
 10
0
 20
0
 30
0
 70
128
 71
10
 72
13
 73
12
 74
12
 0
VERTEX
 8
MESH_378_F0
 10
0
 20
0
 30
0
 70
128
 71
6
 72
14
 73
13
 74
13
 0
SEQEND
 0
POLYLINE
 8
MESH_377_F0
 66
1
 10
0.0
 20
0.0
 30
0.0
 70
64
 71
36
 72
43
 0
VERTEX
 8
MESH_377_F0
 10
171.2249
 20
261
 30
-83.15
 70
192
 0
VERTEX
 8
MESH_377_F0
 10
170.0811
 20
260.4641
 30
-84.7906
 70
192
 0
VERTEX
 8
MESH_377_F0
 10
169.2439
 20
259
 30
-85.9917
 70
192
 0
VERTEX
 8
MESH_377_F0
 10
168.9374
 20
257
 30
-86.4314
 70
192
 0
VERTEX
 8
MESH_377_F0
 10
170.3063
 20
257
 30
-87.9872
 70
192
 0
VERTEX
 8
MESH_377_F0
 10
170.8
 20
257
 30
-89.9999
 70
192
 0
VERTEX
 8
MESH_377_F0
 10
170.3064
 20
257
 30
-92.0126
 70
192
 0
VERTEX
 8
MESH_377_F0
 10
168.9375
 20
257
 30
-93.5686
 70
192
 0
VERTEX
 8
MESH_377_F0
 10
169.244
 20
259
 30
-94.0082
 70
192
 0
VERTEX
 8
MESH_377_F0
 10
170.0812
 20
260.4641
 30
-95.2093
 70
192
 0
VERTEX
 8
MESH_377_F0
 10
171.2251
 20
261
 30
-96.8499
 70
192
 0
VERTEX
 8
MESH_377_F0
 10
173.4472
 20
261
 30
-94.5565
 70
192
 0
VERTEX
 8
MESH_377_F0
 10
174.6459
 20
261
 30
-91.5966
 70
192
 0
VERTEX
 8
MESH_377_F0
 10
174.6459
 20
261
 30
-88.4032
 70
192
 0
VERTEX
 8
MESH_377_F0
 10
173.4471
 20
261
 30
-85.4434
 70
192
 0
VERTEX
 8
MESH_377_F0
 10
174.0385
 20
260.9708
 30
-87.922
 70
192
 0
VERTEX
 8
MESH_377_F0
 10
169.7525
 20
258.8589
 30
-86.5054
 70
192
 0
VERTEX
 8
MESH_377_F0
 10
174.0134
 20
260.9708
 30
-92.1674
 70
192
 0
VERTEX
 8
MESH_377_F0
 10
171.0721
 20
258.8589
 30
-91.3245
 70
192
 0
VERTEX
 8
MESH_377_F0
 10
170.5434
 20
258.8589
 30
-92.5224
 70
192
 0
VERTEX
 8
MESH_377_F0
 10
170.6245
 20
260.2919
 30
-85.5827
 70
192
 0
VERTEX
 8
MESH_377_F0
 10
171.8541
 20
260.9708
 30
-84.2817
 70
192
 0
VERTEX
 8
MESH_377_F0
 10
171.0874
 20
258.8589
 30
-88.7301
 70
192
 0
VERTEX
 8
MESH_377_F0
 10
172.3119
 20
260.2919
 30
-88.3948
 70
192
 0
VERTEX
 8
MESH_377_F0
 10
173.1965
 20
260.9708
 30
-85.9517
 70
192
 0
VERTEX
 8
MESH_377_F0
 10
171.6615
 20
260.2919
 30
-86.8728
 70
192
 0
VERTEX
 8
MESH_377_F0
 10
170.5729
 20
258.8589
 30
-87.526
 70
192
 0
VERTEX
 8
MESH_377_F0
 10
171.2581
 20
258.8589
 30
-90.0284
 70
192
 0
VERTEX
 8
MESH_377_F0
 10
172.5276
 20
260.2919
 30
-90.0359
 70
192
 0
VERTEX
 8
MESH_377_F0
 10
174.3177
 20
260.9708
 30
-90.0464
 70
192
 0
VERTEX
 8
MESH_377_F0
 10
171.6242
 20
260.2919
 30
-93.1885
 70
192
 0
VERTEX
 8
MESH_377_F0
 10
173.1482
 20
260.9708
 30
-94.1276
 70
192
 0
VERTEX
 8
MESH_377_F0
 10
172.2926
 20
260.2919
 30
-91.6743
 70
192
 0
VERTEX
 8
MESH_377_F0
 10
171.7862
 20
260.9708
 30
-95.7817
 70
192
 0
VERTEX
 8
MESH_377_F0
 10
170.5721
 20
260.2919
 30
-94.4662
 70
192
 0
VERTEX
 8
MESH_377_F0
 10
169.711
 20
258.8589
 30
-93.5333
 70
192
 0
VERTEX
 8
MESH_377_F0
 10
0
 20
0
 30
0
 70
128
 71
22
 72
1
 73
15
 74
15
 0
VERTEX
 8
MESH_377_F0
 10
0
 20
0
 30
0
 70
128
 71
26
 72
21
 73
22
 74
25
 0
VERTEX
 8
MESH_377_F0
 10
0
 20
0
 30
0
 70
128
 71
25
 72
16
 73
24
 74
26
 0
VERTEX
 8
MESH_377_F0
 10
0
 20
0
 30
0
 70
128
 71
17
 72
21
 73
26
 74
27
 0
VERTEX
 8
MESH_377_F0
 10
0
 20
0
 30
0
 70
128
 71
27
 72
5
 73
17
 74
17
 0
VERTEX
 8
MESH_377_F0
 10
0
 20
0
 30
0
 70
128
 71
5
 72
4
 73
17
 74
17
 0
VERTEX
 8
MESH_377_F0
 10
0
 20
0
 30
0
 70
128
 71
4
 72
3
 73
17
 74
17
 0
VERTEX
 8
MESH_377_F0
 10
0
 20
0
 30
0
 70
128
 71
3
 72
21
 73
17
 74
17
 0
VERTEX
 8
MESH_377_F0
 10
0
 20
0
 30
0
 70
128
 71
2
 72
21
 73
3
 74
3
 0
VERTEX
 8
MESH_377_F0
 10
0
 20
0
 30
0
 70
128
 71
22
 72
21
 73
2
 74
2
 0
VERTEX
 8
MESH_377_F0
 10
0
 20
0
 30
0
 70
128
 71
22
 72
2
 73
1
 74
1
 0
VERTEX
 8
MESH_377_F0
 10
0
 20
0
 30
0
 70
128
 71
23
 72
5
 73
27
 74
27
 0
VERTEX
 8
MESH_377_F0
 10
0
 20
0
 30
0
 70
128
 71
29
 72
28
 73
23
 74
24
 0
VERTEX
 8
MESH_377_F0
 10
0
 20
0
 30
0
 70
128
 71
24
 72
16
 73
30
 74
29
 0
VERTEX
 8
MESH_377_F0
 10
0
 20
0
 30
0
 70
128
 71
19
 72
28
 73
29
 74
33
 0
VERTEX
 8
MESH_377_F0
 10
0
 20
0
 30
0
 70
128
 71
33
 72
31
 73
20
 74
19
 0
VERTEX
 8
MESH_377_F0
 10
0
 20
0
 30
0
 70
128
 71
6
 72
19
 73
7
 74
7
 0
VERTEX
 8
MESH_377_F0
 10
0
 20
0
 30
0
 70
128
 71
19
 72
20
 73
7
 74
7
 0
VERTEX
 8
MESH_377_F0
 10
0
 20
0
 30
0
 70
128
 71
20
 72
8
 73
7
 74
7
 0
VERTEX
 8
MESH_377_F0
 10
0
 20
0
 30
0
 70
128
 71
36
 72
8
 73
20
 74
20
 0
VERTEX
 8
MESH_377_F0
 10
0
 20
0
 30
0
 70
128
 71
9
 72
36
 73
35
 74
35
 0
VERTEX
 8
MESH_377_F0
 10
0
 20
0
 30
0
 70
128
 71
9
 72
35
 73
10
 74
10
 0
VERTEX
 8
MESH_377_F0
 10
0
 20
0
 30
0
 70
128
 71
35
 72
34
 73
10
 74
10
 0
VERTEX
 8
MESH_377_F0
 10
0
 20
0
 30
0
 70
128
 71
34
 72
11
 73
10
 74
10
 0
VERTEX
 8
MESH_377_F0
 10
0
 20
0
 30
0
 70
128
 71
12
 72
11
 73
34
 74
34
 0
VERTEX
 8
MESH_377_F0
 10
0
 20
0
 30
0
 70
128
 71
18
 72
12
 73
32
 74
32
 0
VERTEX
 8
MESH_377_F0
 10
0
 20
0
 30
0
 70
128
 71
29
 72
30
 73
18
 74
33
 0
VERTEX
 8
MESH_377_F0
 10
0
 20
0
 30
0
 70
128
 71
33
 72
18
 73
32
 74
31
 0
VERTEX
 8
MESH_377_F0
 10
0
 20
0
 30
0
 70
128
 71
36
 72
20
 73
31
 74
35
 0
VERTEX
 8
MESH_377_F0
 10
0
 20
0
 30
0
 70
128
 71
35
 72
31
 73
32
 74
34
 0
VERTEX
 8
MESH_377_F0
 10
0
 20
0
 30
0
 70
128
 71
34
 72
32
 73
12
 74
12
 0
VERTEX
 8
MESH_377_F0
 10
0
 20
0
 30
0
 70
128
 71
36
 72
9
 73
8
 74
8
 0
VERTEX
 8
MESH_377_F0
 10
0
 20
0
 30
0
 70
128
 71
18
 72
13
 73
12
 74
12
 0
VERTEX
 8
MESH_377_F0
 10
0
 20
0
 30
0
 70
128
 71
30
 72
13
 73
18
 74
18
 0
VERTEX
 8
MESH_377_F0
 10
0
 20
0
 30
0
 70
128
 71
14
 72
13
 73
30
 74
30
 0
VERTEX
 8
MESH_377_F0
 10
0
 20
0
 30
0
 70
128
 71
15
 72
14
 73
16
 74
16
 0
VERTEX
 8
MESH_377_F0
 10
0
 20
0
 30
0
 70
128
 71
22
 72
15
 73
25
 74
25
 0
VERTEX
 8
MESH_377_F0
 10
0
 20
0
 30
0
 70
128
 71
15
 72
16
 73
25
 74
25
 0
VERTEX
 8
MESH_377_F0
 10
0
 20
0
 30
0
 70
128
 71
27
 72
26
 73
24
 74
23
 0
VERTEX
 8
MESH_377_F0
 10
0
 20
0
 30
0
 70
128
 71
14
 72
30
 73
16
 74
16
 0
VERTEX
 8
MESH_377_F0
 10
0
 20
0
 30
0
 70
128
 71
23
 72
6
 73
5
 74
5
 0
VERTEX
 8
MESH_377_F0
 10
0
 20
0
 30
0
 70
128
 71
28
 72
6
 73
23
 74
23
 0
VERTEX
 8
MESH_377_F0
 10
0
 20
0
 30
0
 70
128
 71
19
 72
6
 73
28
 74
28
 0
SEQEND
 0
POLYLINE
 8
MESH_376_F0
 66
1
 10
0.0
 20
0.0
 30
0.0
 70
64
 71
18
 72
20
 0
VERTEX
 8
MESH_376_F0
 10
166.45
 20
261.0457
 30
-82.8499
 70
192
 0
VERTEX
 8
MESH_376_F0
 10
166.45
 20
260.2197
 30
-84.3077
 70
192
 0
VERTEX
 8
MESH_376_F0
 10
166.45
 20
258.8688
 30
-85.299
 70
192
 0
VERTEX
 8
MESH_376_F0
 10
166.45
 20
257.2303
 30
-85.65
 70
192
 0
VERTEX
 8
MESH_376_F0
 10
167.3457
 20
257.1774
 30
-85.7432
 70
192
 0
VERTEX
 8
MESH_376_F0
 10
168.1753
 20
257.0667
 30
-86.0068
 70
192
 0
VERTEX
 8
MESH_376_F0
 10
168.9374
 20
257
 30
-86.4314
 70
192
 0
VERTEX
 8
MESH_376_F0
 10
169.2439
 20
259
 30
-85.9917
 70
192
 0
VERTEX
 8
MESH_376_F0
 10
170.0811
 20
260.4641
 30
-84.7906
 70
192
 0
VERTEX
 8
MESH_376_F0
 10
171.2249
 20
261
 30
-83.15
 70
192
 0
VERTEX
 8
MESH_376_F0
 10
169.5727
 20
261.0161
 30
-82.9715
 70
192
 0
VERTEX
 8
MESH_376_F0
 10
167.9954
 20
261.0375
 30
-82.8787
 70
192
 0
VERTEX
 8
MESH_376_F0
 10
167.8743
 20
258.2118
 30
-85.7297
 70
192
 0
VERTEX
 8
MESH_376_F0
 10
167.4151
 20
260.718
 30
-83.6366
 70
192
 0
VERTEX
 8
MESH_376_F0
 10
168.6136
 20
260.6289
 30
-83.9356
 70
192
 0
VERTEX
 8
MESH_376_F0
 10
167.1819
 20
259.4153
 30
-85.0384
 70
192
 0
VERTEX
 8
MESH_376_F0
 10
168.1016
 20
259.3282
 30
-85.2631
 70
192
 0
VERTEX
 8
MESH_376_F0
 10
167.0729
 20
258.2971
 30
-85.542
 70
192
 0
VERTEX
 8
MESH_376_F0
 10
0
 20
0
 30
0
 70
128
 71
14
 72
1
 73
12
 74
12
 0
VERTEX
 8
MESH_376_F0
 10
0
 20
0
 30
0
 70
128
 71
17
 72
16
 73
14
 74
15
 0
VERTEX
 8
MESH_376_F0
 10
0
 20
0
 30
0
 70
128
 71
15
 72
9
 73
17
 74
17
 0
VERTEX
 8
MESH_376_F0
 10
0
 20
0
 30
0
 70
128
 71
9
 72
8
 73
17
 74
17
 0
VERTEX
 8
MESH_376_F0
 10
0
 20
0
 30
0
 70
128
 71
8
 72
13
 73
17
 74
17
 0
VERTEX
 8
MESH_376_F0
 10
0
 20
0
 30
0
 70
128
 71
13
 72
18
 73
16
 74
17
 0
VERTEX
 8
MESH_376_F0
 10
0
 20
0
 30
0
 70
128
 71
18
 72
3
 73
16
 74
16
 0
VERTEX
 8
MESH_376_F0
 10
0
 20
0
 30
0
 70
128
 71
3
 72
2
 73
16
 74
16
 0
VERTEX
 8
MESH_376_F0
 10
0
 20
0
 30
0
 70
128
 71
2
 72
14
 73
16
 74
16
 0
VERTEX
 8
MESH_376_F0
 10
0
 20
0
 30
0
 70
128
 71
1
 72
14
 73
2
 74
2
 0
VERTEX
 8
MESH_376_F0
 10
0
 20
0
 30
0
 70
128
 71
18
 72
4
 73
3
 74
3
 0
VERTEX
 8
MESH_376_F0
 10
0
 20
0
 30
0
 70
128
 71
5
 72
4
 73
18
 74
18
 0
VERTEX
 8
MESH_376_F0
 10
0
 20
0
 30
0
 70
128
 71
6
 72
5
 73
13
 74
13
 0
VERTEX
 8
MESH_376_F0
 10
0
 20
0
 30
0
 70
128
 71
7
 72
6
 73
8
 74
8
 0
VERTEX
 8
MESH_376_F0
 10
0
 20
0
 30
0
 70
128
 71
6
 72
13
 73
8
 74
8
 0
VERTEX
 8
MESH_376_F0
 10
0
 20
0
 30
0
 70
128
 71
9
 72
11
 73
10
 74
10
 0
VERTEX
 8
MESH_376_F0
 10
0
 20
0
 30
0
 70
128
 71
15
 72
11
 73
9
 74
9
 0
VERTEX
 8
MESH_376_F0
 10
0
 20
0
 30
0
 70
128
 71
12
 72
11
 73
15
 74
15
 0
VERTEX
 8
MESH_376_F0
 10
0
 20
0
 30
0
 70
128
 71
12
 72
15
 73
14
 74
14
 0
VERTEX
 8
MESH_376_F0
 10
0
 20
0
 30
0
 70
128
 71
5
 72
18
 73
13
 74
13
 0
SEQEND
 0
POLYLINE
 8
MESH_375_F0
 66
1
 10
0.0
 20
0.0
 30
0.0
 70
64
 71
19
 72
17
 0
VERTEX
 8
MESH_375_F0
 10
171.2249
 20
261
 30
-83.15
 70
192
 0
VERTEX
 8
MESH_375_F0
 10
180.45
 20
261
 30
-83.15
 70
192
 0
VERTEX
 8
MESH_375_F0
 10
180.45
 20
261.134
 30
-82.65
 70
192
 0
VERTEX
 8
MESH_375_F0
 10
180.45
 20
261.5
 30
-82.284
 70
192
 0
VERTEX
 8
MESH_375_F0
 10
180.45
 20
262
 30
-82.15
 70
192
 0
VERTEX
 8
MESH_375_F0
 10
116.55
 20
262
 30
-82.15
 70
192
 0
VERTEX
 8
MESH_375_F0
 10
116.55
 20
261.5
 30
-82.284
 70
192
 0
VERTEX
 8
MESH_375_F0
 10
116.55
 20
261.134
 30
-82.65
 70
192
 0
VERTEX
 8
MESH_375_F0
 10
116.55
 20
261
 30
-83.15
 70
192
 0
VERTEX
 8
MESH_375_F0
 10
125.7749
 20
261
 30
-83.1501
 70
192
 0
VERTEX
 8
MESH_375_F0
 10
126.7125
 20
261.0063
 30
-83.0377
 70
192
 0
VERTEX
 8
MESH_375_F0
 10
127.5975
 20
261.0187
 30
-82.9576
 70
192
 0
VERTEX
 8
MESH_375_F0
 10
128.4263
 20
261.0305
 30
-82.9046
 70
192
 0
VERTEX
 8
MESH_375_F0
 10
129.1955
 20
261.0393
 30
-82.8723
 70
192
 0
VERTEX
 8
MESH_375_F0
 10
129.9041
 20
261.0443
 30
-82.8558
 70
192
 0
VERTEX
 8
MESH_375_F0
 10
130.55
 20
261.0461
 30
-82.85
 70
192
 0
VERTEX
 8
MESH_375_F0
 10
166.45
 20
261.0457
 30
-82.8499
 70
192
 0
VERTEX
 8
MESH_375_F0
 10
167.9954
 20
261.0375
 30
-82.8787
 70
192
 0
VERTEX
 8
MESH_375_F0
 10
169.5727
 20
261.0161
 30
-82.9715
 70
192
 0
VERTEX
 8
MESH_375_F0
 10
0
 20
0
 30
0
 70
128
 71
19
 72
2
 73
1
 74
1
 0
VERTEX
 8
MESH_375_F0
 10
0
 20
0
 30
0
 70
128
 71
3
 72
2
 73
19
 74
19
 0
VERTEX
 8
MESH_375_F0
 10
0
 20
0
 30
0
 70
128
 71
17
 72
3
 73
18
 74
18
 0
VERTEX
 8
MESH_375_F0
 10
0
 20
0
 30
0
 70
128
 71
3
 72
19
 73
18
 74
18
 0
VERTEX
 8
MESH_375_F0
 10
0
 20
0
 30
0
 70
128
 71
4
 72
7
 73
6
 74
6
 0
VERTEX
 8
MESH_375_F0
 10
0
 20
0
 30
0
 70
128
 71
4
 72
6
 73
5
 74
5
 0
VERTEX
 8
MESH_375_F0
 10
0
 20
0
 30
0
 70
128
 71
4
 72
8
 73
7
 74
7
 0
VERTEX
 8
MESH_375_F0
 10
0
 20
0
 30
0
 70
128
 71
3
 72
8
 73
4
 74
4
 0
VERTEX
 8
MESH_375_F0
 10
0
 20
0
 30
0
 70
128
 71
16
 72
8
 73
3
 74
3
 0
VERTEX
 8
MESH_375_F0
 10
0
 20
0
 30
0
 70
128
 71
16
 72
3
 73
17
 74
17
 0
VERTEX
 8
MESH_375_F0
 10
0
 20
0
 30
0
 70
128
 71
9
 72
11
 73
10
 74
10
 0
VERTEX
 8
MESH_375_F0
 10
0
 20
0
 30
0
 70
128
 71
12
 72
11
 73
9
 74
9
 0
VERTEX
 8
MESH_375_F0
 10
0
 20
0
 30
0
 70
128
 71
13
 72
12
 73
8
 74
8
 0
VERTEX
 8
MESH_375_F0
 10
0
 20
0
 30
0
 70
128
 71
13
 72
8
 73
14
 74
14
 0
VERTEX
 8
MESH_375_F0
 10
0
 20
0
 30
0
 70
128
 71
8
 72
15
 73
14
 74
14
 0
VERTEX
 8
MESH_375_F0
 10
0
 20
0
 30
0
 70
128
 71
16
 72
15
 73
8
 74
8
 0
VERTEX
 8
MESH_375_F0
 10
0
 20
0
 30
0
 70
128
 71
9
 72
8
 73
12
 74
12
 0
SEQEND
 0
POLYLINE
 8
MESH_374_F0
 66
1
 10
0.0
 20
0.0
 30
0.0
 70
64
 71
21
 72
23
 0
VERTEX
 8
MESH_374_F0
 10
125.7749
 20
261
 30
-83.1501
 70
192
 0
VERTEX
 8
MESH_374_F0
 10
126.9188
 20
260.4641
 30
-84.7907
 70
192
 0
VERTEX
 8
MESH_374_F0
 10
127.756
 20
259
 30
-85.9918
 70
192
 0
VERTEX
 8
MESH_374_F0
 10
128.0625
 20
257
 30
-86.4314
 70
192
 0
VERTEX
 8
MESH_374_F0
 10
128.8227
 20
257.0665
 30
-86.0076
 70
192
 0
VERTEX
 8
MESH_374_F0
 10
129.6521
 20
257.1772
 30
-85.7437
 70
192
 0
VERTEX
 8
MESH_374_F0
 10
130.55
 20
257.2303
 30
-85.65
 70
192
 0
VERTEX
 8
MESH_374_F0
 10
130.55
 20
258.8688
 30
-85.299
 70
192
 0
VERTEX
 8
MESH_374_F0
 10
130.55
 20
260.2197
 30
-84.3077
 70
192
 0
VERTEX
 8
MESH_374_F0
 10
130.55
 20
261.0461
 30
-82.85
 70
192
 0
VERTEX
 8
MESH_374_F0
 10
129.9041
 20
261.0443
 30
-82.8558
 70
192
 0
VERTEX
 8
MESH_374_F0
 10
129.1955
 20
261.0393
 30
-82.8723
 70
192
 0
VERTEX
 8
MESH_374_F0
 10
128.4263
 20
261.0305
 30
-82.9046
 70
192
 0
VERTEX
 8
MESH_374_F0
 10
127.5975
 20
261.0187
 30
-82.9576
 70
192
 0
VERTEX
 8
MESH_374_F0
 10
126.7125
 20
261.0063
 30
-83.0377
 70
192
 0
VERTEX
 8
MESH_374_F0
 10
128.4713
 20
260.6368
 30
-83.9062
 70
192
 0
VERTEX
 8
MESH_374_F0
 10
127.4584
 20
260.5414
 30
-84.3537
 70
192
 0
VERTEX
 8
MESH_374_F0
 10
128.166
 20
259.2395
 30
-85.5869
 70
192
 0
VERTEX
 8
MESH_374_F0
 10
128.9642
 20
259.3361
 30
-85.2407
 70
192
 0
VERTEX
 8
MESH_374_F0
 10
128.4529
 20
258.1221
 30
-86.0169
 70
192
 0
VERTEX
 8
MESH_374_F0
 10
129.1843
 20
258.2196
 30
-85.7106
 70
192
 0
VERTEX
 8
MESH_374_F0
 10
0
 20
0
 30
0
 70
128
 71
17
 72
1
 73
15
 74
15
 0
VERTEX
 8
MESH_374_F0
 10
0
 20
0
 30
0
 70
128
 71
16
 72
17
 73
14
 74
14
 0
VERTEX
 8
MESH_374_F0
 10
0
 20
0
 30
0
 70
128
 71
12
 72
16
 73
13
 74
13
 0
VERTEX
 8
MESH_374_F0
 10
0
 20
0
 30
0
 70
128
 71
16
 72
14
 73
13
 74
13
 0
VERTEX
 8
MESH_374_F0
 10
0
 20
0
 30
0
 70
128
 71
3
 72
20
 73
4
 74
4
 0
VERTEX
 8
MESH_374_F0
 10
0
 20
0
 30
0
 70
128
 71
20
 72
5
 73
4
 74
4
 0
VERTEX
 8
MESH_374_F0
 10
0
 20
0
 30
0
 70
128
 71
21
 72
5
 73
20
 74
20
 0
VERTEX
 8
MESH_374_F0
 10
0
 20
0
 30
0
 70
128
 71
8
 72
21
 73
19
 74
19
 0
VERTEX
 8
MESH_374_F0
 10
0
 20
0
 30
0
 70
128
 71
8
 72
19
 73
9
 74
9
 0
VERTEX
 8
MESH_374_F0
 10
0
 20
0
 30
0
 70
128
 71
19
 72
16
 73
9
 74
9
 0
VERTEX
 8
MESH_374_F0
 10
0
 20
0
 30
0
 70
128
 71
16
 72
12
 73
9
 74
9
 0
VERTEX
 8
MESH_374_F0
 10
0
 20
0
 30
0
 70
128
 71
12
 72
11
 73
9
 74
9
 0
VERTEX
 8
MESH_374_F0
 10
0
 20
0
 30
0
 70
128
 71
11
 72
10
 73
9
 74
9
 0
VERTEX
 8
MESH_374_F0
 10
0
 20
0
 30
0
 70
128
 71
21
 72
6
 73
5
 74
5
 0
VERTEX
 8
MESH_374_F0
 10
0
 20
0
 30
0
 70
128
 71
7
 72
6
 73
21
 74
21
 0
VERTEX
 8
MESH_374_F0
 10
0
 20
0
 30
0
 70
128
 71
7
 72
21
 73
8
 74
8
 0
VERTEX
 8
MESH_374_F0
 10
0
 20
0
 30
0
 70
128
 71
17
 72
15
 73
14
 74
14
 0
VERTEX
 8
MESH_374_F0
 10
0
 20
0
 30
0
 70
128
 71
19
 72
18
 73
17
 74
16
 0
VERTEX
 8
MESH_374_F0
 10
0
 20
0
 30
0
 70
128
 71
18
 72
2
 73
17
 74
17
 0
VERTEX
 8
MESH_374_F0
 10
0
 20
0
 30
0
 70
128
 71
2
 72
1
 73
17
 74
17
 0
VERTEX
 8
MESH_374_F0
 10
0
 20
0
 30
0
 70
128
 71
21
 72
20
 73
18
 74
19
 0
VERTEX
 8
MESH_374_F0
 10
0
 20
0
 30
0
 70
128
 71
20
 72
3
 73
18
 74
18
 0
VERTEX
 8
MESH_374_F0
 10
0
 20
0
 30
0
 70
128
 71
3
 72
2
 73
18
 74
18
 0
SEQEND
 0
POLYLINE
 8
MESH_373_F0
 66
1
 10
0.0
 20
0.0
 30
0.0
 70
64
 71
36
 72
43
 0
VERTEX
 8
MESH_373_F0
 10
125.7751
 20
261
 30
-96.85
 70
192
 0
VERTEX
 8
MESH_373_F0
 10
126.9189
 20
260.4641
 30
-95.2094
 70
192
 0
VERTEX
 8
MESH_373_F0
 10
127.7561
 20
259
 30
-94.0083
 70
192
 0
VERTEX
 8
MESH_373_F0
 10
128.0626
 20
257
 30
-93.5686
 70
192
 0
VERTEX
 8
MESH_373_F0
 10
126.6937
 20
257
 30
-92.0127
 70
192
 0
VERTEX
 8
MESH_373_F0
 10
126.2
 20
257
 30
-90.0001
 70
192
 0
VERTEX
 8
MESH_373_F0
 10
126.6936
 20
257
 30
-87.9874
 70
192
 0
VERTEX
 8
MESH_373_F0
 10
128.0625
 20
257
 30
-86.4314
 70
192
 0
VERTEX
 8
MESH_373_F0
 10
127.756
 20
259
 30
-85.9918
 70
192
 0
VERTEX
 8
MESH_373_F0
 10
126.9188
 20
260.4641
 30
-84.7907
 70
192
 0
VERTEX
 8
MESH_373_F0
 10
125.7749
 20
261
 30
-83.1501
 70
192
 0
VERTEX
 8
MESH_373_F0
 10
123.5528
 20
261
 30
-85.4435
 70
192
 0
VERTEX
 8
MESH_373_F0
 10
122.3541
 20
261
 30
-88.4034
 70
192
 0
VERTEX
 8
MESH_373_F0
 10
122.3541
 20
261
 30
-91.5968
 70
192
 0
VERTEX
 8
MESH_373_F0
 10
123.5529
 20
261
 30
-94.5566
 70
192
 0
VERTEX
 8
MESH_373_F0
 10
122.9615
 20
260.9708
 30
-92.078
 70
192
 0
VERTEX
 8
MESH_373_F0
 10
127.2475
 20
258.8589
 30
-93.4946
 70
192
 0
VERTEX
 8
MESH_373_F0
 10
122.9866
 20
260.9708
 30
-87.8326
 70
192
 0
VERTEX
 8
MESH_373_F0
 10
125.9279
 20
258.8589
 30
-88.6755
 70
192
 0
VERTEX
 8
MESH_373_F0
 10
126.4566
 20
258.8589
 30
-87.4775
 70
192
 0
VERTEX
 8
MESH_373_F0
 10
126.3755
 20
260.2919
 30
-94.4173
 70
192
 0
VERTEX
 8
MESH_373_F0
 10
125.1459
 20
260.9708
 30
-95.7183
 70
192
 0
VERTEX
 8
MESH_373_F0
 10
125.9126
 20
258.8589
 30
-91.2699
 70
192
 0
VERTEX
 8
MESH_373_F0
 10
124.6881
 20
260.2919
 30
-91.6052
 70
192
 0
VERTEX
 8
MESH_373_F0
 10
123.8035
 20
260.9708
 30
-94.0483
 70
192
 0
VERTEX
 8
MESH_373_F0
 10
125.3385
 20
260.2919
 30
-93.1272
 70
192
 0
VERTEX
 8
MESH_373_F0
 10
126.4271
 20
258.8589
 30
-92.4739
 70
192
 0
VERTEX
 8
MESH_373_F0
 10
125.7419
 20
258.8589
 30
-89.9716
 70
192
 0
VERTEX
 8
MESH_373_F0
 10
124.4724
 20
260.2919
 30
-89.9641
 70
192
 0
VERTEX
 8
MESH_373_F0
 10
122.6823
 20
260.9708
 30
-89.9536
 70
192
 0
VERTEX
 8
MESH_373_F0
 10
125.3758
 20
260.2919
 30
-86.8115
 70
192
 0
VERTEX
 8
MESH_373_F0
 10
123.8518
 20
260.9708
 30
-85.8724
 70
192
 0
VERTEX
 8
MESH_373_F0
 10
124.7074
 20
260.2919
 30
-88.3257
 70
192
 0
VERTEX
 8
MESH_373_F0
 10
125.2138
 20
260.9708
 30
-84.2183
 70
192
 0
VERTEX
 8
MESH_373_F0
 10
126.4279
 20
260.2919
 30
-85.5338
 70
192
 0
VERTEX
 8
MESH_373_F0
 10
127.289
 20
258.8589
 30
-86.4667
 70
192
 0
VERTEX
 8
MESH_373_F0
 10
0
 20
0
 30
0
 70
128
 71
22
 72
1
 73
15
 74
15
 0
VERTEX
 8
MESH_373_F0
 10
0
 20
0
 30
0
 70
128
 71
26
 72
21
 73
22
 74
25
 0
VERTEX
 8
MESH_373_F0
 10
0
 20
0
 30
0
 70
128
 71
25
 72
16
 73
24
 74
26
 0
VERTEX
 8
MESH_373_F0
 10
0
 20
0
 30
0
 70
128
 71
17
 72
21
 73
26
 74
27
 0
VERTEX
 8
MESH_373_F0
 10
0
 20
0
 30
0
 70
128
 71
27
 72
5
 73
17
 74
17
 0
VERTEX
 8
MESH_373_F0
 10
0
 20
0
 30
0
 70
128
 71
5
 72
4
 73
17
 74
17
 0
VERTEX
 8
MESH_373_F0
 10
0
 20
0
 30
0
 70
128
 71
4
 72
3
 73
17
 74
17
 0
VERTEX
 8
MESH_373_F0
 10
0
 20
0
 30
0
 70
128
 71
3
 72
21
 73
17
 74
17
 0
VERTEX
 8
MESH_373_F0
 10
0
 20
0
 30
0
 70
128
 71
2
 72
21
 73
3
 74
3
 0
VERTEX
 8
MESH_373_F0
 10
0
 20
0
 30
0
 70
128
 71
22
 72
21
 73
2
 74
2
 0
VERTEX
 8
MESH_373_F0
 10
0
 20
0
 30
0
 70
128
 71
22
 72
2
 73
1
 74
1
 0
VERTEX
 8
MESH_373_F0
 10
0
 20
0
 30
0
 70
128
 71
23
 72
5
 73
27
 74
27
 0
VERTEX
 8
MESH_373_F0
 10
0
 20
0
 30
0
 70
128
 71
29
 72
28
 73
23
 74
24
 0
VERTEX
 8
MESH_373_F0
 10
0
 20
0
 30
0
 70
128
 71
24
 72
16
 73
30
 74
29
 0
VERTEX
 8
MESH_373_F0
 10
0
 20
0
 30
0
 70
128
 71
19
 72
28
 73
29
 74
33
 0
VERTEX
 8
MESH_373_F0
 10
0
 20
0
 30
0
 70
128
 71
33
 72
31
 73
20
 74
19
 0
VERTEX
 8
MESH_373_F0
 10
0
 20
0
 30
0
 70
128
 71
6
 72
19
 73
7
 74
7
 0
VERTEX
 8
MESH_373_F0
 10
0
 20
0
 30
0
 70
128
 71
19
 72
20
 73
7
 74
7
 0
VERTEX
 8
MESH_373_F0
 10
0
 20
0
 30
0
 70
128
 71
20
 72
8
 73
7
 74
7
 0
VERTEX
 8
MESH_373_F0
 10
0
 20
0
 30
0
 70
128
 71
36
 72
8
 73
20
 74
20
 0
VERTEX
 8
MESH_373_F0
 10
0
 20
0
 30
0
 70
128
 71
9
 72
36
 73
35
 74
35
 0
VERTEX
 8
MESH_373_F0
 10
0
 20
0
 30
0
 70
128
 71
9
 72
35
 73
10
 74
10
 0
VERTEX
 8
MESH_373_F0
 10
0
 20
0
 30
0
 70
128
 71
35
 72
34
 73
10
 74
10
 0
VERTEX
 8
MESH_373_F0
 10
0
 20
0
 30
0
 70
128
 71
34
 72
11
 73
10
 74
10
 0
VERTEX
 8
MESH_373_F0
 10
0
 20
0
 30
0
 70
128
 71
12
 72
11
 73
34
 74
34
 0
VERTEX
 8
MESH_373_F0
 10
0
 20
0
 30
0
 70
128
 71
18
 72
12
 73
32
 74
32
 0
VERTEX
 8
MESH_373_F0
 10
0
 20
0
 30
0
 70
128
 71
29
 72
30
 73
18
 74
33
 0
VERTEX
 8
MESH_373_F0
 10
0
 20
0
 30
0
 70
128
 71
33
 72
18
 73
32
 74
31
 0
VERTEX
 8
MESH_373_F0
 10
0
 20
0
 30
0
 70
128
 71
36
 72
20
 73
31
 74
35
 0
VERTEX
 8
MESH_373_F0
 10
0
 20
0
 30
0
 70
128
 71
35
 72
31
 73
32
 74
34
 0
VERTEX
 8
MESH_373_F0
 10
0
 20
0
 30
0
 70
128
 71
34
 72
32
 73
12
 74
12
 0
VERTEX
 8
MESH_373_F0
 10
0
 20
0
 30
0
 70
128
 71
36
 72
9
 73
8
 74
8
 0
VERTEX
 8
MESH_373_F0
 10
0
 20
0
 30
0
 70
128
 71
18
 72
13
 73
12
 74
12
 0
VERTEX
 8
MESH_373_F0
 10
0
 20
0
 30
0
 70
128
 71
30
 72
13
 73
18
 74
18
 0
VERTEX
 8
MESH_373_F0
 10
0
 20
0
 30
0
 70
128
 71
14
 72
13
 73
30
 74
30
 0
VERTEX
 8
MESH_373_F0
 10
0
 20
0
 30
0
 70
128
 71
15
 72
14
 73
16
 74
16
 0
VERTEX
 8
MESH_373_F0
 10
0
 20
0
 30
0
 70
128
 71
22
 72
15
 73
25
 74
25
 0
VERTEX
 8
MESH_373_F0
 10
0
 20
0
 30
0
 70
128
 71
15
 72
16
 73
25
 74
25
 0
VERTEX
 8
MESH_373_F0
 10
0
 20
0
 30
0
 70
128
 71
27
 72
26
 73
24
 74
23
 0
VERTEX
 8
MESH_373_F0
 10
0
 20
0
 30
0
 70
128
 71
14
 72
30
 73
16
 74
16
 0
VERTEX
 8
MESH_373_F0
 10
0
 20
0
 30
0
 70
128
 71
23
 72
6
 73
5
 74
5
 0
VERTEX
 8
MESH_373_F0
 10
0
 20
0
 30
0
 70
128
 71
28
 72
6
 73
23
 74
23
 0
VERTEX
 8
MESH_373_F0
 10
0
 20
0
 30
0
 70
128
 71
19
 72
6
 73
28
 74
28
 0
SEQEND
 0
POLYLINE
 8
MESH_372_F0
 66
1
 10
0.0
 20
0.0
 30
0.0
 70
64
 71
15
 72
13
 0
VERTEX
 8
MESH_372_F0
 10
125.7749
 20
261
 30
-83.1501
 70
192
 0
VERTEX
 8
MESH_372_F0
 10
116.55
 20
261
 30
-83.15
 70
192
 0
VERTEX
 8
MESH_372_F0
 10
113.9286
 20
261
 30
-83.6714
 70
192
 0
VERTEX
 8
MESH_372_F0
 10
111.7063
 20
261
 30
-85.1563
 70
192
 0
VERTEX
 8
MESH_372_F0
 10
110.2214
 20
261
 30
-87.3786
 70
192
 0
VERTEX
 8
MESH_372_F0
 10
109.7
 20
261
 30
-90
 70
192
 0
VERTEX
 8
MESH_372_F0
 10
110.2214
 20
261
 30
-92.6214
 70
192
 0
VERTEX
 8
MESH_372_F0
 10
111.7063
 20
261
 30
-94.8437
 70
192
 0
VERTEX
 8
MESH_372_F0
 10
113.9286
 20
261
 30
-96.3286
 70
192
 0
VERTEX
 8
MESH_372_F0
 10
116.55
 20
261
 30
-96.85
 70
192
 0
VERTEX
 8
MESH_372_F0
 10
125.7751
 20
261
 30
-96.85
 70
192
 0
VERTEX
 8
MESH_372_F0
 10
123.5529
 20
261
 30
-94.5566
 70
192
 0
VERTEX
 8
MESH_372_F0
 10
122.3541
 20
261
 30
-91.5968
 70
192
 0
VERTEX
 8
MESH_372_F0
 10
122.3541
 20
261
 30
-88.4034
 70
192
 0
VERTEX
 8
MESH_372_F0
 10
123.5528
 20
261
 30
-85.4435
 70
192
 0
VERTEX
 8
MESH_372_F0
 10
0
 20
0
 30
0
 70
128
 71
15
 72
2
 73
1
 74
1
 0
VERTEX
 8
MESH_372_F0
 10
0
 20
0
 30
0
 70
128
 71
14
 72
2
 73
15
 74
15
 0
VERTEX
 8
MESH_372_F0
 10
0
 20
0
 30
0
 70
128
 71
3
 72
2
 73
14
 74
14
 0
VERTEX
 8
MESH_372_F0
 10
0
 20
0
 30
0
 70
128
 71
3
 72
14
 73
4
 74
4
 0
VERTEX
 8
MESH_372_F0
 10
0
 20
0
 30
0
 70
128
 71
14
 72
5
 73
4
 74
4
 0
VERTEX
 8
MESH_372_F0
 10
0
 20
0
 30
0
 70
128
 71
6
 72
5
 73
14
 74
14
 0
VERTEX
 8
MESH_372_F0
 10
0
 20
0
 30
0
 70
128
 71
7
 72
6
 73
13
 74
13
 0
VERTEX
 8
MESH_372_F0
 10
0
 20
0
 30
0
 70
128
 71
7
 72
13
 73
8
 74
8
 0
VERTEX
 8
MESH_372_F0
 10
0
 20
0
 30
0
 70
128
 71
13
 72
9
 73
8
 74
8
 0
VERTEX
 8
MESH_372_F0
 10
0
 20
0
 30
0
 70
128
 71
10
 72
9
 73
13
 74
13
 0
VERTEX
 8
MESH_372_F0
 10
0
 20
0
 30
0
 70
128
 71
11
 72
10
 73
12
 74
12
 0
VERTEX
 8
MESH_372_F0
 10
0
 20
0
 30
0
 70
128
 71
10
 72
13
 73
12
 74
12
 0
VERTEX
 8
MESH_372_F0
 10
0
 20
0
 30
0
 70
128
 71
6
 72
14
 73
13
 74
13
 0
SEQEND
 0
POLYLINE
 8
MESH_371_F0
 66
1
 10
0.0
 20
0.0
 30
0.0
 70
64
 71
46
 72
54
 0
VERTEX
 8
MESH_371_F0
 10
116.55
 20
261
 30
-83.15
 70
192
 0
VERTEX
 8
MESH_371_F0
 10
116.55
 20
261.134
 30
-82.65
 70
192
 0
VERTEX
 8
MESH_371_F0
 10
116.55
 20
261.5
 30
-82.284
 70
192
 0
VERTEX
 8
MESH_371_F0
 10
116.55
 20
262
 30
-82.15
 70
192
 0
VERTEX
 8
MESH_371_F0
 10
113.5459
 20
262
 30
-82.7475
 70
192
 0
VERTEX
 8
MESH_371_F0
 10
110.9992
 20
262
 30
-84.4492
 70
192
 0
VERTEX
 8
MESH_371_F0
 10
109.2975
 20
262
 30
-86.9959
 70
192
 0
VERTEX
 8
MESH_371_F0
 10
108.7
 20
262
 30
-90
 70
192
 0
VERTEX
 8
MESH_371_F0
 10
109.2975
 20
262
 30
-93.0041
 70
192
 0
VERTEX
 8
MESH_371_F0
 10
110.9992
 20
262
 30
-95.5508
 70
192
 0
VERTEX
 8
MESH_371_F0
 10
113.5459
 20
262
 30
-97.2524
 70
192
 0
VERTEX
 8
MESH_371_F0
 10
116.55
 20
262
 30
-97.85
 70
192
 0
VERTEX
 8
MESH_371_F0
 10
116.55
 20
261.5
 30
-97.716
 70
192
 0
VERTEX
 8
MESH_371_F0
 10
116.55
 20
261.134
 30
-97.35
 70
192
 0
VERTEX
 8
MESH_371_F0
 10
116.55
 20
261
 30
-96.85
 70
192
 0
VERTEX
 8
MESH_371_F0
 10
113.9286
 20
261
 30
-96.3286
 70
192
 0
VERTEX
 8
MESH_371_F0
 10
111.7063
 20
261
 30
-94.8437
 70
192
 0
VERTEX
 8
MESH_371_F0
 10
110.2214
 20
261
 30
-92.6214
 70
192
 0
VERTEX
 8
MESH_371_F0
 10
109.7
 20
261
 30
-90
 70
192
 0
VERTEX
 8
MESH_371_F0
 10
110.2214
 20
261
 30
-87.3786
 70
192
 0
VERTEX
 8
MESH_371_F0
 10
111.7063
 20
261
 30
-85.1563
 70
192
 0
VERTEX
 8
MESH_371_F0
 10
113.9286
 20
261
 30
-83.6714
 70
192
 0
VERTEX
 8
MESH_371_F0
 10
113.911
 20
261.5
 30
-82.7493
 70
192
 0
VERTEX
 8
MESH_371_F0
 10
114.0361
 20
261.134
 30
-83.0932
 70
192
 0
VERTEX
 8
MESH_371_F0
 10
114.1187
 20
261.0341
 30
-83.3199
 70
192
 0
VERTEX
 8
MESH_371_F0
 10
111.5902
 20
261.5
 30
-84.0892
 70
192
 0
VERTEX
 8
MESH_371_F0
 10
111.8255
 20
261.134
 30
-84.3696
 70
192
 0
VERTEX
 8
MESH_371_F0
 10
111.95
 20
261.0348
 30
-84.5766
 70
192
 0
VERTEX
 8
MESH_371_F0
 10
109.8677
 20
261.5
 30
-86.142
 70
192
 0
VERTEX
 8
MESH_371_F0
 10
110.1847
 20
261.134
 30
-86.325
 70
192
 0
VERTEX
 8
MESH_371_F0
 10
110.3473
 20
261.0356
 30
-86.5157
 70
192
 0
VERTEX
 8
MESH_371_F0
 10
108.9512
 20
261.5
 30
-88.6601
 70
192
 0
VERTEX
 8
MESH_371_F0
 10
109.3117
 20
261.134
 30
-88.7237
 70
192
 0
VERTEX
 8
MESH_371_F0
 10
109.5193
 20
261.0364
 30
-88.8932
 70
192
 0
VERTEX
 8
MESH_371_F0
 10
108.9512
 20
261.5
 30
-91.3399
 70
192
 0
VERTEX
 8
MESH_371_F0
 10
109.3117
 20
261.134
 30
-91.2763
 70
192
 0
VERTEX
 8
MESH_371_F0
 10
109.5707
 20
261.0372
 30
-91.4102
 70
192
 0
VERTEX
 8
MESH_371_F0
 10
109.8677
 20
261.5
 30
-93.858
 70
192
 0
VERTEX
 8
MESH_371_F0
 10
110.1847
 20
261.134
 30
-93.675
 70
192
 0
VERTEX
 8
MESH_371_F0
 10
110.4943
 20
261.0381
 30
-93.7516
 70
192
 0
VERTEX
 8
MESH_371_F0
 10
111.5902
 20
261.5
 30
-95.9108
 70
192
 0
VERTEX
 8
MESH_371_F0
 10
111.8255
 20
261.134
 30
-95.6304
 70
192
 0
VERTEX
 8
MESH_371_F0
 10
112.1738
 20
261.0392
 30
-95.6254
 70
192
 0
VERTEX
 8
MESH_371_F0
 10
113.911
 20
261.5
 30
-97.2507
 70
192
 0
VERTEX
 8
MESH_371_F0
 10
114.0361
 20
261.134
 30
-96.9067
 70
192
 0
VERTEX
 8
MESH_371_F0
 10
113.8825
 20
261.0331
 30
-96.5855
 70
192
 0
VERTEX
 8
MESH_371_F0
 10
0
 20
0
 30
0
 70
128
 71
25
 72
1
 73
22
 74
22
 0
VERTEX
 8
MESH_371_F0
 10
0
 20
0
 30
0
 70
128
 71
27
 72
24
 73
25
 74
28
 0
VERTEX
 8
MESH_371_F0
 10
0
 20
0
 30
0
 70
128
 71
28
 72
31
 73
30
 74
27
 0
VERTEX
 8
MESH_371_F0
 10
0
 20
0
 30
0
 70
128
 71
23
 72
24
 73
27
 74
26
 0
VERTEX
 8
MESH_371_F0
 10
0
 20
0
 30
0
 70
128
 71
26
 72
5
 73
23
 74
23
 0
VERTEX
 8
MESH_371_F0
 10
0
 20
0
 30
0
 70
128
 71
5
 72
4
 73
23
 74
23
 0
VERTEX
 8
MESH_371_F0
 10
0
 20
0
 30
0
 70
128
 71
4
 72
3
 73
23
 74
23
 0
VERTEX
 8
MESH_371_F0
 10
0
 20
0
 30
0
 70
128
 71
3
 72
24
 73
23
 74
23
 0
VERTEX
 8
MESH_371_F0
 10
0
 20
0
 30
0
 70
128
 71
2
 72
24
 73
3
 74
3
 0
VERTEX
 8
MESH_371_F0
 10
0
 20
0
 30
0
 70
128
 71
25
 72
24
 73
2
 74
2
 0
VERTEX
 8
MESH_371_F0
 10
0
 20
0
 30
0
 70
128
 71
25
 72
2
 73
1
 74
1
 0
VERTEX
 8
MESH_371_F0
 10
0
 20
0
 30
0
 70
128
 71
26
 72
6
 73
5
 74
5
 0
VERTEX
 8
MESH_371_F0
 10
0
 20
0
 30
0
 70
128
 71
29
 72
6
 73
26
 74
26
 0
VERTEX
 8
MESH_371_F0
 10
0
 20
0
 30
0
 70
128
 71
33
 72
32
 73
29
 74
30
 0
VERTEX
 8
MESH_371_F0
 10
0
 20
0
 30
0
 70
128
 71
30
 72
31
 73
34
 74
33
 0
VERTEX
 8
MESH_371_F0
 10
0
 20
0
 30
0
 70
128
 71
35
 72
32
 73
33
 74
36
 0
VERTEX
 8
MESH_371_F0
 10
0
 20
0
 30
0
 70
128
 71
36
 72
39
 73
38
 74
35
 0
VERTEX
 8
MESH_371_F0
 10
0
 20
0
 30
0
 70
128
 71
8
 72
35
 73
9
 74
9
 0
VERTEX
 8
MESH_371_F0
 10
0
 20
0
 30
0
 70
128
 71
35
 72
38
 73
9
 74
9
 0
VERTEX
 8
MESH_371_F0
 10
0
 20
0
 30
0
 70
128
 71
38
 72
10
 73
9
 74
9
 0
VERTEX
 8
MESH_371_F0
 10
0
 20
0
 30
0
 70
128
 71
41
 72
10
 73
38
 74
38
 0
VERTEX
 8
MESH_371_F0
 10
0
 20
0
 30
0
 70
128
 71
45
 72
44
 73
41
 74
42
 0
VERTEX
 8
MESH_371_F0
 10
0
 20
0
 30
0
 70
128
 71
42
 72
43
 73
46
 74
45
 0
VERTEX
 8
MESH_371_F0
 10
0
 20
0
 30
0
 70
128
 71
14
 72
45
 73
15
 74
15
 0
VERTEX
 8
MESH_371_F0
 10
0
 20
0
 30
0
 70
128
 71
45
 72
46
 73
15
 74
15
 0
VERTEX
 8
MESH_371_F0
 10
0
 20
0
 30
0
 70
128
 71
46
 72
16
 73
15
 74
15
 0
VERTEX
 8
MESH_371_F0
 10
0
 20
0
 30
0
 70
128
 71
43
 72
16
 73
46
 74
46
 0
VERTEX
 8
MESH_371_F0
 10
0
 20
0
 30
0
 70
128
 71
17
 72
16
 73
43
 74
43
 0
VERTEX
 8
MESH_371_F0
 10
0
 20
0
 30
0
 70
128
 71
18
 72
17
 73
40
 74
40
 0
VERTEX
 8
MESH_371_F0
 10
0
 20
0
 30
0
 70
128
 71
19
 72
18
 73
37
 74
37
 0
VERTEX
 8
MESH_371_F0
 10
0
 20
0
 30
0
 70
128
 71
20
 72
19
 73
34
 74
34
 0
VERTEX
 8
MESH_371_F0
 10
0
 20
0
 30
0
 70
128
 71
21
 72
20
 73
31
 74
31
 0
VERTEX
 8
MESH_371_F0
 10
0
 20
0
 30
0
 70
128
 71
22
 72
21
 73
28
 74
28
 0
VERTEX
 8
MESH_371_F0
 10
0
 20
0
 30
0
 70
128
 71
22
 72
28
 73
25
 74
25
 0
VERTEX
 8
MESH_371_F0
 10
0
 20
0
 30
0
 70
128
 71
29
 72
7
 73
6
 74
6
 0
VERTEX
 8
MESH_371_F0
 10
0
 20
0
 30
0
 70
128
 71
32
 72
7
 73
29
 74
29
 0
VERTEX
 8
MESH_371_F0
 10
0
 20
0
 30
0
 70
128
 71
8
 72
7
 73
32
 74
32
 0
VERTEX
 8
MESH_371_F0
 10
0
 20
0
 30
0
 70
128
 71
8
 72
32
 73
35
 74
35
 0
VERTEX
 8
MESH_371_F0
 10
0
 20
0
 30
0
 70
128
 71
41
 72
11
 73
10
 74
10
 0
VERTEX
 8
MESH_371_F0
 10
0
 20
0
 30
0
 70
128
 71
44
 72
11
 73
41
 74
41
 0
VERTEX
 8
MESH_371_F0
 10
0
 20
0
 30
0
 70
128
 71
12
 72
11
 73
44
 74
44
 0
VERTEX
 8
MESH_371_F0
 10
0
 20
0
 30
0
 70
128
 71
12
 72
44
 73
13
 74
13
 0
VERTEX
 8
MESH_371_F0
 10
0
 20
0
 30
0
 70
128
 71
44
 72
14
 73
13
 74
13
 0
VERTEX
 8
MESH_371_F0
 10
0
 20
0
 30
0
 70
128
 71
45
 72
14
 73
44
 74
44
 0
VERTEX
 8
MESH_371_F0
 10
0
 20
0
 30
0
 70
128
 71
30
 72
29
 73
26
 74
27
 0
VERTEX
 8
MESH_371_F0
 10
0
 20
0
 30
0
 70
128
 71
21
 72
31
 73
28
 74
28
 0
VERTEX
 8
MESH_371_F0
 10
0
 20
0
 30
0
 70
128
 71
37
 72
36
 73
33
 74
34
 0
VERTEX
 8
MESH_371_F0
 10
0
 20
0
 30
0
 70
128
 71
19
 72
37
 73
34
 74
34
 0
VERTEX
 8
MESH_371_F0
 10
0
 20
0
 30
0
 70
128
 71
20
 72
34
 73
31
 74
31
 0
VERTEX
 8
MESH_371_F0
 10
0
 20
0
 30
0
 70
128
 71
40
 72
39
 73
36
 74
37
 0
VERTEX
 8
MESH_371_F0
 10
0
 20
0
 30
0
 70
128
 71
18
 72
40
 73
37
 74
37
 0
VERTEX
 8
MESH_371_F0
 10
0
 20
0
 30
0
 70
128
 71
42
 72
41
 73
38
 74
39
 0
VERTEX
 8
MESH_371_F0
 10
0
 20
0
 30
0
 70
128
 71
17
 72
43
 73
40
 74
40
 0
VERTEX
 8
MESH_371_F0
 10
0
 20
0
 30
0
 70
128
 71
43
 72
42
 73
39
 74
40
 0
SEQEND
 0
POLYLINE
 8
MESH_370_F0
 66
1
 10
0.0
 20
0.0
 30
0.0
 70
64
 71
18
 72
16
 0
VERTEX
 8
MESH_370_F0
 10
116.55
 20
263
 30
-97.85
 70
192
 0
VERTEX
 8
MESH_370_F0
 10
116.55
 20
262
 30
-97.85
 70
192
 0
VERTEX
 8
MESH_370_F0
 10
113.5459
 20
262
 30
-97.2524
 70
192
 0
VERTEX
 8
MESH_370_F0
 10
110.9992
 20
262
 30
-95.5508
 70
192
 0
VERTEX
 8
MESH_370_F0
 10
109.2975
 20
262
 30
-93.0041
 70
192
 0
VERTEX
 8
MESH_370_F0
 10
108.7
 20
262
 30
-90
 70
192
 0
VERTEX
 8
MESH_370_F0
 10
109.2975
 20
262
 30
-86.9959
 70
192
 0
VERTEX
 8
MESH_370_F0
 10
110.9992
 20
262
 30
-84.4492
 70
192
 0
VERTEX
 8
MESH_370_F0
 10
113.5459
 20
262
 30
-82.7475
 70
192
 0
VERTEX
 8
MESH_370_F0
 10
116.55
 20
262
 30
-82.15
 70
192
 0
VERTEX
 8
MESH_370_F0
 10
116.55
 20
263
 30
-82.15
 70
192
 0
VERTEX
 8
MESH_370_F0
 10
113.5459
 20
263
 30
-82.7475
 70
192
 0
VERTEX
 8
MESH_370_F0
 10
110.9992
 20
263
 30
-84.4492
 70
192
 0
VERTEX
 8
MESH_370_F0
 10
109.2975
 20
263
 30
-86.9959
 70
192
 0
VERTEX
 8
MESH_370_F0
 10
108.7
 20
263
 30
-90
 70
192
 0
VERTEX
 8
MESH_370_F0
 10
109.2975
 20
263
 30
-93.0041
 70
192
 0
VERTEX
 8
MESH_370_F0
 10
110.9992
 20
263
 30
-95.5508
 70
192
 0
VERTEX
 8
MESH_370_F0
 10
113.5459
 20
263
 30
-97.2524
 70
192
 0
VERTEX
 8
MESH_370_F0
 10
0
 20
0
 30
0
 70
128
 71
1
 72
3
 73
2
 74
2
 0
VERTEX
 8
MESH_370_F0
 10
0
 20
0
 30
0
 70
128
 71
18
 72
3
 73
1
 74
1
 0
VERTEX
 8
MESH_370_F0
 10
0
 20
0
 30
0
 70
128
 71
4
 72
3
 73
18
 74
18
 0
VERTEX
 8
MESH_370_F0
 10
0
 20
0
 30
0
 70
128
 71
5
 72
4
 73
17
 74
17
 0
VERTEX
 8
MESH_370_F0
 10
0
 20
0
 30
0
 70
128
 71
15
 72
5
 73
16
 74
16
 0
VERTEX
 8
MESH_370_F0
 10
0
 20
0
 30
0
 70
128
 71
5
 72
17
 73
16
 74
16
 0
VERTEX
 8
MESH_370_F0
 10
0
 20
0
 30
0
 70
128
 71
15
 72
6
 73
5
 74
5
 0
VERTEX
 8
MESH_370_F0
 10
0
 20
0
 30
0
 70
128
 71
14
 72
6
 73
15
 74
15
 0
VERTEX
 8
MESH_370_F0
 10
0
 20
0
 30
0
 70
128
 71
7
 72
6
 73
14
 74
14
 0
VERTEX
 8
MESH_370_F0
 10
0
 20
0
 30
0
 70
128
 71
8
 72
7
 73
13
 74
13
 0
VERTEX
 8
MESH_370_F0
 10
0
 20
0
 30
0
 70
128
 71
9
 72
8
 73
12
 74
12
 0
VERTEX
 8
MESH_370_F0
 10
0
 20
0
 30
0
 70
128
 71
10
 72
9
 73
11
 74
11
 0
VERTEX
 8
MESH_370_F0
 10
0
 20
0
 30
0
 70
128
 71
9
 72
12
 73
11
 74
11
 0
VERTEX
 8
MESH_370_F0
 10
0
 20
0
 30
0
 70
128
 71
8
 72
13
 73
12
 74
12
 0
VERTEX
 8
MESH_370_F0
 10
0
 20
0
 30
0
 70
128
 71
7
 72
14
 73
13
 74
13
 0
VERTEX
 8
MESH_370_F0
 10
0
 20
0
 30
0
 70
128
 71
4
 72
18
 73
17
 74
17
 0
SEQEND
 0
POLYLINE
 8
MESH_369_F0
 66
1
 10
0.0
 20
0.0
 30
0.0
 70
64
 71
4
 72
2
 0
VERTEX
 8
MESH_369_F0
 10
180.45
 20
263
 30
-97.85
 70
192
 0
VERTEX
 8
MESH_369_F0
 10
180.45
 20
262
 30
-97.85
 70
192
 0
VERTEX
 8
MESH_369_F0
 10
116.55
 20
262
 30
-97.85
 70
192
 0
VERTEX
 8
MESH_369_F0
 10
116.55
 20
263
 30
-97.85
 70
192
 0
VERTEX
 8
MESH_369_F0
 10
0
 20
0
 30
0
 70
128
 71
1
 72
3
 73
2
 74
2
 0
VERTEX
 8
MESH_369_F0
 10
0
 20
0
 30
0
 70
128
 71
4
 72
3
 73
1
 74
1
 0
SEQEND
 0
POLYLINE
 8
MESH_368_F0
 66
1
 10
0.0
 20
0.0
 30
0.0
 70
64
 71
18
 72
16
 0
VERTEX
 8
MESH_368_F0
 10
180.45
 20
263
 30
-82.15
 70
192
 0
VERTEX
 8
MESH_368_F0
 10
180.45
 20
262
 30
-82.15
 70
192
 0
VERTEX
 8
MESH_368_F0
 10
183.4541
 20
262
 30
-82.7475
 70
192
 0
VERTEX
 8
MESH_368_F0
 10
186.0008
 20
262
 30
-84.4492
 70
192
 0
VERTEX
 8
MESH_368_F0
 10
187.7025
 20
262
 30
-86.9959
 70
192
 0
VERTEX
 8
MESH_368_F0
 10
188.3
 20
262
 30
-90
 70
192
 0
VERTEX
 8
MESH_368_F0
 10
187.7025
 20
262
 30
-93.0041
 70
192
 0
VERTEX
 8
MESH_368_F0
 10
186.0008
 20
262
 30
-95.5508
 70
192
 0
VERTEX
 8
MESH_368_F0
 10
183.4541
 20
262
 30
-97.2524
 70
192
 0
VERTEX
 8
MESH_368_F0
 10
180.45
 20
262
 30
-97.85
 70
192
 0
VERTEX
 8
MESH_368_F0
 10
180.45
 20
263
 30
-97.85
 70
192
 0
VERTEX
 8
MESH_368_F0
 10
183.4541
 20
263
 30
-97.2524
 70
192
 0
VERTEX
 8
MESH_368_F0
 10
186.0008
 20
263
 30
-95.5508
 70
192
 0
VERTEX
 8
MESH_368_F0
 10
187.7025
 20
263
 30
-93.0041
 70
192
 0
VERTEX
 8
MESH_368_F0
 10
188.3
 20
263
 30
-90
 70
192
 0
VERTEX
 8
MESH_368_F0
 10
187.7025
 20
263
 30
-86.9959
 70
192
 0
VERTEX
 8
MESH_368_F0
 10
186.0008
 20
263
 30
-84.4492
 70
192
 0
VERTEX
 8
MESH_368_F0
 10
183.4541
 20
263
 30
-82.7475
 70
192
 0
VERTEX
 8
MESH_368_F0
 10
0
 20
0
 30
0
 70
128
 71
1
 72
3
 73
2
 74
2
 0
VERTEX
 8
MESH_368_F0
 10
0
 20
0
 30
0
 70
128
 71
18
 72
3
 73
1
 74
1
 0
VERTEX
 8
MESH_368_F0
 10
0
 20
0
 30
0
 70
128
 71
4
 72
3
 73
18
 74
18
 0
VERTEX
 8
MESH_368_F0
 10
0
 20
0
 30
0
 70
128
 71
16
 72
4
 73
17
 74
17
 0
VERTEX
 8
MESH_368_F0
 10
0
 20
0
 30
0
 70
128
 71
4
 72
18
 73
17
 74
17
 0
VERTEX
 8
MESH_368_F0
 10
0
 20
0
 30
0
 70
128
 71
16
 72
5
 73
4
 74
4
 0
VERTEX
 8
MESH_368_F0
 10
0
 20
0
 30
0
 70
128
 71
15
 72
5
 73
16
 74
16
 0
VERTEX
 8
MESH_368_F0
 10
0
 20
0
 30
0
 70
128
 71
6
 72
5
 73
15
 74
15
 0
VERTEX
 8
MESH_368_F0
 10
0
 20
0
 30
0
 70
128
 71
7
 72
6
 73
14
 74
14
 0
VERTEX
 8
MESH_368_F0
 10
0
 20
0
 30
0
 70
128
 71
8
 72
7
 73
13
 74
13
 0
VERTEX
 8
MESH_368_F0
 10
0
 20
0
 30
0
 70
128
 71
9
 72
8
 73
12
 74
12
 0
VERTEX
 8
MESH_368_F0
 10
0
 20
0
 30
0
 70
128
 71
10
 72
9
 73
11
 74
11
 0
VERTEX
 8
MESH_368_F0
 10
0
 20
0
 30
0
 70
128
 71
9
 72
12
 73
11
 74
11
 0
VERTEX
 8
MESH_368_F0
 10
0
 20
0
 30
0
 70
128
 71
8
 72
13
 73
12
 74
12
 0
VERTEX
 8
MESH_368_F0
 10
0
 20
0
 30
0
 70
128
 71
7
 72
14
 73
13
 74
13
 0
VERTEX
 8
MESH_368_F0
 10
0
 20
0
 30
0
 70
128
 71
6
 72
15
 73
14
 74
14
 0
SEQEND
 0
POLYLINE
 8
MESH_367_F0
 66
1
 10
0.0
 20
0.0
 30
0.0
 70
64
 71
4
 72
2
 0
VERTEX
 8
MESH_367_F0
 10
116.55
 20
263
 30
-82.15
 70
192
 0
VERTEX
 8
MESH_367_F0
 10
116.55
 20
262
 30
-82.15
 70
192
 0
VERTEX
 8
MESH_367_F0
 10
180.45
 20
262
 30
-82.15
 70
192
 0
VERTEX
 8
MESH_367_F0
 10
180.45
 20
263
 30
-82.15
 70
192
 0
VERTEX
 8
MESH_367_F0
 10
0
 20
0
 30
0
 70
128
 71
1
 72
3
 73
2
 74
2
 0
VERTEX
 8
MESH_367_F0
 10
0
 20
0
 30
0
 70
128
 71
4
 72
3
 73
1
 74
1
 0
SEQEND
 0
POLYLINE
 8
MESH_366_F0
 66
1
 10
0.0
 20
0.0
 30
0.0
 70
64
 71
8
 72
6
 0
VERTEX
 8
MESH_366_F0
 10
116.55
 20
264
 30
-83.15
 70
192
 0
VERTEX
 8
MESH_366_F0
 10
116.55
 20
263.866
 30
-82.65
 70
192
 0
VERTEX
 8
MESH_366_F0
 10
116.55
 20
263.5
 30
-82.284
 70
192
 0
VERTEX
 8
MESH_366_F0
 10
116.55
 20
263
 30
-82.15
 70
192
 0
VERTEX
 8
MESH_366_F0
 10
180.45
 20
263
 30
-82.15
 70
192
 0
VERTEX
 8
MESH_366_F0
 10
180.45
 20
263.5
 30
-82.284
 70
192
 0
VERTEX
 8
MESH_366_F0
 10
180.45
 20
263.866
 30
-82.65
 70
192
 0
VERTEX
 8
MESH_366_F0
 10
180.45
 20
264
 30
-83.15
 70
192
 0
VERTEX
 8
MESH_366_F0
 10
0
 20
0
 30
0
 70
128
 71
7
 72
1
 73
8
 74
8
 0
VERTEX
 8
MESH_366_F0
 10
0
 20
0
 30
0
 70
128
 71
2
 72
1
 73
7
 74
7
 0
VERTEX
 8
MESH_366_F0
 10
0
 20
0
 30
0
 70
128
 71
2
 72
7
 73
3
 74
3
 0
VERTEX
 8
MESH_366_F0
 10
0
 20
0
 30
0
 70
128
 71
7
 72
6
 73
3
 74
3
 0
VERTEX
 8
MESH_366_F0
 10
0
 20
0
 30
0
 70
128
 71
6
 72
5
 73
3
 74
3
 0
VERTEX
 8
MESH_366_F0
 10
0
 20
0
 30
0
 70
128
 71
5
 72
4
 73
3
 74
3
 0
SEQEND
 0
POLYLINE
 8
MESH_365_F0
 66
1
 10
0.0
 20
0.0
 30
0.0
 70
64
 71
46
 72
54
 0
VERTEX
 8
MESH_365_F0
 10
116.55
 20
264
 30
-96.85
 70
192
 0
VERTEX
 8
MESH_365_F0
 10
116.55
 20
263.866
 30
-97.35
 70
192
 0
VERTEX
 8
MESH_365_F0
 10
116.55
 20
263.5
 30
-97.716
 70
192
 0
VERTEX
 8
MESH_365_F0
 10
116.55
 20
263
 30
-97.85
 70
192
 0
VERTEX
 8
MESH_365_F0
 10
113.5459
 20
263
 30
-97.2524
 70
192
 0
VERTEX
 8
MESH_365_F0
 10
110.9992
 20
263
 30
-95.5508
 70
192
 0
VERTEX
 8
MESH_365_F0
 10
109.2975
 20
263
 30
-93.0041
 70
192
 0
VERTEX
 8
MESH_365_F0
 10
108.7
 20
263
 30
-90
 70
192
 0
VERTEX
 8
MESH_365_F0
 10
109.2975
 20
263
 30
-86.9959
 70
192
 0
VERTEX
 8
MESH_365_F0
 10
110.9992
 20
263
 30
-84.4492
 70
192
 0
VERTEX
 8
MESH_365_F0
 10
113.5459
 20
263
 30
-82.7475
 70
192
 0
VERTEX
 8
MESH_365_F0
 10
116.55
 20
263
 30
-82.15
 70
192
 0
VERTEX
 8
MESH_365_F0
 10
116.55
 20
263.5
 30
-82.284
 70
192
 0
VERTEX
 8
MESH_365_F0
 10
116.55
 20
263.866
 30
-82.65
 70
192
 0
VERTEX
 8
MESH_365_F0
 10
116.55
 20
264
 30
-83.15
 70
192
 0
VERTEX
 8
MESH_365_F0
 10
113.9286
 20
264
 30
-83.6714
 70
192
 0
VERTEX
 8
MESH_365_F0
 10
111.7063
 20
264
 30
-85.1563
 70
192
 0
VERTEX
 8
MESH_365_F0
 10
110.2214
 20
264
 30
-87.3786
 70
192
 0
VERTEX
 8
MESH_365_F0
 10
109.7
 20
264
 30
-90
 70
192
 0
VERTEX
 8
MESH_365_F0
 10
110.2214
 20
264
 30
-92.6214
 70
192
 0
VERTEX
 8
MESH_365_F0
 10
111.7063
 20
264
 30
-94.8437
 70
192
 0
VERTEX
 8
MESH_365_F0
 10
113.9286
 20
264
 30
-96.3286
 70
192
 0
VERTEX
 8
MESH_365_F0
 10
113.911
 20
263.5
 30
-97.2507
 70
192
 0
VERTEX
 8
MESH_365_F0
 10
114.0361
 20
263.866
 30
-96.9067
 70
192
 0
VERTEX
 8
MESH_365_F0
 10
114.1186
 20
263.9659
 30
-96.6801
 70
192
 0
VERTEX
 8
MESH_365_F0
 10
111.5902
 20
263.5
 30
-95.9108
 70
192
 0
VERTEX
 8
MESH_365_F0
 10
111.8255
 20
263.866
 30
-95.6304
 70
192
 0
VERTEX
 8
MESH_365_F0
 10
111.95
 20
263.9652
 30
-95.4234
 70
192
 0
VERTEX
 8
MESH_365_F0
 10
109.8677
 20
263.5
 30
-93.858
 70
192
 0
VERTEX
 8
MESH_365_F0
 10
110.1847
 20
263.866
 30
-93.675
 70
192
 0
VERTEX
 8
MESH_365_F0
 10
110.3473
 20
263.9644
 30
-93.4843
 70
192
 0
VERTEX
 8
MESH_365_F0
 10
108.9512
 20
263.5
 30
-91.3399
 70
192
 0
VERTEX
 8
MESH_365_F0
 10
109.3117
 20
263.866
 30
-91.2763
 70
192
 0
VERTEX
 8
MESH_365_F0
 10
109.5193
 20
263.9636
 30
-91.1068
 70
192
 0
VERTEX
 8
MESH_365_F0
 10
108.9512
 20
263.5
 30
-88.6601
 70
192
 0
VERTEX
 8
MESH_365_F0
 10
109.3117
 20
263.866
 30
-88.7237
 70
192
 0
VERTEX
 8
MESH_365_F0
 10
109.5707
 20
263.9628
 30
-88.5898
 70
192
 0
VERTEX
 8
MESH_365_F0
 10
109.8677
 20
263.5
 30
-86.142
 70
192
 0
VERTEX
 8
MESH_365_F0
 10
110.1847
 20
263.866
 30
-86.325
 70
192
 0
VERTEX
 8
MESH_365_F0
 10
110.4943
 20
263.9618
 30
-86.2483
 70
192
 0
VERTEX
 8
MESH_365_F0
 10
111.5902
 20
263.5
 30
-84.0892
 70
192
 0
VERTEX
 8
MESH_365_F0
 10
111.8255
 20
263.866
 30
-84.3696
 70
192
 0
VERTEX
 8
MESH_365_F0
 10
112.1738
 20
263.9608
 30
-84.3746
 70
192
 0
VERTEX
 8
MESH_365_F0
 10
113.911
 20
263.5
 30
-82.7493
 70
192
 0
VERTEX
 8
MESH_365_F0
 10
114.0361
 20
263.866
 30
-83.0932
 70
192
 0
VERTEX
 8
MESH_365_F0
 10
113.8825
 20
263.9669
 30
-83.4145
 70
192
 0
VERTEX
 8
MESH_365_F0
 10
0
 20
0
 30
0
 70
128
 71
25
 72
1
 73
22
 74
22
 0
VERTEX
 8
MESH_365_F0
 10
0
 20
0
 30
0
 70
128
 71
27
 72
24
 73
25
 74
28
 0
VERTEX
 8
MESH_365_F0
 10
0
 20
0
 30
0
 70
128
 71
28
 72
31
 73
30
 74
27
 0
VERTEX
 8
MESH_365_F0
 10
0
 20
0
 30
0
 70
128
 71
23
 72
24
 73
27
 74
26
 0
VERTEX
 8
MESH_365_F0
 10
0
 20
0
 30
0
 70
128
 71
26
 72
5
 73
23
 74
23
 0
VERTEX
 8
MESH_365_F0
 10
0
 20
0
 30
0
 70
128
 71
5
 72
4
 73
23
 74
23
 0
VERTEX
 8
MESH_365_F0
 10
0
 20
0
 30
0
 70
128
 71
4
 72
3
 73
23
 74
23
 0
VERTEX
 8
MESH_365_F0
 10
0
 20
0
 30
0
 70
128
 71
3
 72
24
 73
23
 74
23
 0
VERTEX
 8
MESH_365_F0
 10
0
 20
0
 30
0
 70
128
 71
2
 72
24
 73
3
 74
3
 0
VERTEX
 8
MESH_365_F0
 10
0
 20
0
 30
0
 70
128
 71
25
 72
24
 73
2
 74
2
 0
VERTEX
 8
MESH_365_F0
 10
0
 20
0
 30
0
 70
128
 71
25
 72
2
 73
1
 74
1
 0
VERTEX
 8
MESH_365_F0
 10
0
 20
0
 30
0
 70
128
 71
26
 72
6
 73
5
 74
5
 0
VERTEX
 8
MESH_365_F0
 10
0
 20
0
 30
0
 70
128
 71
29
 72
6
 73
26
 74
26
 0
VERTEX
 8
MESH_365_F0
 10
0
 20
0
 30
0
 70
128
 71
33
 72
32
 73
29
 74
30
 0
VERTEX
 8
MESH_365_F0
 10
0
 20
0
 30
0
 70
128
 71
30
 72
31
 73
34
 74
33
 0
VERTEX
 8
MESH_365_F0
 10
0
 20
0
 30
0
 70
128
 71
35
 72
32
 73
33
 74
36
 0
VERTEX
 8
MESH_365_F0
 10
0
 20
0
 30
0
 70
128
 71
36
 72
39
 73
38
 74
35
 0
VERTEX
 8
MESH_365_F0
 10
0
 20
0
 30
0
 70
128
 71
8
 72
35
 73
9
 74
9
 0
VERTEX
 8
MESH_365_F0
 10
0
 20
0
 30
0
 70
128
 71
35
 72
38
 73
9
 74
9
 0
VERTEX
 8
MESH_365_F0
 10
0
 20
0
 30
0
 70
128
 71
38
 72
10
 73
9
 74
9
 0
VERTEX
 8
MESH_365_F0
 10
0
 20
0
 30
0
 70
128
 71
41
 72
10
 73
38
 74
38
 0
VERTEX
 8
MESH_365_F0
 10
0
 20
0
 30
0
 70
128
 71
45
 72
44
 73
41
 74
42
 0
VERTEX
 8
MESH_365_F0
 10
0
 20
0
 30
0
 70
128
 71
42
 72
43
 73
46
 74
45
 0
VERTEX
 8
MESH_365_F0
 10
0
 20
0
 30
0
 70
128
 71
14
 72
45
 73
15
 74
15
 0
VERTEX
 8
MESH_365_F0
 10
0
 20
0
 30
0
 70
128
 71
45
 72
46
 73
15
 74
15
 0
VERTEX
 8
MESH_365_F0
 10
0
 20
0
 30
0
 70
128
 71
46
 72
16
 73
15
 74
15
 0
VERTEX
 8
MESH_365_F0
 10
0
 20
0
 30
0
 70
128
 71
43
 72
16
 73
46
 74
46
 0
VERTEX
 8
MESH_365_F0
 10
0
 20
0
 30
0
 70
128
 71
17
 72
16
 73
43
 74
43
 0
VERTEX
 8
MESH_365_F0
 10
0
 20
0
 30
0
 70
128
 71
18
 72
17
 73
40
 74
40
 0
VERTEX
 8
MESH_365_F0
 10
0
 20
0
 30
0
 70
128
 71
19
 72
18
 73
37
 74
37
 0
VERTEX
 8
MESH_365_F0
 10
0
 20
0
 30
0
 70
128
 71
20
 72
19
 73
34
 74
34
 0
VERTEX
 8
MESH_365_F0
 10
0
 20
0
 30
0
 70
128
 71
21
 72
20
 73
31
 74
31
 0
VERTEX
 8
MESH_365_F0
 10
0
 20
0
 30
0
 70
128
 71
22
 72
21
 73
28
 74
28
 0
VERTEX
 8
MESH_365_F0
 10
0
 20
0
 30
0
 70
128
 71
22
 72
28
 73
25
 74
25
 0
VERTEX
 8
MESH_365_F0
 10
0
 20
0
 30
0
 70
128
 71
29
 72
7
 73
6
 74
6
 0
VERTEX
 8
MESH_365_F0
 10
0
 20
0
 30
0
 70
128
 71
32
 72
7
 73
29
 74
29
 0
VERTEX
 8
MESH_365_F0
 10
0
 20
0
 30
0
 70
128
 71
8
 72
7
 73
32
 74
32
 0
VERTEX
 8
MESH_365_F0
 10
0
 20
0
 30
0
 70
128
 71
8
 72
32
 73
35
 74
35
 0
VERTEX
 8
MESH_365_F0
 10
0
 20
0
 30
0
 70
128
 71
41
 72
11
 73
10
 74
10
 0
VERTEX
 8
MESH_365_F0
 10
0
 20
0
 30
0
 70
128
 71
44
 72
11
 73
41
 74
41
 0
VERTEX
 8
MESH_365_F0
 10
0
 20
0
 30
0
 70
128
 71
12
 72
11
 73
44
 74
44
 0
VERTEX
 8
MESH_365_F0
 10
0
 20
0
 30
0
 70
128
 71
12
 72
44
 73
13
 74
13
 0
VERTEX
 8
MESH_365_F0
 10
0
 20
0
 30
0
 70
128
 71
44
 72
14
 73
13
 74
13
 0
VERTEX
 8
MESH_365_F0
 10
0
 20
0
 30
0
 70
128
 71
45
 72
14
 73
44
 74
44
 0
VERTEX
 8
MESH_365_F0
 10
0
 20
0
 30
0
 70
128
 71
30
 72
29
 73
26
 74
27
 0
VERTEX
 8
MESH_365_F0
 10
0
 20
0
 30
0
 70
128
 71
21
 72
31
 73
28
 74
28
 0
VERTEX
 8
MESH_365_F0
 10
0
 20
0
 30
0
 70
128
 71
37
 72
36
 73
33
 74
34
 0
VERTEX
 8
MESH_365_F0
 10
0
 20
0
 30
0
 70
128
 71
19
 72
37
 73
34
 74
34
 0
VERTEX
 8
MESH_365_F0
 10
0
 20
0
 30
0
 70
128
 71
20
 72
34
 73
31
 74
31
 0
VERTEX
 8
MESH_365_F0
 10
0
 20
0
 30
0
 70
128
 71
40
 72
39
 73
36
 74
37
 0
VERTEX
 8
MESH_365_F0
 10
0
 20
0
 30
0
 70
128
 71
18
 72
40
 73
37
 74
37
 0
VERTEX
 8
MESH_365_F0
 10
0
 20
0
 30
0
 70
128
 71
42
 72
41
 73
38
 74
39
 0
VERTEX
 8
MESH_365_F0
 10
0
 20
0
 30
0
 70
128
 71
17
 72
43
 73
40
 74
40
 0
VERTEX
 8
MESH_365_F0
 10
0
 20
0
 30
0
 70
128
 71
43
 72
42
 73
39
 74
40
 0
SEQEND
 0
POLYLINE
 8
MESH_364_F0
 66
1
 10
0.0
 20
0.0
 30
0.0
 70
64
 71
8
 72
6
 0
VERTEX
 8
MESH_364_F0
 10
180.45
 20
264
 30
-96.85
 70
192
 0
VERTEX
 8
MESH_364_F0
 10
180.45
 20
263.866
 30
-97.35
 70
192
 0
VERTEX
 8
MESH_364_F0
 10
180.45
 20
263.5
 30
-97.716
 70
192
 0
VERTEX
 8
MESH_364_F0
 10
180.45
 20
263
 30
-97.85
 70
192
 0
VERTEX
 8
MESH_364_F0
 10
116.55
 20
263
 30
-97.85
 70
192
 0
VERTEX
 8
MESH_364_F0
 10
116.55
 20
263.5
 30
-97.716
 70
192
 0
VERTEX
 8
MESH_364_F0
 10
116.55
 20
263.866
 30
-97.35
 70
192
 0
VERTEX
 8
MESH_364_F0
 10
116.55
 20
264
 30
-96.85
 70
192
 0
VERTEX
 8
MESH_364_F0
 10
0
 20
0
 30
0
 70
128
 71
7
 72
1
 73
8
 74
8
 0
VERTEX
 8
MESH_364_F0
 10
0
 20
0
 30
0
 70
128
 71
2
 72
1
 73
7
 74
7
 0
VERTEX
 8
MESH_364_F0
 10
0
 20
0
 30
0
 70
128
 71
2
 72
7
 73
3
 74
3
 0
VERTEX
 8
MESH_364_F0
 10
0
 20
0
 30
0
 70
128
 71
7
 72
6
 73
3
 74
3
 0
VERTEX
 8
MESH_364_F0
 10
0
 20
0
 30
0
 70
128
 71
6
 72
5
 73
3
 74
3
 0
VERTEX
 8
MESH_364_F0
 10
0
 20
0
 30
0
 70
128
 71
5
 72
4
 73
3
 74
3
 0
SEQEND
 0
POLYLINE
 8
MESH_363_F0
 66
1
 10
0.0
 20
0.0
 30
0.0
 70
64
 71
46
 72
54
 0
VERTEX
 8
MESH_363_F0
 10
180.45
 20
264
 30
-83.15
 70
192
 0
VERTEX
 8
MESH_363_F0
 10
180.45
 20
263.866
 30
-82.65
 70
192
 0
VERTEX
 8
MESH_363_F0
 10
180.45
 20
263.5
 30
-82.284
 70
192
 0
VERTEX
 8
MESH_363_F0
 10
180.45
 20
263
 30
-82.15
 70
192
 0
VERTEX
 8
MESH_363_F0
 10
183.4541
 20
263
 30
-82.7475
 70
192
 0
VERTEX
 8
MESH_363_F0
 10
186.0008
 20
263
 30
-84.4492
 70
192
 0
VERTEX
 8
MESH_363_F0
 10
187.7025
 20
263
 30
-86.9959
 70
192
 0
VERTEX
 8
MESH_363_F0
 10
188.3
 20
263
 30
-90
 70
192
 0
VERTEX
 8
MESH_363_F0
 10
187.7025
 20
263
 30
-93.0041
 70
192
 0
VERTEX
 8
MESH_363_F0
 10
186.0008
 20
263
 30
-95.5508
 70
192
 0
VERTEX
 8
MESH_363_F0
 10
183.4541
 20
263
 30
-97.2524
 70
192
 0
VERTEX
 8
MESH_363_F0
 10
180.45
 20
263
 30
-97.85
 70
192
 0
VERTEX
 8
MESH_363_F0
 10
180.45
 20
263.5
 30
-97.716
 70
192
 0
VERTEX
 8
MESH_363_F0
 10
180.45
 20
263.866
 30
-97.35
 70
192
 0
VERTEX
 8
MESH_363_F0
 10
180.45
 20
264
 30
-96.85
 70
192
 0
VERTEX
 8
MESH_363_F0
 10
183.0714
 20
264
 30
-96.3286
 70
192
 0
VERTEX
 8
MESH_363_F0
 10
185.2937
 20
264
 30
-94.8437
 70
192
 0
VERTEX
 8
MESH_363_F0
 10
186.7786
 20
264
 30
-92.6214
 70
192
 0
VERTEX
 8
MESH_363_F0
 10
187.3
 20
264
 30
-90
 70
192
 0
VERTEX
 8
MESH_363_F0
 10
186.7786
 20
264
 30
-87.3786
 70
192
 0
VERTEX
 8
MESH_363_F0
 10
185.2937
 20
264
 30
-85.1563
 70
192
 0
VERTEX
 8
MESH_363_F0
 10
183.0714
 20
264
 30
-83.6714
 70
192
 0
VERTEX
 8
MESH_363_F0
 10
183.089
 20
263.5
 30
-82.7493
 70
192
 0
VERTEX
 8
MESH_363_F0
 10
182.9638
 20
263.866
 30
-83.0932
 70
192
 0
VERTEX
 8
MESH_363_F0
 10
182.8813
 20
263.9659
 30
-83.3199
 70
192
 0
VERTEX
 8
MESH_363_F0
 10
185.4098
 20
263.5
 30
-84.0892
 70
192
 0
VERTEX
 8
MESH_363_F0
 10
185.1745
 20
263.866
 30
-84.3696
 70
192
 0
VERTEX
 8
MESH_363_F0
 10
185.05
 20
263.9652
 30
-84.5766
 70
192
 0
VERTEX
 8
MESH_363_F0
 10
187.1323
 20
263.5
 30
-86.142
 70
192
 0
VERTEX
 8
MESH_363_F0
 10
186.8153
 20
263.866
 30
-86.325
 70
192
 0
VERTEX
 8
MESH_363_F0
 10
186.6526
 20
263.9644
 30
-86.5157
 70
192
 0
VERTEX
 8
MESH_363_F0
 10
188.0488
 20
263.5
 30
-88.6601
 70
192
 0
VERTEX
 8
MESH_363_F0
 10
187.6883
 20
263.866
 30
-88.7237
 70
192
 0
VERTEX
 8
MESH_363_F0
 10
187.4807
 20
263.9636
 30
-88.8932
 70
192
 0
VERTEX
 8
MESH_363_F0
 10
188.0488
 20
263.5
 30
-91.3399
 70
192
 0
VERTEX
 8
MESH_363_F0
 10
187.6883
 20
263.866
 30
-91.2763
 70
192
 0
VERTEX
 8
MESH_363_F0
 10
187.4293
 20
263.9628
 30
-91.4102
 70
192
 0
VERTEX
 8
MESH_363_F0
 10
187.1323
 20
263.5
 30
-93.858
 70
192
 0
VERTEX
 8
MESH_363_F0
 10
186.8153
 20
263.866
 30
-93.675
 70
192
 0
VERTEX
 8
MESH_363_F0
 10
186.5057
 20
263.9618
 30
-93.7516
 70
192
 0
VERTEX
 8
MESH_363_F0
 10
185.4098
 20
263.5
 30
-95.9108
 70
192
 0
VERTEX
 8
MESH_363_F0
 10
185.1745
 20
263.866
 30
-95.6304
 70
192
 0
VERTEX
 8
MESH_363_F0
 10
184.8262
 20
263.9608
 30
-95.6254
 70
192
 0
VERTEX
 8
MESH_363_F0
 10
183.089
 20
263.5
 30
-97.2507
 70
192
 0
VERTEX
 8
MESH_363_F0
 10
182.9638
 20
263.866
 30
-96.9067
 70
192
 0
VERTEX
 8
MESH_363_F0
 10
182.6012
 20
263.9597
 30
-96.7986
 70
192
 0
VERTEX
 8
MESH_363_F0
 10
0
 20
0
 30
0
 70
128
 71
25
 72
1
 73
22
 74
22
 0
VERTEX
 8
MESH_363_F0
 10
0
 20
0
 30
0
 70
128
 71
27
 72
24
 73
25
 74
28
 0
VERTEX
 8
MESH_363_F0
 10
0
 20
0
 30
0
 70
128
 71
28
 72
31
 73
30
 74
27
 0
VERTEX
 8
MESH_363_F0
 10
0
 20
0
 30
0
 70
128
 71
23
 72
24
 73
27
 74
26
 0
VERTEX
 8
MESH_363_F0
 10
0
 20
0
 30
0
 70
128
 71
26
 72
5
 73
23
 74
23
 0
VERTEX
 8
MESH_363_F0
 10
0
 20
0
 30
0
 70
128
 71
5
 72
4
 73
23
 74
23
 0
VERTEX
 8
MESH_363_F0
 10
0
 20
0
 30
0
 70
128
 71
4
 72
3
 73
23
 74
23
 0
VERTEX
 8
MESH_363_F0
 10
0
 20
0
 30
0
 70
128
 71
3
 72
24
 73
23
 74
23
 0
VERTEX
 8
MESH_363_F0
 10
0
 20
0
 30
0
 70
128
 71
2
 72
24
 73
3
 74
3
 0
VERTEX
 8
MESH_363_F0
 10
0
 20
0
 30
0
 70
128
 71
25
 72
24
 73
2
 74
2
 0
VERTEX
 8
MESH_363_F0
 10
0
 20
0
 30
0
 70
128
 71
25
 72
2
 73
1
 74
1
 0
VERTEX
 8
MESH_363_F0
 10
0
 20
0
 30
0
 70
128
 71
26
 72
6
 73
5
 74
5
 0
VERTEX
 8
MESH_363_F0
 10
0
 20
0
 30
0
 70
128
 71
29
 72
6
 73
26
 74
26
 0
VERTEX
 8
MESH_363_F0
 10
0
 20
0
 30
0
 70
128
 71
33
 72
32
 73
29
 74
30
 0
VERTEX
 8
MESH_363_F0
 10
0
 20
0
 30
0
 70
128
 71
30
 72
31
 73
34
 74
33
 0
VERTEX
 8
MESH_363_F0
 10
0
 20
0
 30
0
 70
128
 71
35
 72
32
 73
33
 74
36
 0
VERTEX
 8
MESH_363_F0
 10
0
 20
0
 30
0
 70
128
 71
36
 72
39
 73
38
 74
35
 0
VERTEX
 8
MESH_363_F0
 10
0
 20
0
 30
0
 70
128
 71
8
 72
35
 73
9
 74
9
 0
VERTEX
 8
MESH_363_F0
 10
0
 20
0
 30
0
 70
128
 71
35
 72
38
 73
9
 74
9
 0
VERTEX
 8
MESH_363_F0
 10
0
 20
0
 30
0
 70
128
 71
38
 72
10
 73
9
 74
9
 0
VERTEX
 8
MESH_363_F0
 10
0
 20
0
 30
0
 70
128
 71
41
 72
10
 73
38
 74
38
 0
VERTEX
 8
MESH_363_F0
 10
0
 20
0
 30
0
 70
128
 71
45
 72
44
 73
41
 74
42
 0
VERTEX
 8
MESH_363_F0
 10
0
 20
0
 30
0
 70
128
 71
42
 72
43
 73
46
 74
45
 0
VERTEX
 8
MESH_363_F0
 10
0
 20
0
 30
0
 70
128
 71
13
 72
45
 73
14
 74
14
 0
VERTEX
 8
MESH_363_F0
 10
0
 20
0
 30
0
 70
128
 71
45
 72
46
 73
14
 74
14
 0
VERTEX
 8
MESH_363_F0
 10
0
 20
0
 30
0
 70
128
 71
46
 72
15
 73
14
 74
14
 0
VERTEX
 8
MESH_363_F0
 10
0
 20
0
 30
0
 70
128
 71
16
 72
15
 73
46
 74
46
 0
VERTEX
 8
MESH_363_F0
 10
0
 20
0
 30
0
 70
128
 71
17
 72
16
 73
43
 74
43
 0
VERTEX
 8
MESH_363_F0
 10
0
 20
0
 30
0
 70
128
 71
18
 72
17
 73
40
 74
40
 0
VERTEX
 8
MESH_363_F0
 10
0
 20
0
 30
0
 70
128
 71
19
 72
18
 73
37
 74
37
 0
VERTEX
 8
MESH_363_F0
 10
0
 20
0
 30
0
 70
128
 71
20
 72
19
 73
34
 74
34
 0
VERTEX
 8
MESH_363_F0
 10
0
 20
0
 30
0
 70
128
 71
21
 72
20
 73
31
 74
31
 0
VERTEX
 8
MESH_363_F0
 10
0
 20
0
 30
0
 70
128
 71
22
 72
21
 73
28
 74
28
 0
VERTEX
 8
MESH_363_F0
 10
0
 20
0
 30
0
 70
128
 71
22
 72
28
 73
25
 74
25
 0
VERTEX
 8
MESH_363_F0
 10
0
 20
0
 30
0
 70
128
 71
29
 72
7
 73
6
 74
6
 0
VERTEX
 8
MESH_363_F0
 10
0
 20
0
 30
0
 70
128
 71
32
 72
7
 73
29
 74
29
 0
VERTEX
 8
MESH_363_F0
 10
0
 20
0
 30
0
 70
128
 71
8
 72
7
 73
32
 74
32
 0
VERTEX
 8
MESH_363_F0
 10
0
 20
0
 30
0
 70
128
 71
8
 72
32
 73
35
 74
35
 0
VERTEX
 8
MESH_363_F0
 10
0
 20
0
 30
0
 70
128
 71
41
 72
11
 73
10
 74
10
 0
VERTEX
 8
MESH_363_F0
 10
0
 20
0
 30
0
 70
128
 71
44
 72
11
 73
41
 74
41
 0
VERTEX
 8
MESH_363_F0
 10
0
 20
0
 30
0
 70
128
 71
12
 72
11
 73
44
 74
44
 0
VERTEX
 8
MESH_363_F0
 10
0
 20
0
 30
0
 70
128
 71
12
 72
44
 73
13
 74
13
 0
VERTEX
 8
MESH_363_F0
 10
0
 20
0
 30
0
 70
128
 71
44
 72
45
 73
13
 74
13
 0
VERTEX
 8
MESH_363_F0
 10
0
 20
0
 30
0
 70
128
 71
30
 72
29
 73
26
 74
27
 0
VERTEX
 8
MESH_363_F0
 10
0
 20
0
 30
0
 70
128
 71
21
 72
31
 73
28
 74
28
 0
VERTEX
 8
MESH_363_F0
 10
0
 20
0
 30
0
 70
128
 71
37
 72
36
 73
33
 74
34
 0
VERTEX
 8
MESH_363_F0
 10
0
 20
0
 30
0
 70
128
 71
19
 72
37
 73
34
 74
34
 0
VERTEX
 8
MESH_363_F0
 10
0
 20
0
 30
0
 70
128
 71
20
 72
34
 73
31
 74
31
 0
VERTEX
 8
MESH_363_F0
 10
0
 20
0
 30
0
 70
128
 71
40
 72
39
 73
36
 74
37
 0
VERTEX
 8
MESH_363_F0
 10
0
 20
0
 30
0
 70
128
 71
18
 72
40
 73
37
 74
37
 0
VERTEX
 8
MESH_363_F0
 10
0
 20
0
 30
0
 70
128
 71
42
 72
41
 73
38
 74
39
 0
VERTEX
 8
MESH_363_F0
 10
0
 20
0
 30
0
 70
128
 71
17
 72
43
 73
40
 74
40
 0
VERTEX
 8
MESH_363_F0
 10
0
 20
0
 30
0
 70
128
 71
43
 72
42
 73
39
 74
40
 0
VERTEX
 8
MESH_363_F0
 10
0
 20
0
 30
0
 70
128
 71
16
 72
46
 73
43
 74
43
 0
SEQEND
 0
POLYLINE
 8
MESH_362_F0
 66
1
 10
0.0
 20
0.0
 30
0.0
 70
64
 71
18
 72
16
 0
VERTEX
 8
MESH_362_F0
 10
180.45
 20
264
 30
-96.85
 70
192
 0
VERTEX
 8
MESH_362_F0
 10
116.55
 20
264
 30
-96.85
 70
192
 0
VERTEX
 8
MESH_362_F0
 10
113.9286
 20
264
 30
-96.3286
 70
192
 0
VERTEX
 8
MESH_362_F0
 10
111.7063
 20
264
 30
-94.8437
 70
192
 0
VERTEX
 8
MESH_362_F0
 10
110.2214
 20
264
 30
-92.6214
 70
192
 0
VERTEX
 8
MESH_362_F0
 10
109.7
 20
264
 30
-90
 70
192
 0
VERTEX
 8
MESH_362_F0
 10
110.2214
 20
264
 30
-87.3786
 70
192
 0
VERTEX
 8
MESH_362_F0
 10
111.7063
 20
264
 30
-85.1563
 70
192
 0
VERTEX
 8
MESH_362_F0
 10
113.9286
 20
264
 30
-83.6714
 70
192
 0
VERTEX
 8
MESH_362_F0
 10
116.55
 20
264
 30
-83.15
 70
192
 0
VERTEX
 8
MESH_362_F0
 10
180.45
 20
264
 30
-83.15
 70
192
 0
VERTEX
 8
MESH_362_F0
 10
183.0714
 20
264
 30
-83.6714
 70
192
 0
VERTEX
 8
MESH_362_F0
 10
185.2937
 20
264
 30
-85.1563
 70
192
 0
VERTEX
 8
MESH_362_F0
 10
186.7786
 20
264
 30
-87.3786
 70
192
 0
VERTEX
 8
MESH_362_F0
 10
187.3
 20
264
 30
-90
 70
192
 0
VERTEX
 8
MESH_362_F0
 10
186.7786
 20
264
 30
-92.6214
 70
192
 0
VERTEX
 8
MESH_362_F0
 10
185.2937
 20
264
 30
-94.8437
 70
192
 0
VERTEX
 8
MESH_362_F0
 10
183.0714
 20
264
 30
-96.3286
 70
192
 0
VERTEX
 8
MESH_362_F0
 10
0
 20
0
 30
0
 70
128
 71
18
 72
2
 73
1
 74
1
 0
VERTEX
 8
MESH_362_F0
 10
0
 20
0
 30
0
 70
128
 71
3
 72
2
 73
18
 74
18
 0
VERTEX
 8
MESH_362_F0
 10
0
 20
0
 30
0
 70
128
 71
4
 72
3
 73
17
 74
17
 0
VERTEX
 8
MESH_362_F0
 10
0
 20
0
 30
0
 70
128
 71
5
 72
4
 73
16
 74
16
 0
VERTEX
 8
MESH_362_F0
 10
0
 20
0
 30
0
 70
128
 71
6
 72
5
 73
15
 74
15
 0
VERTEX
 8
MESH_362_F0
 10
0
 20
0
 30
0
 70
128
 71
7
 72
6
 73
14
 74
14
 0
VERTEX
 8
MESH_362_F0
 10
0
 20
0
 30
0
 70
128
 71
8
 72
7
 73
13
 74
13
 0
VERTEX
 8
MESH_362_F0
 10
0
 20
0
 30
0
 70
128
 71
9
 72
8
 73
12
 74
12
 0
VERTEX
 8
MESH_362_F0
 10
0
 20
0
 30
0
 70
128
 71
10
 72
9
 73
11
 74
11
 0
VERTEX
 8
MESH_362_F0
 10
0
 20
0
 30
0
 70
128
 71
9
 72
12
 73
11
 74
11
 0
VERTEX
 8
MESH_362_F0
 10
0
 20
0
 30
0
 70
128
 71
8
 72
13
 73
12
 74
12
 0
VERTEX
 8
MESH_362_F0
 10
0
 20
0
 30
0
 70
128
 71
7
 72
14
 73
13
 74
13
 0
VERTEX
 8
MESH_362_F0
 10
0
 20
0
 30
0
 70
128
 71
6
 72
15
 73
14
 74
14
 0
VERTEX
 8
MESH_362_F0
 10
0
 20
0
 30
0
 70
128
 71
5
 72
16
 73
15
 74
15
 0
VERTEX
 8
MESH_362_F0
 10
0
 20
0
 30
0
 70
128
 71
4
 72
17
 73
16
 74
16
 0
VERTEX
 8
MESH_362_F0
 10
0
 20
0
 30
0
 70
128
 71
3
 72
18
 73
17
 74
17
 0
SEQEND
 0
ENDSEC
 0
EOF
