 0
SECTION
 2
HEADER
 9
$ACADVER
 1
AC1009
 0
ENDSEC
 0
SECTION
 2
TABLES
 0
TABLE
 2
LTYPE
 70
1
 0
LTYPE
 2
CONTINUOUS
 70
64
 3
solid line
 72
65
 73
0
 40
0.0
 0
ENDTAB
 0
TABLE
 2
LAYER
 70
6
 0
LAYER
 2
0
 70
0
 62
7
 6
CONTINUOUS
 0
LAYER
 2
14
 70
64
 62
7
 6
CONTINUOUS
 0
LAYER
 2
13
 70
64
 62
7
 6
CONTINUOUS
 0
LAYER
 2
12
 70
64
 62
7
 6
CONTINUOUS
 0
LAYER
 2
11
 70
64
 62
7
 6
CONTINUOUS
 0
LAYER
 2
10
 70
64
 62
7
 6
CONTINUOUS
 0
LAYER
 2
9
 70
64
 62
7
 6
CONTINUOUS
 0
LAYER
 2
8
 70
64
 62
7
 6
CONTINUOUS
 0
LAYER
 2
7
 70
64
 62
7
 6
CONTINUOUS
 0
LAYER
 2
6
 70
64
 62
7
 6
CONTINUOUS
 0
LAYER
 2
5
 70
64
 62
7
 6
CONTINUOUS
 0
LAYER
 2
4
 70
64
 62
7
 6
CONTINUOUS
 0
LAYER
 2
3
 70
64
 62
7
 6
CONTINUOUS
 0
LAYER
 2
2
 70
64
 62
7
 6
CONTINUOUS
 0
LAYER
 2
1
 70
64
 62
7
 6
CONTINUOUS
 0
ENDTAB
 0
ENDSEC
 0
SECTION
 2
BLOCKS
 0
ENDSEC
 0
SECTION
 2
ENTITIES
 0
POLYLINE
 8
14
 66
1
 10
0.0
 20
0.0
 30
0.0
 70
64
 71
194
 72
200
 0
VERTEX
 8
14
 10
-8.9985
 20
-33.3457
 30
0
 70
192
 0
VERTEX
 8
14
 10
-8.5971
 20
-36.1616
 30
0
 70
192
 0
VERTEX
 8
14
 10
-7.3365
 20
-38.7131
 30
0
 70
192
 0
VERTEX
 8
14
 10
-5.3403
 20
-40.7443
 30
0
 70
192
 0
VERTEX
 8
14
 10
-2.8107
 20
-42.0497
 30
0
 70
192
 0
VERTEX
 8
14
 10
0
 20
-42.5
 30
0
 70
192
 0
VERTEX
 8
14
 10
0
 20
-42.5
 30
0
 70
192
 0
VERTEX
 8
14
 10
2.8107
 20
-42.0497
 30
0
 70
192
 0
VERTEX
 8
14
 10
5.3403
 20
-40.7443
 30
0
 70
192
 0
VERTEX
 8
14
 10
7.3365
 20
-38.7131
 30
0
 70
192
 0
VERTEX
 8
14
 10
8.5971
 20
-36.1616
 30
0
 70
192
 0
VERTEX
 8
14
 10
8.9985
 20
-33.3457
 30
0
 70
192
 0
VERTEX
 8
14
 10
0
 20
-42.5
 30
113
 70
192
 0
VERTEX
 8
14
 10
0
 20
-42.5
 30
113
 70
192
 0
VERTEX
 8
14
 10
0
 20
-42.5
 30
113
 70
192
 0
VERTEX
 8
14
 10
0
 20
-24.5
 30
113
 70
192
 0
VERTEX
 8
14
 10
-3.0792
 20
-25.0433
 30
113
 70
192
 0
VERTEX
 8
14
 10
-5.7851
 20
-26.606
 30
113
 70
192
 0
VERTEX
 8
14
 10
-7.7936
 20
-28.9994
 30
113
 70
192
 0
VERTEX
 8
14
 10
-8.8631
 20
-31.9363
 30
113
 70
192
 0
VERTEX
 8
14
 10
-8.8631
 20
-31.9363
 30
113
 70
192
 0
VERTEX
 8
14
 10
-8.8631
 20
-35.0637
 30
113
 70
192
 0
VERTEX
 8
14
 10
-8.8631
 20
-35.0637
 30
113
 70
192
 0
VERTEX
 8
14
 10
-7.7936
 20
-38.0006
 30
113
 70
192
 0
VERTEX
 8
14
 10
-7.7936
 20
-38.0006
 30
113
 70
192
 0
VERTEX
 8
14
 10
-5.7851
 20
-40.394
 30
113
 70
192
 0
VERTEX
 8
14
 10
-5.7851
 20
-40.394
 30
113
 70
192
 0
VERTEX
 8
14
 10
-3.0792
 20
-41.9567
 30
113
 70
192
 0
VERTEX
 8
14
 10
-3.0792
 20
-41.9567
 30
113
 70
192
 0
VERTEX
 8
14
 10
3.0792
 20
-41.9567
 30
113
 70
192
 0
VERTEX
 8
14
 10
3.0792
 20
-41.9567
 30
113
 70
192
 0
VERTEX
 8
14
 10
5.7851
 20
-40.394
 30
113
 70
192
 0
VERTEX
 8
14
 10
5.7851
 20
-40.394
 30
113
 70
192
 0
VERTEX
 8
14
 10
7.7936
 20
-38.0006
 30
113
 70
192
 0
VERTEX
 8
14
 10
7.7936
 20
-38.0006
 30
113
 70
192
 0
VERTEX
 8
14
 10
8.8631
 20
-35.0637
 30
113
 70
192
 0
VERTEX
 8
14
 10
8.8631
 20
-35.0637
 30
113
 70
192
 0
VERTEX
 8
14
 10
8.8631
 20
-31.9363
 30
113
 70
192
 0
VERTEX
 8
14
 10
8.8631
 20
-31.9363
 30
113
 70
192
 0
VERTEX
 8
14
 10
7.7936
 20
-28.9994
 30
113
 70
192
 0
VERTEX
 8
14
 10
5.7851
 20
-26.606
 30
113
 70
192
 0
VERTEX
 8
14
 10
3.0792
 20
-25.0433
 30
113
 70
192
 0
VERTEX
 8
14
 10
0
 20
-21.25
 30
116
 70
192
 0
VERTEX
 8
14
 10
0
 20
-21.25
 30
116
 70
192
 0
VERTEX
 8
14
 10
0
 20
-21.25
 30
116
 70
192
 0
VERTEX
 8
14
 10
3.7545
 20
-21.84
 30
116
 70
192
 0
VERTEX
 8
14
 10
3.7545
 20
-21.84
 30
116
 70
192
 0
VERTEX
 8
14
 10
7.1817
 20
-23.5762
 30
116
 70
192
 0
VERTEX
 8
14
 10
7.1817
 20
-23.5762
 30
116
 70
192
 0
VERTEX
 8
14
 10
9.9001
 20
-26.2855
 30
116
 70
192
 0
VERTEX
 8
14
 10
9.9001
 20
-26.2855
 30
116
 70
192
 0
VERTEX
 8
14
 10
11.6482
 20
-29.7082
 30
116
 70
192
 0
VERTEX
 8
14
 10
11.6482
 20
-29.7082
 30
116
 70
192
 0
VERTEX
 8
14
 10
12.2497
 20
-33.5
 30
116
 70
192
 0
VERTEX
 8
14
 10
12.2497
 20
-33.5
 30
116
 70
192
 0
VERTEX
 8
14
 10
11.6482
 20
-37.2918
 30
116
 70
192
 0
VERTEX
 8
14
 10
11.6482
 20
-37.2918
 30
116
 70
192
 0
VERTEX
 8
14
 10
9.9001
 20
-40.7145
 30
116
 70
192
 0
VERTEX
 8
14
 10
9.9001
 20
-40.7145
 30
116
 70
192
 0
VERTEX
 8
14
 10
7.1817
 20
-43.4238
 30
116
 70
192
 0
VERTEX
 8
14
 10
7.1817
 20
-43.4238
 30
116
 70
192
 0
VERTEX
 8
14
 10
3.7545
 20
-45.16
 30
116
 70
192
 0
VERTEX
 8
14
 10
3.7545
 20
-45.16
 30
116
 70
192
 0
VERTEX
 8
14
 10
0
 20
-45.75
 30
116
 70
192
 0
VERTEX
 8
14
 10
0
 20
-45.75
 30
116
 70
192
 0
VERTEX
 8
14
 10
0
 20
-45.75
 30
116
 70
192
 0
VERTEX
 8
14
 10
-3.7545
 20
-45.16
 30
116
 70
192
 0
VERTEX
 8
14
 10
-3.7545
 20
-45.16
 30
116
 70
192
 0
VERTEX
 8
14
 10
-7.1817
 20
-43.4238
 30
116
 70
192
 0
VERTEX
 8
14
 10
-7.1817
 20
-43.4238
 30
116
 70
192
 0
VERTEX
 8
14
 10
-9.9001
 20
-40.7145
 30
116
 70
192
 0
VERTEX
 8
14
 10
-9.9001
 20
-40.7145
 30
116
 70
192
 0
VERTEX
 8
14
 10
-11.6482
 20
-37.2918
 30
116
 70
192
 0
VERTEX
 8
14
 10
-11.6482
 20
-37.2918
 30
116
 70
192
 0
VERTEX
 8
14
 10
-12.2497
 20
-33.5
 30
116
 70
192
 0
VERTEX
 8
14
 10
-12.2497
 20
-33.5
 30
116
 70
192
 0
VERTEX
 8
14
 10
-11.6482
 20
-29.7082
 30
116
 70
192
 0
VERTEX
 8
14
 10
-11.6482
 20
-29.7082
 30
116
 70
192
 0
VERTEX
 8
14
 10
-9.9001
 20
-26.2855
 30
116
 70
192
 0
VERTEX
 8
14
 10
-9.9001
 20
-26.2855
 30
116
 70
192
 0
VERTEX
 8
14
 10
-7.1817
 20
-23.5762
 30
116
 70
192
 0
VERTEX
 8
14
 10
-7.1817
 20
-23.5762
 30
116
 70
192
 0
VERTEX
 8
14
 10
-3.7545
 20
-21.84
 30
116
 70
192
 0
VERTEX
 8
14
 10
-3.7545
 20
-21.84
 30
116
 70
192
 0
VERTEX
 8
14
 10
0
 20
-46
 30
115.75
 70
192
 0
VERTEX
 8
14
 10
0
 20
-46
 30
115.75
 70
192
 0
VERTEX
 8
14
 10
0
 20
-46
 30
115.75
 70
192
 0
VERTEX
 8
14
 10
0
 20
-46
 30
115.75
 70
192
 0
VERTEX
 8
14
 10
0
 20
-46
 30
113
 70
192
 0
VERTEX
 8
14
 10
0
 20
-46
 30
113
 70
192
 0
VERTEX
 8
14
 10
0
 20
-46
 30
113
 70
192
 0
VERTEX
 8
14
 10
-3.8631
 20
-45.3879
 30
113
 70
192
 0
VERTEX
 8
14
 10
-3.8631
 20
-45.3879
 30
113
 70
192
 0
VERTEX
 8
14
 10
-7.3472
 20
-43.6124
 30
113
 70
192
 0
VERTEX
 8
14
 10
-7.3472
 20
-43.6124
 30
113
 70
192
 0
VERTEX
 8
14
 10
-10.1114
 20
-40.8489
 30
113
 70
192
 0
VERTEX
 8
14
 10
-10.1114
 20
-40.8489
 30
113
 70
192
 0
VERTEX
 8
14
 10
-11.8886
 20
-37.3611
 30
113
 70
192
 0
VERTEX
 8
14
 10
-11.8886
 20
-37.3611
 30
113
 70
192
 0
VERTEX
 8
14
 10
-12.4995
 20
-33.5
 30
113
 70
192
 0
VERTEX
 8
14
 10
-12.4995
 20
-33.5
 30
113
 70
192
 0
VERTEX
 8
14
 10
-11.8886
 20
-29.6389
 30
113
 70
192
 0
VERTEX
 8
14
 10
-11.8886
 20
-29.6389
 30
113
 70
192
 0
VERTEX
 8
14
 10
-10.1115
 20
-26.1511
 30
113
 70
192
 0
VERTEX
 8
14
 10
-10.1115
 20
-26.1511
 30
113
 70
192
 0
VERTEX
 8
14
 10
-7.3472
 20
-23.3876
 30
113
 70
192
 0
VERTEX
 8
14
 10
-7.3472
 20
-23.3876
 30
113
 70
192
 0
VERTEX
 8
14
 10
-3.8631
 20
-21.6121
 30
113
 70
192
 0
VERTEX
 8
14
 10
-3.8631
 20
-21.6121
 30
113
 70
192
 0
VERTEX
 8
14
 10
0
 20
-21
 30
113
 70
192
 0
VERTEX
 8
14
 10
0
 20
-21
 30
113
 70
192
 0
VERTEX
 8
14
 10
0
 20
-21
 30
113
 70
192
 0
VERTEX
 8
14
 10
0
 20
-21
 30
115.75
 70
192
 0
VERTEX
 8
14
 10
0
 20
-21
 30
115.75
 70
192
 0
VERTEX
 8
14
 10
0
 20
-21
 30
115.75
 70
192
 0
VERTEX
 8
14
 10
0
 20
-21
 30
115.75
 70
192
 0
VERTEX
 8
14
 10
-3.8627
 20
-21.6118
 30
115.75
 70
192
 0
VERTEX
 8
14
 10
-3.8627
 20
-21.6118
 30
115.75
 70
192
 0
VERTEX
 8
14
 10
-7.3473
 20
-23.3873
 30
115.75
 70
192
 0
VERTEX
 8
14
 10
-7.3473
 20
-23.3873
 30
115.75
 70
192
 0
VERTEX
 8
14
 10
-10.1127
 20
-26.1527
 30
115.75
 70
192
 0
VERTEX
 8
14
 10
-10.1127
 20
-26.1527
 30
115.75
 70
192
 0
VERTEX
 8
14
 10
-11.8882
 20
-29.6373
 30
115.75
 70
192
 0
VERTEX
 8
14
 10
-11.8882
 20
-29.6373
 30
115.75
 70
192
 0
VERTEX
 8
14
 10
-12.5
 20
-33.5
 30
115.75
 70
192
 0
VERTEX
 8
14
 10
-12.5
 20
-33.5
 30
115.75
 70
192
 0
VERTEX
 8
14
 10
-11.8882
 20
-37.3627
 30
115.75
 70
192
 0
VERTEX
 8
14
 10
-11.8882
 20
-37.3627
 30
115.75
 70
192
 0
VERTEX
 8
14
 10
-10.1127
 20
-40.8473
 30
115.75
 70
192
 0
VERTEX
 8
14
 10
-10.1127
 20
-40.8473
 30
115.75
 70
192
 0
VERTEX
 8
14
 10
-7.3473
 20
-43.6127
 30
115.75
 70
192
 0
VERTEX
 8
14
 10
-7.3473
 20
-43.6127
 30
115.75
 70
192
 0
VERTEX
 8
14
 10
-3.8627
 20
-45.3882
 30
115.75
 70
192
 0
VERTEX
 8
14
 10
-3.8627
 20
-45.3882
 30
115.75
 70
192
 0
VERTEX
 8
14
 10
3.8631
 20
-45.3879
 30
113
 70
192
 0
VERTEX
 8
14
 10
3.8631
 20
-45.3879
 30
113
 70
192
 0
VERTEX
 8
14
 10
7.3472
 20
-43.6124
 30
113
 70
192
 0
VERTEX
 8
14
 10
7.3472
 20
-43.6124
 30
113
 70
192
 0
VERTEX
 8
14
 10
10.1115
 20
-40.8489
 30
113
 70
192
 0
VERTEX
 8
14
 10
10.1115
 20
-40.8489
 30
113
 70
192
 0
VERTEX
 8
14
 10
11.8886
 20
-37.3611
 30
113
 70
192
 0
VERTEX
 8
14
 10
11.8886
 20
-37.3611
 30
113
 70
192
 0
VERTEX
 8
14
 10
12.4995
 20
-33.5
 30
113
 70
192
 0
VERTEX
 8
14
 10
12.4995
 20
-33.5
 30
113
 70
192
 0
VERTEX
 8
14
 10
11.8886
 20
-29.6389
 30
113
 70
192
 0
VERTEX
 8
14
 10
11.8886
 20
-29.6389
 30
113
 70
192
 0
VERTEX
 8
14
 10
10.1115
 20
-26.1511
 30
113
 70
192
 0
VERTEX
 8
14
 10
10.1115
 20
-26.1511
 30
113
 70
192
 0
VERTEX
 8
14
 10
7.3472
 20
-23.3876
 30
113
 70
192
 0
VERTEX
 8
14
 10
7.3472
 20
-23.3876
 30
113
 70
192
 0
VERTEX
 8
14
 10
3.8631
 20
-21.6121
 30
113
 70
192
 0
VERTEX
 8
14
 10
3.8631
 20
-21.6121
 30
113
 70
192
 0
VERTEX
 8
14
 10
3.8627
 20
-45.3882
 30
115.75
 70
192
 0
VERTEX
 8
14
 10
3.8627
 20
-45.3882
 30
115.75
 70
192
 0
VERTEX
 8
14
 10
7.3473
 20
-43.6127
 30
115.75
 70
192
 0
VERTEX
 8
14
 10
7.3473
 20
-43.6127
 30
115.75
 70
192
 0
VERTEX
 8
14
 10
10.1127
 20
-40.8473
 30
115.75
 70
192
 0
VERTEX
 8
14
 10
10.1127
 20
-40.8473
 30
115.75
 70
192
 0
VERTEX
 8
14
 10
11.8882
 20
-37.3627
 30
115.75
 70
192
 0
VERTEX
 8
14
 10
11.8882
 20
-37.3627
 30
115.75
 70
192
 0
VERTEX
 8
14
 10
12.5
 20
-33.5
 30
115.75
 70
192
 0
VERTEX
 8
14
 10
12.5
 20
-33.5
 30
115.75
 70
192
 0
VERTEX
 8
14
 10
11.8882
 20
-29.6373
 30
115.75
 70
192
 0
VERTEX
 8
14
 10
11.8882
 20
-29.6373
 30
115.75
 70
192
 0
VERTEX
 8
14
 10
10.1127
 20
-26.1527
 30
115.75
 70
192
 0
VERTEX
 8
14
 10
10.1127
 20
-26.1527
 30
115.75
 70
192
 0
VERTEX
 8
14
 10
7.3473
 20
-23.3873
 30
115.75
 70
192
 0
VERTEX
 8
14
 10
7.3473
 20
-23.3873
 30
115.75
 70
192
 0
VERTEX
 8
14
 10
3.8627
 20
-21.6118
 30
115.75
 70
192
 0
VERTEX
 8
14
 10
3.8627
 20
-21.6118
 30
115.75
 70
192
 0
VERTEX
 8
14
 10
0
 20
-21.0732
 30
115.9268
 70
192
 0
VERTEX
 8
14
 10
0
 20
-21.0732
 30
115.9268
 70
192
 0
VERTEX
 8
14
 10
-3.501
 20
-21.5766
 30
115.9268
 70
192
 0
VERTEX
 8
14
 10
-6.7184
 20
-23.0459
 30
115.9268
 70
192
 0
VERTEX
 8
14
 10
-9.3915
 20
-25.3622
 30
115.9268
 70
192
 0
VERTEX
 8
14
 10
-11.3038
 20
-28.3377
 30
115.9268
 70
192
 0
VERTEX
 8
14
 10
-12.3003
 20
-31.7315
 30
115.9268
 70
192
 0
VERTEX
 8
14
 10
-12.3003
 20
-35.2685
 30
115.9268
 70
192
 0
VERTEX
 8
14
 10
-11.3038
 20
-38.6623
 30
115.9268
 70
192
 0
VERTEX
 8
14
 10
-9.3915
 20
-41.6378
 30
115.9268
 70
192
 0
VERTEX
 8
14
 10
-6.7184
 20
-43.9541
 30
115.9268
 70
192
 0
VERTEX
 8
14
 10
-3.501
 20
-45.4234
 30
115.9268
 70
192
 0
VERTEX
 8
14
 10
0
 20
-45.9268
 30
115.9268
 70
192
 0
VERTEX
 8
14
 10
0
 20
-45.9268
 30
115.9268
 70
192
 0
VERTEX
 8
14
 10
3.501
 20
-45.4234
 30
115.9268
 70
192
 0
VERTEX
 8
14
 10
6.7184
 20
-43.9541
 30
115.9268
 70
192
 0
VERTEX
 8
14
 10
9.3915
 20
-41.6378
 30
115.9268
 70
192
 0
VERTEX
 8
14
 10
11.3038
 20
-38.6623
 30
115.9268
 70
192
 0
VERTEX
 8
14
 10
12.3003
 20
-35.2685
 30
115.9268
 70
192
 0
VERTEX
 8
14
 10
12.3003
 20
-31.7315
 30
115.9268
 70
192
 0
VERTEX
 8
14
 10
11.3038
 20
-28.3377
 30
115.9268
 70
192
 0
VERTEX
 8
14
 10
9.3915
 20
-25.3622
 30
115.9268
 70
192
 0
VERTEX
 8
14
 10
6.7184
 20
-23.0459
 30
115.9268
 70
192
 0
VERTEX
 8
14
 10
3.501
 20
-21.5766
 30
115.9268
 70
192
 0
VERTEX
 8
14
 10
0
 20
0
 30
0
 70
128
 71
2
 72
1
 73
22
 74
22
 0
VERTEX
 8
14
 10
0
 20
0
 30
0
 70
128
 71
1
 72
20
 73
22
 74
22
 0
VERTEX
 8
14
 10
0
 20
0
 30
0
 70
128
 71
3
 72
2
 73
24
 74
24
 0
VERTEX
 8
14
 10
0
 20
0
 30
0
 70
128
 71
2
 72
22
 73
24
 74
24
 0
VERTEX
 8
14
 10
0
 20
0
 30
0
 70
128
 71
4
 72
3
 73
26
 74
26
 0
VERTEX
 8
14
 10
0
 20
0
 30
0
 70
128
 71
3
 72
24
 73
26
 74
26
 0
VERTEX
 8
14
 10
0
 20
0
 30
0
 70
128
 71
5
 72
4
 73
28
 74
28
 0
VERTEX
 8
14
 10
0
 20
0
 30
0
 70
128
 71
4
 72
26
 73
28
 74
28
 0
VERTEX
 8
14
 10
0
 20
0
 30
0
 70
128
 71
6
 72
5
 73
28
 74
28
 0
VERTEX
 8
14
 10
0
 20
0
 30
0
 70
128
 71
8
 72
7
 73
14
 74
14
 0
VERTEX
 8
14
 10
0
 20
0
 30
0
 70
128
 71
13
 72
6
 73
28
 74
28
 0
VERTEX
 8
14
 10
0
 20
0
 30
0
 70
128
 71
9
 72
8
 73
30
 74
30
 0
VERTEX
 8
14
 10
0
 20
0
 30
0
 70
128
 71
8
 72
14
 73
30
 74
30
 0
VERTEX
 8
14
 10
0
 20
0
 30
0
 70
128
 71
10
 72
9
 73
32
 74
32
 0
VERTEX
 8
14
 10
0
 20
0
 30
0
 70
128
 71
9
 72
30
 73
32
 74
32
 0
VERTEX
 8
14
 10
0
 20
0
 30
0
 70
128
 71
11
 72
10
 73
34
 74
34
 0
VERTEX
 8
14
 10
0
 20
0
 30
0
 70
128
 71
10
 72
32
 73
34
 74
34
 0
VERTEX
 8
14
 10
0
 20
0
 30
0
 70
128
 71
12
 72
11
 73
36
 74
36
 0
VERTEX
 8
14
 10
0
 20
0
 30
0
 70
128
 71
11
 72
34
 73
36
 74
36
 0
VERTEX
 8
14
 10
0
 20
0
 30
0
 70
128
 71
12
 72
36
 73
38
 74
38
 0
VERTEX
 8
14
 10
0
 20
0
 30
0
 70
128
 71
15
 72
29
 73
93
 74
93
 0
VERTEX
 8
14
 10
0
 20
0
 30
0
 70
128
 71
31
 72
15
 73
90
 74
90
 0
VERTEX
 8
14
 10
0
 20
0
 30
0
 70
128
 71
90
 72
15
 73
93
 74
93
 0
VERTEX
 8
14
 10
0
 20
0
 30
0
 70
128
 71
17
 72
16
 73
111
 74
111
 0
VERTEX
 8
14
 10
0
 20
0
 30
0
 70
128
 71
16
 72
42
 73
151
 74
151
 0
VERTEX
 8
14
 10
0
 20
0
 30
0
 70
128
 71
111
 72
16
 73
151
 74
151
 0
VERTEX
 8
14
 10
0
 20
0
 30
0
 70
128
 71
18
 72
17
 73
109
 74
109
 0
VERTEX
 8
14
 10
0
 20
0
 30
0
 70
128
 71
109
 72
17
 73
111
 74
111
 0
VERTEX
 8
14
 10
0
 20
0
 30
0
 70
128
 71
19
 72
18
 73
107
 74
107
 0
VERTEX
 8
14
 10
0
 20
0
 30
0
 70
128
 71
107
 72
18
 73
109
 74
109
 0
VERTEX
 8
14
 10
0
 20
0
 30
0
 70
128
 71
21
 72
19
 73
107
 74
107
 0
VERTEX
 8
14
 10
0
 20
0
 30
0
 70
128
 71
23
 72
21
 73
97
 74
97
 0
VERTEX
 8
14
 10
0
 20
0
 30
0
 70
128
 71
97
 72
21
 73
105
 74
105
 0
VERTEX
 8
14
 10
0
 20
0
 30
0
 70
128
 71
105
 72
21
 73
107
 74
107
 0
VERTEX
 8
14
 10
0
 20
0
 30
0
 70
128
 71
25
 72
23
 73
97
 74
97
 0
VERTEX
 8
14
 10
0
 20
0
 30
0
 70
128
 71
27
 72
25
 73
95
 74
95
 0
VERTEX
 8
14
 10
0
 20
0
 30
0
 70
128
 71
95
 72
25
 73
97
 74
97
 0
VERTEX
 8
14
 10
0
 20
0
 30
0
 70
128
 71
29
 72
27
 73
93
 74
93
 0
VERTEX
 8
14
 10
0
 20
0
 30
0
 70
128
 71
93
 72
27
 73
95
 74
95
 0
VERTEX
 8
14
 10
0
 20
0
 30
0
 70
128
 71
33
 72
31
 73
135
 74
135
 0
VERTEX
 8
14
 10
0
 20
0
 30
0
 70
128
 71
31
 72
90
 73
135
 74
135
 0
VERTEX
 8
14
 10
0
 20
0
 30
0
 70
128
 71
35
 72
33
 73
137
 74
137
 0
VERTEX
 8
14
 10
0
 20
0
 30
0
 70
128
 71
33
 72
135
 73
137
 74
137
 0
VERTEX
 8
14
 10
0
 20
0
 30
0
 70
128
 71
37
 72
35
 73
137
 74
137
 0
VERTEX
 8
14
 10
0
 20
0
 30
0
 70
128
 71
39
 72
37
 73
147
 74
147
 0
VERTEX
 8
14
 10
0
 20
0
 30
0
 70
128
 71
37
 72
137
 73
139
 74
139
 0
VERTEX
 8
14
 10
0
 20
0
 30
0
 70
128
 71
37
 72
139
 73
147
 74
147
 0
VERTEX
 8
14
 10
0
 20
0
 30
0
 70
128
 71
40
 72
39
 73
147
 74
147
 0
VERTEX
 8
14
 10
0
 20
0
 30
0
 70
128
 71
41
 72
40
 73
149
 74
149
 0
VERTEX
 8
14
 10
0
 20
0
 30
0
 70
128
 71
40
 72
147
 73
149
 74
149
 0
VERTEX
 8
14
 10
0
 20
0
 30
0
 70
128
 71
42
 72
41
 73
151
 74
151
 0
VERTEX
 8
14
 10
0
 20
0
 30
0
 70
128
 71
41
 72
149
 73
151
 74
151
 0
VERTEX
 8
14
 10
0
 20
0
 30
0
 70
128
 71
43
 72
46
 73
62
 74
62
 0
VERTEX
 8
14
 10
0
 20
0
 30
0
 70
128
 71
47
 72
45
 73
172
 74
172
 0
VERTEX
 8
14
 10
0
 20
0
 30
0
 70
128
 71
43
 72
62
 73
64
 74
64
 0
VERTEX
 8
14
 10
0
 20
0
 30
0
 70
128
 71
43
 72
64
 73
83
 74
83
 0
VERTEX
 8
14
 10
0
 20
0
 30
0
 70
128
 71
44
 72
84
 73
173
 74
173
 0
VERTEX
 8
14
 10
0
 20
0
 30
0
 70
128
 71
171
 72
44
 73
173
 74
173
 0
VERTEX
 8
14
 10
0
 20
0
 30
0
 70
128
 71
46
 72
48
 73
60
 74
60
 0
VERTEX
 8
14
 10
0
 20
0
 30
0
 70
128
 71
49
 72
47
 73
193
 74
193
 0
VERTEX
 8
14
 10
0
 20
0
 30
0
 70
128
 71
46
 72
60
 73
62
 74
62
 0
VERTEX
 8
14
 10
0
 20
0
 30
0
 70
128
 71
47
 72
172
 73
194
 74
194
 0
VERTEX
 8
14
 10
0
 20
0
 30
0
 70
128
 71
193
 72
47
 73
194
 74
194
 0
VERTEX
 8
14
 10
0
 20
0
 30
0
 70
128
 71
48
 72
50
 73
58
 74
58
 0
VERTEX
 8
14
 10
0
 20
0
 30
0
 70
128
 71
51
 72
49
 73
192
 74
192
 0
VERTEX
 8
14
 10
0
 20
0
 30
0
 70
128
 71
48
 72
58
 73
60
 74
60
 0
VERTEX
 8
14
 10
0
 20
0
 30
0
 70
128
 71
192
 72
49
 73
193
 74
193
 0
VERTEX
 8
14
 10
0
 20
0
 30
0
 70
128
 71
50
 72
52
 73
56
 74
56
 0
VERTEX
 8
14
 10
0
 20
0
 30
0
 70
128
 71
53
 72
51
 73
191
 74
191
 0
VERTEX
 8
14
 10
0
 20
0
 30
0
 70
128
 71
50
 72
56
 73
58
 74
58
 0
VERTEX
 8
14
 10
0
 20
0
 30
0
 70
128
 71
191
 72
51
 73
192
 74
192
 0
VERTEX
 8
14
 10
0
 20
0
 30
0
 70
128
 71
52
 72
54
 73
56
 74
56
 0
VERTEX
 8
14
 10
0
 20
0
 30
0
 70
128
 71
55
 72
53
 73
190
 74
190
 0
VERTEX
 8
14
 10
0
 20
0
 30
0
 70
128
 71
190
 72
53
 73
191
 74
191
 0
VERTEX
 8
14
 10
0
 20
0
 30
0
 70
128
 71
57
 72
55
 73
189
 74
189
 0
VERTEX
 8
14
 10
0
 20
0
 30
0
 70
128
 71
189
 72
55
 73
190
 74
190
 0
VERTEX
 8
14
 10
0
 20
0
 30
0
 70
128
 71
59
 72
57
 73
188
 74
188
 0
VERTEX
 8
14
 10
0
 20
0
 30
0
 70
128
 71
188
 72
57
 73
189
 74
189
 0
VERTEX
 8
14
 10
0
 20
0
 30
0
 70
128
 71
61
 72
59
 73
187
 74
187
 0
VERTEX
 8
14
 10
0
 20
0
 30
0
 70
128
 71
187
 72
59
 73
188
 74
188
 0
VERTEX
 8
14
 10
0
 20
0
 30
0
 70
128
 71
63
 72
61
 73
186
 74
186
 0
VERTEX
 8
14
 10
0
 20
0
 30
0
 70
128
 71
186
 72
61
 73
187
 74
187
 0
VERTEX
 8
14
 10
0
 20
0
 30
0
 70
128
 71
66
 72
63
 73
185
 74
185
 0
VERTEX
 8
14
 10
0
 20
0
 30
0
 70
128
 71
185
 72
63
 73
186
 74
186
 0
VERTEX
 8
14
 10
0
 20
0
 30
0
 70
128
 71
64
 72
67
 73
83
 74
83
 0
VERTEX
 8
14
 10
0
 20
0
 30
0
 70
128
 71
68
 72
65
 73
183
 74
183
 0
VERTEX
 8
14
 10
0
 20
0
 30
0
 70
128
 71
184
 72
66
 73
185
 74
185
 0
VERTEX
 8
14
 10
0
 20
0
 30
0
 70
128
 71
67
 72
69
 73
81
 74
81
 0
VERTEX
 8
14
 10
0
 20
0
 30
0
 70
128
 71
70
 72
68
 73
181
 74
181
 0
VERTEX
 8
14
 10
0
 20
0
 30
0
 70
128
 71
67
 72
81
 73
83
 74
83
 0
VERTEX
 8
14
 10
0
 20
0
 30
0
 70
128
 71
181
 72
68
 73
182
 74
182
 0
VERTEX
 8
14
 10
0
 20
0
 30
0
 70
128
 71
182
 72
68
 73
183
 74
183
 0
VERTEX
 8
14
 10
0
 20
0
 30
0
 70
128
 71
69
 72
71
 73
79
 74
79
 0
VERTEX
 8
14
 10
0
 20
0
 30
0
 70
128
 71
72
 72
70
 73
180
 74
180
 0
VERTEX
 8
14
 10
0
 20
0
 30
0
 70
128
 71
69
 72
79
 73
81
 74
81
 0
VERTEX
 8
14
 10
0
 20
0
 30
0
 70
128
 71
180
 72
70
 73
181
 74
181
 0
VERTEX
 8
14
 10
0
 20
0
 30
0
 70
128
 71
71
 72
73
 73
77
 74
77
 0
VERTEX
 8
14
 10
0
 20
0
 30
0
 70
128
 71
74
 72
72
 73
179
 74
179
 0
VERTEX
 8
14
 10
0
 20
0
 30
0
 70
128
 71
71
 72
77
 73
79
 74
79
 0
VERTEX
 8
14
 10
0
 20
0
 30
0
 70
128
 71
179
 72
72
 73
180
 74
180
 0
VERTEX
 8
14
 10
0
 20
0
 30
0
 70
128
 71
73
 72
75
 73
77
 74
77
 0
VERTEX
 8
14
 10
0
 20
0
 30
0
 70
128
 71
76
 72
74
 73
178
 74
178
 0
VERTEX
 8
14
 10
0
 20
0
 30
0
 70
128
 71
178
 72
74
 73
179
 74
179
 0
VERTEX
 8
14
 10
0
 20
0
 30
0
 70
128
 71
78
 72
76
 73
177
 74
177
 0
VERTEX
 8
14
 10
0
 20
0
 30
0
 70
128
 71
177
 72
76
 73
178
 74
178
 0
VERTEX
 8
14
 10
0
 20
0
 30
0
 70
128
 71
80
 72
78
 73
176
 74
176
 0
VERTEX
 8
14
 10
0
 20
0
 30
0
 70
128
 71
176
 72
78
 73
177
 74
177
 0
VERTEX
 8
14
 10
0
 20
0
 30
0
 70
128
 71
82
 72
80
 73
175
 74
175
 0
VERTEX
 8
14
 10
0
 20
0
 30
0
 70
128
 71
175
 72
80
 73
176
 74
176
 0
VERTEX
 8
14
 10
0
 20
0
 30
0
 70
128
 71
84
 72
82
 73
174
 74
174
 0
VERTEX
 8
14
 10
0
 20
0
 30
0
 70
128
 71
174
 72
82
 73
175
 74
175
 0
VERTEX
 8
14
 10
0
 20
0
 30
0
 70
128
 71
173
 72
84
 73
174
 74
174
 0
VERTEX
 8
14
 10
0
 20
0
 30
0
 70
128
 71
85
 72
89
 73
133
 74
133
 0
VERTEX
 8
14
 10
0
 20
0
 30
0
 70
128
 71
91
 72
86
 73
136
 74
136
 0
VERTEX
 8
14
 10
0
 20
0
 30
0
 70
128
 71
87
 72
134
 73
182
 74
182
 0
VERTEX
 8
14
 10
0
 20
0
 30
0
 70
128
 71
136
 72
86
 73
153
 74
153
 0
VERTEX
 8
14
 10
0
 20
0
 30
0
 70
128
 71
154
 72
88
 73
184
 74
184
 0
VERTEX
 8
14
 10
0
 20
0
 30
0
 70
128
 71
87
 72
182
 73
183
 74
183
 0
VERTEX
 8
14
 10
0
 20
0
 30
0
 70
128
 71
89
 72
92
 73
133
 74
133
 0
VERTEX
 8
14
 10
0
 20
0
 30
0
 70
128
 71
92
 72
94
 73
131
 74
131
 0
VERTEX
 8
14
 10
0
 20
0
 30
0
 70
128
 71
92
 72
131
 73
133
 74
133
 0
VERTEX
 8
14
 10
0
 20
0
 30
0
 70
128
 71
94
 72
96
 73
129
 74
129
 0
VERTEX
 8
14
 10
0
 20
0
 30
0
 70
128
 71
94
 72
129
 73
131
 74
131
 0
VERTEX
 8
14
 10
0
 20
0
 30
0
 70
128
 71
99
 72
97
 73
105
 74
105
 0
VERTEX
 8
14
 10
0
 20
0
 30
0
 70
128
 71
96
 72
98
 73
127
 74
127
 0
VERTEX
 8
14
 10
0
 20
0
 30
0
 70
128
 71
96
 72
127
 73
129
 74
129
 0
VERTEX
 8
14
 10
0
 20
0
 30
0
 70
128
 71
101
 72
99
 73
103
 74
103
 0
VERTEX
 8
14
 10
0
 20
0
 30
0
 70
128
 71
98
 72
100
 73
125
 74
125
 0
VERTEX
 8
14
 10
0
 20
0
 30
0
 70
128
 71
103
 72
99
 73
105
 74
105
 0
VERTEX
 8
14
 10
0
 20
0
 30
0
 70
128
 71
98
 72
125
 73
127
 74
127
 0
VERTEX
 8
14
 10
0
 20
0
 30
0
 70
128
 71
100
 72
102
 73
123
 74
123
 0
VERTEX
 8
14
 10
0
 20
0
 30
0
 70
128
 71
100
 72
123
 73
125
 74
125
 0
VERTEX
 8
14
 10
0
 20
0
 30
0
 70
128
 71
102
 72
104
 73
121
 74
121
 0
VERTEX
 8
14
 10
0
 20
0
 30
0
 70
128
 71
102
 72
121
 73
123
 74
123
 0
VERTEX
 8
14
 10
0
 20
0
 30
0
 70
128
 71
104
 72
106
 73
119
 74
119
 0
VERTEX
 8
14
 10
0
 20
0
 30
0
 70
128
 71
104
 72
119
 73
121
 74
121
 0
VERTEX
 8
14
 10
0
 20
0
 30
0
 70
128
 71
106
 72
108
 73
117
 74
117
 0
VERTEX
 8
14
 10
0
 20
0
 30
0
 70
128
 71
106
 72
117
 73
119
 74
119
 0
VERTEX
 8
14
 10
0
 20
0
 30
0
 70
128
 71
108
 72
110
 73
113
 74
113
 0
VERTEX
 8
14
 10
0
 20
0
 30
0
 70
128
 71
108
 72
113
 73
117
 74
117
 0
VERTEX
 8
14
 10
0
 20
0
 30
0
 70
128
 71
114
 72
112
 73
169
 74
169
 0
VERTEX
 8
14
 10
0
 20
0
 30
0
 70
128
 71
112
 72
152
 73
169
 74
169
 0
VERTEX
 8
14
 10
0
 20
0
 30
0
 70
128
 71
118
 72
115
 73
171
 74
171
 0
VERTEX
 8
14
 10
0
 20
0
 30
0
 70
128
 71
116
 72
170
 73
194
 74
194
 0
VERTEX
 8
14
 10
0
 20
0
 30
0
 70
128
 71
172
 72
116
 73
194
 74
194
 0
VERTEX
 8
14
 10
0
 20
0
 30
0
 70
128
 71
120
 72
118
 73
174
 74
174
 0
VERTEX
 8
14
 10
0
 20
0
 30
0
 70
128
 71
118
 72
171
 73
173
 74
173
 0
VERTEX
 8
14
 10
0
 20
0
 30
0
 70
128
 71
118
 72
173
 73
174
 74
174
 0
VERTEX
 8
14
 10
0
 20
0
 30
0
 70
128
 71
122
 72
120
 73
175
 74
175
 0
VERTEX
 8
14
 10
0
 20
0
 30
0
 70
128
 71
120
 72
174
 73
175
 74
175
 0
VERTEX
 8
14
 10
0
 20
0
 30
0
 70
128
 71
124
 72
122
 73
176
 74
176
 0
VERTEX
 8
14
 10
0
 20
0
 30
0
 70
128
 71
122
 72
175
 73
176
 74
176
 0
VERTEX
 8
14
 10
0
 20
0
 30
0
 70
128
 71
126
 72
124
 73
177
 74
177
 0
VERTEX
 8
14
 10
0
 20
0
 30
0
 70
128
 71
124
 72
176
 73
177
 74
177
 0
VERTEX
 8
14
 10
0
 20
0
 30
0
 70
128
 71
128
 72
126
 73
178
 74
178
 0
VERTEX
 8
14
 10
0
 20
0
 30
0
 70
128
 71
126
 72
177
 73
178
 74
178
 0
VERTEX
 8
14
 10
0
 20
0
 30
0
 70
128
 71
130
 72
128
 73
179
 74
179
 0
VERTEX
 8
14
 10
0
 20
0
 30
0
 70
128
 71
128
 72
178
 73
179
 74
179
 0
VERTEX
 8
14
 10
0
 20
0
 30
0
 70
128
 71
132
 72
130
 73
180
 74
180
 0
VERTEX
 8
14
 10
0
 20
0
 30
0
 70
128
 71
130
 72
179
 73
180
 74
180
 0
VERTEX
 8
14
 10
0
 20
0
 30
0
 70
128
 71
134
 72
132
 73
181
 74
181
 0
VERTEX
 8
14
 10
0
 20
0
 30
0
 70
128
 71
132
 72
180
 73
181
 74
181
 0
VERTEX
 8
14
 10
0
 20
0
 30
0
 70
128
 71
134
 72
181
 73
182
 74
182
 0
VERTEX
 8
14
 10
0
 20
0
 30
0
 70
128
 71
138
 72
136
 73
153
 74
153
 0
VERTEX
 8
14
 10
0
 20
0
 30
0
 70
128
 71
140
 72
138
 73
155
 74
155
 0
VERTEX
 8
14
 10
0
 20
0
 30
0
 70
128
 71
138
 72
153
 73
155
 74
155
 0
VERTEX
 8
14
 10
0
 20
0
 30
0
 70
128
 71
139
 72
141
 73
145
 74
145
 0
VERTEX
 8
14
 10
0
 20
0
 30
0
 70
128
 71
142
 72
140
 73
157
 74
157
 0
VERTEX
 8
14
 10
0
 20
0
 30
0
 70
128
 71
139
 72
145
 73
147
 74
147
 0
VERTEX
 8
14
 10
0
 20
0
 30
0
 70
128
 71
140
 72
155
 73
157
 74
157
 0
VERTEX
 8
14
 10
0
 20
0
 30
0
 70
128
 71
141
 72
143
 73
145
 74
145
 0
VERTEX
 8
14
 10
0
 20
0
 30
0
 70
128
 71
144
 72
142
 73
159
 74
159
 0
VERTEX
 8
14
 10
0
 20
0
 30
0
 70
128
 71
142
 72
157
 73
159
 74
159
 0
VERTEX
 8
14
 10
0
 20
0
 30
0
 70
128
 71
146
 72
144
 73
161
 74
161
 0
VERTEX
 8
14
 10
0
 20
0
 30
0
 70
128
 71
144
 72
159
 73
161
 74
161
 0
VERTEX
 8
14
 10
0
 20
0
 30
0
 70
128
 71
148
 72
146
 73
163
 74
163
 0
VERTEX
 8
14
 10
0
 20
0
 30
0
 70
128
 71
146
 72
161
 73
163
 74
163
 0
VERTEX
 8
14
 10
0
 20
0
 30
0
 70
128
 71
150
 72
148
 73
165
 74
165
 0
VERTEX
 8
14
 10
0
 20
0
 30
0
 70
128
 71
148
 72
163
 73
165
 74
165
 0
VERTEX
 8
14
 10
0
 20
0
 30
0
 70
128
 71
152
 72
150
 73
167
 74
167
 0
VERTEX
 8
14
 10
0
 20
0
 30
0
 70
128
 71
150
 72
165
 73
167
 74
167
 0
VERTEX
 8
14
 10
0
 20
0
 30
0
 70
128
 71
152
 72
167
 73
169
 74
169
 0
VERTEX
 8
14
 10
0
 20
0
 30
0
 70
128
 71
156
 72
154
 73
186
 74
186
 0
VERTEX
 8
14
 10
0
 20
0
 30
0
 70
128
 71
154
 72
184
 73
185
 74
185
 0
VERTEX
 8
14
 10
0
 20
0
 30
0
 70
128
 71
154
 72
185
 73
186
 74
186
 0
VERTEX
 8
14
 10
0
 20
0
 30
0
 70
128
 71
158
 72
156
 73
187
 74
187
 0
VERTEX
 8
14
 10
0
 20
0
 30
0
 70
128
 71
156
 72
186
 73
187
 74
187
 0
VERTEX
 8
14
 10
0
 20
0
 30
0
 70
128
 71
160
 72
158
 73
188
 74
188
 0
VERTEX
 8
14
 10
0
 20
0
 30
0
 70
128
 71
158
 72
187
 73
188
 74
188
 0
VERTEX
 8
14
 10
0
 20
0
 30
0
 70
128
 71
162
 72
160
 73
189
 74
189
 0
VERTEX
 8
14
 10
0
 20
0
 30
0
 70
128
 71
160
 72
188
 73
189
 74
189
 0
VERTEX
 8
14
 10
0
 20
0
 30
0
 70
128
 71
164
 72
162
 73
190
 74
190
 0
VERTEX
 8
14
 10
0
 20
0
 30
0
 70
128
 71
162
 72
189
 73
190
 74
190
 0
VERTEX
 8
14
 10
0
 20
0
 30
0
 70
128
 71
166
 72
164
 73
191
 74
191
 0
VERTEX
 8
14
 10
0
 20
0
 30
0
 70
128
 71
164
 72
190
 73
191
 74
191
 0
VERTEX
 8
14
 10
0
 20
0
 30
0
 70
128
 71
168
 72
166
 73
192
 74
192
 0
VERTEX
 8
14
 10
0
 20
0
 30
0
 70
128
 71
166
 72
191
 73
192
 74
192
 0
VERTEX
 8
14
 10
0
 20
0
 30
0
 70
128
 71
170
 72
168
 73
193
 74
193
 0
VERTEX
 8
14
 10
0
 20
0
 30
0
 70
128
 71
168
 72
192
 73
193
 74
193
 0
VERTEX
 8
14
 10
0
 20
0
 30
0
 70
128
 71
170
 72
193
 73
194
 74
194
 0
SEQEND
 0
POLYLINE
 8
13
 66
1
 10
0.0
 20
0.0
 30
0.0
 70
64
 71
20
 72
18
 0
VERTEX
 8
13
 10
8.7498
 20
-33.5
 30
-34.9331
 70
192
 0
VERTEX
 8
13
 10
8.933
 20
-33.5
 30
-34.75
 70
192
 0
VERTEX
 8
13
 10
-8.7498
 20
-33.5
 30
-34.9331
 70
192
 0
VERTEX
 8
13
 10
-8.2221
 20
-36.4926
 30
-34.9331
 70
192
 0
VERTEX
 8
13
 10
-6.7027
 20
-39.1242
 30
-34.9331
 70
192
 0
VERTEX
 8
13
 10
-4.3749
 20
-41.0775
 30
-34.9331
 70
192
 0
VERTEX
 8
13
 10
-1.5194
 20
-42.1168
 30
-34.9331
 70
192
 0
VERTEX
 8
13
 10
1.5194
 20
-42.1168
 30
-34.9331
 70
192
 0
VERTEX
 8
13
 10
4.3749
 20
-41.0775
 30
-34.9331
 70
192
 0
VERTEX
 8
13
 10
6.7027
 20
-39.1242
 30
-34.9331
 70
192
 0
VERTEX
 8
13
 10
8.2221
 20
-36.4926
 30
-34.9331
 70
192
 0
VERTEX
 8
13
 10
-8.933
 20
-33.5
 30
-34.75
 70
192
 0
VERTEX
 8
13
 10
-8.3943
 20
-36.5553
 30
-34.75
 70
192
 0
VERTEX
 8
13
 10
-6.8431
 20
-39.242
 30
-34.75
 70
192
 0
VERTEX
 8
13
 10
-4.4665
 20
-41.2362
 30
-34.75
 70
192
 0
VERTEX
 8
13
 10
-1.5512
 20
-42.2973
 30
-34.75
 70
192
 0
VERTEX
 8
13
 10
1.5512
 20
-42.2973
 30
-34.75
 70
192
 0
VERTEX
 8
13
 10
4.4665
 20
-41.2362
 30
-34.75
 70
192
 0
VERTEX
 8
13
 10
6.8431
 20
-39.242
 30
-34.75
 70
192
 0
VERTEX
 8
13
 10
8.3943
 20
-36.5553
 30
-34.75
 70
192
 0
VERTEX
 8
13
 10
0
 20
0
 30
0
 70
128
 71
2
 72
1
 73
20
 74
20
 0
VERTEX
 8
13
 10
0
 20
0
 30
0
 70
128
 71
1
 72
11
 73
20
 74
20
 0
VERTEX
 8
13
 10
0
 20
0
 30
0
 70
128
 71
4
 72
3
 73
12
 74
12
 0
VERTEX
 8
13
 10
0
 20
0
 30
0
 70
128
 71
5
 72
4
 73
13
 74
13
 0
VERTEX
 8
13
 10
0
 20
0
 30
0
 70
128
 71
4
 72
12
 73
13
 74
13
 0
VERTEX
 8
13
 10
0
 20
0
 30
0
 70
128
 71
6
 72
5
 73
14
 74
14
 0
VERTEX
 8
13
 10
0
 20
0
 30
0
 70
128
 71
5
 72
13
 73
14
 74
14
 0
VERTEX
 8
13
 10
0
 20
0
 30
0
 70
128
 71
7
 72
6
 73
15
 74
15
 0
VERTEX
 8
13
 10
0
 20
0
 30
0
 70
128
 71
6
 72
14
 73
15
 74
15
 0
VERTEX
 8
13
 10
0
 20
0
 30
0
 70
128
 71
8
 72
7
 73
16
 74
16
 0
VERTEX
 8
13
 10
0
 20
0
 30
0
 70
128
 71
7
 72
15
 73
16
 74
16
 0
VERTEX
 8
13
 10
0
 20
0
 30
0
 70
128
 71
9
 72
8
 73
17
 74
17
 0
VERTEX
 8
13
 10
0
 20
0
 30
0
 70
128
 71
8
 72
16
 73
17
 74
17
 0
VERTEX
 8
13
 10
0
 20
0
 30
0
 70
128
 71
10
 72
9
 73
18
 74
18
 0
VERTEX
 8
13
 10
0
 20
0
 30
0
 70
128
 71
9
 72
17
 73
18
 74
18
 0
VERTEX
 8
13
 10
0
 20
0
 30
0
 70
128
 71
11
 72
10
 73
19
 74
19
 0
VERTEX
 8
13
 10
0
 20
0
 30
0
 70
128
 71
10
 72
18
 73
19
 74
19
 0
VERTEX
 8
13
 10
0
 20
0
 30
0
 70
128
 71
11
 72
19
 73
20
 74
20
 0
SEQEND
 0
POLYLINE
 8
12
 66
1
 10
0.0
 20
0.0
 30
0.0
 70
64
 71
18
 72
16
 0
VERTEX
 8
12
 10
-8.5
 20
-33.5
 30
0
 70
192
 0
VERTEX
 8
12
 10
-7.9868
 20
-36.408
 30
0
 70
192
 0
VERTEX
 8
12
 10
-6.5118
 20
-38.9628
 30
0
 70
192
 0
VERTEX
 8
12
 10
-4.25
 20
-40.8612
 30
0
 70
192
 0
VERTEX
 8
12
 10
-1.475
 20
-41.8707
 30
0
 70
192
 0
VERTEX
 8
12
 10
1.475
 20
-41.8707
 30
0
 70
192
 0
VERTEX
 8
12
 10
4.25
 20
-40.8612
 30
0
 70
192
 0
VERTEX
 8
12
 10
6.5118
 20
-38.9628
 30
0
 70
192
 0
VERTEX
 8
12
 10
7.9868
 20
-36.408
 30
0
 70
192
 0
VERTEX
 8
12
 10
-8.5971
 20
-36.1616
 30
0
 70
192
 0
VERTEX
 8
12
 10
-7.3365
 20
-38.7131
 30
0
 70
192
 0
VERTEX
 8
12
 10
-5.3403
 20
-40.7443
 30
0
 70
192
 0
VERTEX
 8
12
 10
-2.8107
 20
-42.0497
 30
0
 70
192
 0
VERTEX
 8
12
 10
0
 20
-42.5
 30
0
 70
192
 0
VERTEX
 8
12
 10
2.8107
 20
-42.0497
 30
0
 70
192
 0
VERTEX
 8
12
 10
5.3403
 20
-40.7443
 30
0
 70
192
 0
VERTEX
 8
12
 10
7.3365
 20
-38.7131
 30
0
 70
192
 0
VERTEX
 8
12
 10
8.5971
 20
-36.1616
 30
0
 70
192
 0
VERTEX
 8
12
 10
0
 20
0
 30
0
 70
128
 71
2
 72
1
 73
10
 74
10
 0
VERTEX
 8
12
 10
0
 20
0
 30
0
 70
128
 71
3
 72
2
 73
11
 74
11
 0
VERTEX
 8
12
 10
0
 20
0
 30
0
 70
128
 71
2
 72
10
 73
11
 74
11
 0
VERTEX
 8
12
 10
0
 20
0
 30
0
 70
128
 71
4
 72
3
 73
12
 74
12
 0
VERTEX
 8
12
 10
0
 20
0
 30
0
 70
128
 71
3
 72
11
 73
12
 74
12
 0
VERTEX
 8
12
 10
0
 20
0
 30
0
 70
128
 71
5
 72
4
 73
13
 74
13
 0
VERTEX
 8
12
 10
0
 20
0
 30
0
 70
128
 71
4
 72
12
 73
13
 74
13
 0
VERTEX
 8
12
 10
0
 20
0
 30
0
 70
128
 71
6
 72
5
 73
14
 74
14
 0
VERTEX
 8
12
 10
0
 20
0
 30
0
 70
128
 71
5
 72
13
 73
14
 74
14
 0
VERTEX
 8
12
 10
0
 20
0
 30
0
 70
128
 71
7
 72
6
 73
15
 74
15
 0
VERTEX
 8
12
 10
0
 20
0
 30
0
 70
128
 71
6
 72
14
 73
15
 74
15
 0
VERTEX
 8
12
 10
0
 20
0
 30
0
 70
128
 71
8
 72
7
 73
16
 74
16
 0
VERTEX
 8
12
 10
0
 20
0
 30
0
 70
128
 71
7
 72
15
 73
16
 74
16
 0
VERTEX
 8
12
 10
0
 20
0
 30
0
 70
128
 71
9
 72
8
 73
17
 74
17
 0
VERTEX
 8
12
 10
0
 20
0
 30
0
 70
128
 71
8
 72
16
 73
17
 74
17
 0
VERTEX
 8
12
 10
0
 20
0
 30
0
 70
128
 71
9
 72
17
 73
18
 74
18
 0
SEQEND
 0
POLYLINE
 8
11
 66
1
 10
0.0
 20
0.0
 30
0.0
 70
64
 71
29
 72
35
 0
VERTEX
 8
11
 10
8.9331
 20
-33.5
 30
-0.2502
 70
192
 0
VERTEX
 8
11
 10
8.75
 20
-33.5
 30
-0.067
 70
192
 0
VERTEX
 8
11
 10
8.2223
 20
-36.4927
 30
-0.067
 70
192
 0
VERTEX
 8
11
 10
6.7029
 20
-39.1244
 30
-0.067
 70
192
 0
VERTEX
 8
11
 10
4.375
 20
-41.0777
 30
-0.067
 70
192
 0
VERTEX
 8
11
 10
1.5194
 20
-42.1171
 30
-0.067
 70
192
 0
VERTEX
 8
11
 10
-1.5194
 20
-42.1171
 30
-0.067
 70
192
 0
VERTEX
 8
11
 10
-4.375
 20
-41.0777
 30
-0.067
 70
192
 0
VERTEX
 8
11
 10
-6.7029
 20
-39.1244
 30
-0.067
 70
192
 0
VERTEX
 8
11
 10
-8.2223
 20
-36.4927
 30
-0.067
 70
192
 0
VERTEX
 8
11
 10
-8.75
 20
-33.5
 30
-0.067
 70
192
 0
VERTEX
 8
11
 10
-8.5
 20
-33.5
 30
0
 70
192
 0
VERTEX
 8
11
 10
-7.9868
 20
-36.408
 30
0
 70
192
 0
VERTEX
 8
11
 10
-6.5118
 20
-38.9628
 30
0
 70
192
 0
VERTEX
 8
11
 10
-4.25
 20
-40.8612
 30
0
 70
192
 0
VERTEX
 8
11
 10
-1.475
 20
-41.8707
 30
0
 70
192
 0
VERTEX
 8
11
 10
1.475
 20
-41.8707
 30
0
 70
192
 0
VERTEX
 8
11
 10
4.25
 20
-40.8612
 30
0
 70
192
 0
VERTEX
 8
11
 10
6.5118
 20
-38.9628
 30
0
 70
192
 0
VERTEX
 8
11
 10
7.9868
 20
-36.408
 30
0
 70
192
 0
VERTEX
 8
11
 10
8.3944
 20
-36.5553
 30
-0.2502
 70
192
 0
VERTEX
 8
11
 10
6.8432
 20
-39.2421
 30
-0.2502
 70
192
 0
VERTEX
 8
11
 10
4.4666
 20
-41.2363
 30
-0.2502
 70
192
 0
VERTEX
 8
11
 10
1.5512
 20
-42.2974
 30
-0.2502
 70
192
 0
VERTEX
 8
11
 10
-1.5512
 20
-42.2974
 30
-0.2502
 70
192
 0
VERTEX
 8
11
 10
-4.4666
 20
-41.2363
 30
-0.2502
 70
192
 0
VERTEX
 8
11
 10
-6.8432
 20
-39.2421
 30
-0.2502
 70
192
 0
VERTEX
 8
11
 10
-8.3944
 20
-36.5553
 30
-0.2502
 70
192
 0
VERTEX
 8
11
 10
-8.9331
 20
-33.5
 30
-0.2502
 70
192
 0
VERTEX
 8
11
 10
0
 20
0
 30
0
 70
128
 71
2
 72
1
 73
3
 74
3
 0
VERTEX
 8
11
 10
0
 20
0
 30
0
 70
128
 71
3
 72
1
 73
21
 74
21
 0
VERTEX
 8
11
 10
0
 20
0
 30
0
 70
128
 71
2
 72
3
 73
20
 74
20
 0
VERTEX
 8
11
 10
0
 20
0
 30
0
 70
128
 71
3
 72
4
 73
19
 74
19
 0
VERTEX
 8
11
 10
0
 20
0
 30
0
 70
128
 71
4
 72
3
 73
21
 74
21
 0
VERTEX
 8
11
 10
0
 20
0
 30
0
 70
128
 71
3
 72
19
 73
20
 74
20
 0
VERTEX
 8
11
 10
0
 20
0
 30
0
 70
128
 71
4
 72
5
 73
18
 74
18
 0
VERTEX
 8
11
 10
0
 20
0
 30
0
 70
128
 71
5
 72
4
 73
22
 74
22
 0
VERTEX
 8
11
 10
0
 20
0
 30
0
 70
128
 71
4
 72
18
 73
19
 74
19
 0
VERTEX
 8
11
 10
0
 20
0
 30
0
 70
128
 71
4
 72
21
 73
22
 74
22
 0
VERTEX
 8
11
 10
0
 20
0
 30
0
 70
128
 71
5
 72
6
 73
17
 74
17
 0
VERTEX
 8
11
 10
0
 20
0
 30
0
 70
128
 71
6
 72
5
 73
23
 74
23
 0
VERTEX
 8
11
 10
0
 20
0
 30
0
 70
128
 71
5
 72
17
 73
18
 74
18
 0
VERTEX
 8
11
 10
0
 20
0
 30
0
 70
128
 71
5
 72
22
 73
23
 74
23
 0
VERTEX
 8
11
 10
0
 20
0
 30
0
 70
128
 71
6
 72
7
 73
16
 74
16
 0
VERTEX
 8
11
 10
0
 20
0
 30
0
 70
128
 71
7
 72
6
 73
24
 74
24
 0
VERTEX
 8
11
 10
0
 20
0
 30
0
 70
128
 71
6
 72
16
 73
17
 74
17
 0
VERTEX
 8
11
 10
0
 20
0
 30
0
 70
128
 71
6
 72
23
 73
24
 74
24
 0
VERTEX
 8
11
 10
0
 20
0
 30
0
 70
128
 71
7
 72
8
 73
15
 74
15
 0
VERTEX
 8
11
 10
0
 20
0
 30
0
 70
128
 71
8
 72
7
 73
25
 74
25
 0
VERTEX
 8
11
 10
0
 20
0
 30
0
 70
128
 71
7
 72
15
 73
16
 74
16
 0
VERTEX
 8
11
 10
0
 20
0
 30
0
 70
128
 71
7
 72
24
 73
25
 74
25
 0
VERTEX
 8
11
 10
0
 20
0
 30
0
 70
128
 71
8
 72
9
 73
14
 74
14
 0
VERTEX
 8
11
 10
0
 20
0
 30
0
 70
128
 71
9
 72
8
 73
26
 74
26
 0
VERTEX
 8
11
 10
0
 20
0
 30
0
 70
128
 71
8
 72
14
 73
15
 74
15
 0
VERTEX
 8
11
 10
0
 20
0
 30
0
 70
128
 71
8
 72
25
 73
26
 74
26
 0
VERTEX
 8
11
 10
0
 20
0
 30
0
 70
128
 71
9
 72
10
 73
13
 74
13
 0
VERTEX
 8
11
 10
0
 20
0
 30
0
 70
128
 71
10
 72
9
 73
27
 74
27
 0
VERTEX
 8
11
 10
0
 20
0
 30
0
 70
128
 71
9
 72
13
 73
14
 74
14
 0
VERTEX
 8
11
 10
0
 20
0
 30
0
 70
128
 71
9
 72
26
 73
27
 74
27
 0
VERTEX
 8
11
 10
0
 20
0
 30
0
 70
128
 71
10
 72
11
 73
12
 74
12
 0
VERTEX
 8
11
 10
0
 20
0
 30
0
 70
128
 71
11
 72
10
 73
28
 74
28
 0
VERTEX
 8
11
 10
0
 20
0
 30
0
 70
128
 71
10
 72
12
 73
13
 74
13
 0
VERTEX
 8
11
 10
0
 20
0
 30
0
 70
128
 71
10
 72
27
 73
28
 74
28
 0
VERTEX
 8
11
 10
0
 20
0
 30
0
 70
128
 71
11
 72
28
 73
29
 74
29
 0
SEQEND
 0
POLYLINE
 8
10
 66
1
 10
0.0
 20
0.0
 30
0.0
 70
64
 71
4
 72
2
 0
VERTEX
 8
10
 10
8.5
 20
-33.5
 30
0
 70
192
 0
VERTEX
 8
10
 10
7.9868
 20
-36.408
 30
0
 70
192
 0
VERTEX
 8
10
 10
8.5971
 20
-36.1616
 30
0
 70
192
 0
VERTEX
 8
10
 10
8.9985
 20
-33.3457
 30
0
 70
192
 0
VERTEX
 8
10
 10
0
 20
0
 30
0
 70
128
 71
1
 72
2
 73
3
 74
3
 0
VERTEX
 8
10
 10
0
 20
0
 30
0
 70
128
 71
1
 72
3
 73
4
 74
4
 0
SEQEND
 0
POLYLINE
 8
9
 66
1
 10
0.0
 20
0.0
 30
0.0
 70
64
 71
146
 72
120
 0
VERTEX
 8
9
 10
-8.5
 20
-33.5
 30
-35
 70
192
 0
VERTEX
 8
9
 10
-8.5
 20
-33.5
 30
-35
 70
192
 0
VERTEX
 8
9
 10
-8.5
 20
-33.5
 30
-35
 70
192
 0
VERTEX
 8
9
 10
-7.9926
 20
-36.389
 30
-35
 70
192
 0
VERTEX
 8
9
 10
-7.9926
 20
-36.389
 30
-35
 70
192
 0
VERTEX
 8
9
 10
-6.5183
 20
-38.9553
 30
-35
 70
192
 0
VERTEX
 8
9
 10
-6.5183
 20
-38.9553
 30
-35
 70
192
 0
VERTEX
 8
9
 10
-4.2573
 20
-40.8564
 30
-35
 70
192
 0
VERTEX
 8
9
 10
-4.2573
 20
-40.8564
 30
-35
 70
192
 0
VERTEX
 8
9
 10
-1.4764
 20
-41.8705
 30
-35
 70
192
 0
VERTEX
 8
9
 10
-1.4764
 20
-41.8705
 30
-35
 70
192
 0
VERTEX
 8
9
 10
1.4764
 20
-41.8705
 30
-35
 70
192
 0
VERTEX
 8
9
 10
1.4764
 20
-41.8705
 30
-35
 70
192
 0
VERTEX
 8
9
 10
4.2573
 20
-40.8564
 30
-35
 70
192
 0
VERTEX
 8
9
 10
4.2573
 20
-40.8564
 30
-35
 70
192
 0
VERTEX
 8
9
 10
6.5183
 20
-38.9553
 30
-35
 70
192
 0
VERTEX
 8
9
 10
6.5183
 20
-38.9553
 30
-35
 70
192
 0
VERTEX
 8
9
 10
7.9926
 20
-36.389
 30
-35
 70
192
 0
VERTEX
 8
9
 10
7.9926
 20
-36.389
 30
-35
 70
192
 0
VERTEX
 8
9
 10
8.5
 20
-33.5
 30
-35
 70
192
 0
VERTEX
 8
9
 10
8.5
 20
-33.5
 30
-35
 70
192
 0
VERTEX
 8
9
 10
8.5
 20
-33.5
 30
-35
 70
192
 0
VERTEX
 8
9
 10
8.5
 20
42.5
 30
-35
 70
192
 0
VERTEX
 8
9
 10
8.5
 20
42.5
 30
-35
 70
192
 0
VERTEX
 8
9
 10
8.5
 20
42.5
 30
-35
 70
192
 0
VERTEX
 8
9
 10
-8.5
 20
42.5
 30
-35
 70
192
 0
VERTEX
 8
9
 10
-8.5
 20
42.5
 30
-35
 70
192
 0
VERTEX
 8
9
 10
-8.5
 20
42.5
 30
-35
 70
192
 0
VERTEX
 8
9
 10
-8.7496
 20
42.5
 30
-0.067
 70
192
 0
VERTEX
 8
9
 10
-8.7496
 20
42.5
 30
-0.067
 70
192
 0
VERTEX
 8
9
 10
-8.933
 20
42.5
 30
-0.2504
 70
192
 0
VERTEX
 8
9
 10
-8.933
 20
42.5
 30
-0.2504
 70
192
 0
VERTEX
 8
9
 10
-9
 20
42.5
 30
-0.5
 70
192
 0
VERTEX
 8
9
 10
-9
 20
42.5
 30
-0.5
 70
192
 0
VERTEX
 8
9
 10
-9
 20
42.5
 30
-0.5
 70
192
 0
VERTEX
 8
9
 10
-9
 20
42.5
 30
-34.5
 70
192
 0
VERTEX
 8
9
 10
-9
 20
42.5
 30
-34.5
 70
192
 0
VERTEX
 8
9
 10
-9
 20
42.5
 30
-34.5
 70
192
 0
VERTEX
 8
9
 10
-8.933
 20
42.5
 30
-34.7496
 70
192
 0
VERTEX
 8
9
 10
-8.933
 20
42.5
 30
-34.7496
 70
192
 0
VERTEX
 8
9
 10
-8.7496
 20
42.5
 30
-34.933
 70
192
 0
VERTEX
 8
9
 10
-8.7496
 20
42.5
 30
-34.933
 70
192
 0
VERTEX
 8
9
 10
8.7496
 20
42.5
 30
-34.933
 70
192
 0
VERTEX
 8
9
 10
8.7496
 20
42.5
 30
-34.933
 70
192
 0
VERTEX
 8
9
 10
8.933
 20
42.5
 30
-34.7496
 70
192
 0
VERTEX
 8
9
 10
8.933
 20
42.5
 30
-34.7496
 70
192
 0
VERTEX
 8
9
 10
9
 20
42.5
 30
-34.5
 70
192
 0
VERTEX
 8
9
 10
9
 20
42.5
 30
-34.5
 70
192
 0
VERTEX
 8
9
 10
9
 20
42.5
 30
-34.5
 70
192
 0
VERTEX
 8
9
 10
9
 20
42.5
 30
-0.5
 70
192
 0
VERTEX
 8
9
 10
9
 20
42.5
 30
-0.5
 70
192
 0
VERTEX
 8
9
 10
9
 20
42.5
 30
-0.5
 70
192
 0
VERTEX
 8
9
 10
8.933
 20
42.5
 30
-0.2504
 70
192
 0
VERTEX
 8
9
 10
8.933
 20
42.5
 30
-0.2504
 70
192
 0
VERTEX
 8
9
 10
8.7496
 20
42.5
 30
-0.067
 70
192
 0
VERTEX
 8
9
 10
8.7496
 20
42.5
 30
-0.067
 70
192
 0
VERTEX
 8
9
 10
9
 20
-33.5
 30
-0.5
 70
192
 0
VERTEX
 8
9
 10
9
 20
-33.5
 30
-0.5
 70
192
 0
VERTEX
 8
9
 10
9
 20
-33.5
 30
-0.5
 70
192
 0
VERTEX
 8
9
 10
9
 20
-33.5
 30
-0.5
 70
192
 0
VERTEX
 8
9
 10
9
 20
-33.5
 30
-34.5
 70
192
 0
VERTEX
 8
9
 10
9
 20
-33.5
 30
-34.5
 70
192
 0
VERTEX
 8
9
 10
9
 20
-33.5
 30
-34.5
 70
192
 0
VERTEX
 8
9
 10
9
 20
-33.5
 30
-34.5
 70
192
 0
VERTEX
 8
9
 10
-9
 20
-33.5
 30
-0.5
 70
192
 0
VERTEX
 8
9
 10
-9
 20
-33.5
 30
-0.5
 70
192
 0
VERTEX
 8
9
 10
-9
 20
-33.5
 30
-0.5
 70
192
 0
VERTEX
 8
9
 10
-9
 20
-33.5
 30
-0.5
 70
192
 0
VERTEX
 8
9
 10
-8.4572
 20
-36.5782
 30
-0.5
 70
192
 0
VERTEX
 8
9
 10
-8.4572
 20
-36.5782
 30
-0.5
 70
192
 0
VERTEX
 8
9
 10
-6.8944
 20
-39.2851
 30
-0.5
 70
192
 0
VERTEX
 8
9
 10
-6.8944
 20
-39.2851
 30
-0.5
 70
192
 0
VERTEX
 8
9
 10
-4.5
 20
-41.2942
 30
-0.5
 70
192
 0
VERTEX
 8
9
 10
-4.5
 20
-41.2942
 30
-0.5
 70
192
 0
VERTEX
 8
9
 10
-1.5628
 20
-42.3633
 30
-0.5
 70
192
 0
VERTEX
 8
9
 10
-1.5628
 20
-42.3633
 30
-0.5
 70
192
 0
VERTEX
 8
9
 10
1.5628
 20
-42.3633
 30
-0.5
 70
192
 0
VERTEX
 8
9
 10
1.5628
 20
-42.3633
 30
-0.5
 70
192
 0
VERTEX
 8
9
 10
4.5
 20
-41.2942
 30
-0.5
 70
192
 0
VERTEX
 8
9
 10
4.5
 20
-41.2942
 30
-0.5
 70
192
 0
VERTEX
 8
9
 10
6.8944
 20
-39.2851
 30
-0.5
 70
192
 0
VERTEX
 8
9
 10
6.8944
 20
-39.2851
 30
-0.5
 70
192
 0
VERTEX
 8
9
 10
8.4572
 20
-36.5782
 30
-0.5
 70
192
 0
VERTEX
 8
9
 10
8.4572
 20
-36.5782
 30
-0.5
 70
192
 0
VERTEX
 8
9
 10
8.4572
 20
-36.5782
 30
-34.5
 70
192
 0
VERTEX
 8
9
 10
8.4572
 20
-36.5782
 30
-34.5
 70
192
 0
VERTEX
 8
9
 10
6.8944
 20
-39.2851
 30
-34.5
 70
192
 0
VERTEX
 8
9
 10
6.8944
 20
-39.2851
 30
-34.5
 70
192
 0
VERTEX
 8
9
 10
4.5
 20
-41.2942
 30
-34.5
 70
192
 0
VERTEX
 8
9
 10
4.5
 20
-41.2942
 30
-34.5
 70
192
 0
VERTEX
 8
9
 10
1.5628
 20
-42.3633
 30
-34.5
 70
192
 0
VERTEX
 8
9
 10
1.5628
 20
-42.3633
 30
-34.5
 70
192
 0
VERTEX
 8
9
 10
-1.5628
 20
-42.3633
 30
-34.5
 70
192
 0
VERTEX
 8
9
 10
-1.5628
 20
-42.3633
 30
-34.5
 70
192
 0
VERTEX
 8
9
 10
-4.5
 20
-41.2942
 30
-34.5
 70
192
 0
VERTEX
 8
9
 10
-4.5
 20
-41.2942
 30
-34.5
 70
192
 0
VERTEX
 8
9
 10
-6.8944
 20
-39.2851
 30
-34.5
 70
192
 0
VERTEX
 8
9
 10
-6.8944
 20
-39.2851
 30
-34.5
 70
192
 0
VERTEX
 8
9
 10
-8.4572
 20
-36.5782
 30
-34.5
 70
192
 0
VERTEX
 8
9
 10
-8.4572
 20
-36.5782
 30
-34.5
 70
192
 0
VERTEX
 8
9
 10
-9
 20
-33.5
 30
-34.5
 70
192
 0
VERTEX
 8
9
 10
-9
 20
-33.5
 30
-34.5
 70
192
 0
VERTEX
 8
9
 10
-9
 20
-33.5
 30
-34.5
 70
192
 0
VERTEX
 8
9
 10
-9
 20
-33.5
 30
-34.5
 70
192
 0
VERTEX
 8
9
 10
8.5
 20
-33.5
 30
0
 70
192
 0
VERTEX
 8
9
 10
8.9331
 20
-33.5
 30
-0.2502
 70
192
 0
VERTEX
 8
9
 10
8.9331
 20
-33.5
 30
-0.2502
 70
192
 0
VERTEX
 8
9
 10
8.75
 20
-33.5
 30
-0.067
 70
192
 0
VERTEX
 8
9
 10
8.75
 20
-33.5
 30
-0.067
 70
192
 0
VERTEX
 8
9
 10
-8.75
 20
-33.5
 30
-0.067
 70
192
 0
VERTEX
 8
9
 10
-8.5
 20
-33.5
 30
0
 70
192
 0
VERTEX
 8
9
 10
7.9868
 20
-36.408
 30
0
 70
192
 0
VERTEX
 8
9
 10
8.3944
 20
-36.5553
 30
-0.2502
 70
192
 0
VERTEX
 8
9
 10
6.8432
 20
-39.2421
 30
-0.2502
 70
192
 0
VERTEX
 8
9
 10
4.4666
 20
-41.2363
 30
-0.2502
 70
192
 0
VERTEX
 8
9
 10
1.5512
 20
-42.2974
 30
-0.2502
 70
192
 0
VERTEX
 8
9
 10
-1.5512
 20
-42.2974
 30
-0.2502
 70
192
 0
VERTEX
 8
9
 10
-4.4666
 20
-41.2363
 30
-0.2502
 70
192
 0
VERTEX
 8
9
 10
-6.8432
 20
-39.2421
 30
-0.2502
 70
192
 0
VERTEX
 8
9
 10
-8.3944
 20
-36.5553
 30
-0.2502
 70
192
 0
VERTEX
 8
9
 10
-8.9331
 20
-33.5
 30
-0.2502
 70
192
 0
VERTEX
 8
9
 10
-8.9331
 20
-33.5
 30
-0.2502
 70
192
 0
VERTEX
 8
9
 10
8.7498
 20
-33.5
 30
-34.9331
 70
192
 0
VERTEX
 8
9
 10
8.7498
 20
-33.5
 30
-34.9331
 70
192
 0
VERTEX
 8
9
 10
8.933
 20
-33.5
 30
-34.75
 70
192
 0
VERTEX
 8
9
 10
8.933
 20
-33.5
 30
-34.75
 70
192
 0
VERTEX
 8
9
 10
-8.7498
 20
-33.5
 30
-34.9331
 70
192
 0
VERTEX
 8
9
 10
-8.7498
 20
-33.5
 30
-34.9331
 70
192
 0
VERTEX
 8
9
 10
-8.2221
 20
-36.4926
 30
-34.9331
 70
192
 0
VERTEX
 8
9
 10
-6.7027
 20
-39.1242
 30
-34.9331
 70
192
 0
VERTEX
 8
9
 10
-4.3749
 20
-41.0775
 30
-34.9331
 70
192
 0
VERTEX
 8
9
 10
-1.5194
 20
-42.1168
 30
-34.9331
 70
192
 0
VERTEX
 8
9
 10
1.5194
 20
-42.1168
 30
-34.9331
 70
192
 0
VERTEX
 8
9
 10
4.3749
 20
-41.0775
 30
-34.9331
 70
192
 0
VERTEX
 8
9
 10
6.7027
 20
-39.1242
 30
-34.9331
 70
192
 0
VERTEX
 8
9
 10
8.2221
 20
-36.4926
 30
-34.9331
 70
192
 0
VERTEX
 8
9
 10
-8.933
 20
-33.5
 30
-34.75
 70
192
 0
VERTEX
 8
9
 10
-8.933
 20
-33.5
 30
-34.75
 70
192
 0
VERTEX
 8
9
 10
-8.3943
 20
-36.5553
 30
-34.75
 70
192
 0
VERTEX
 8
9
 10
-6.8431
 20
-39.242
 30
-34.75
 70
192
 0
VERTEX
 8
9
 10
-4.4665
 20
-41.2362
 30
-34.75
 70
192
 0
VERTEX
 8
9
 10
-1.5512
 20
-42.2973
 30
-34.75
 70
192
 0
VERTEX
 8
9
 10
1.5512
 20
-42.2973
 30
-34.75
 70
192
 0
VERTEX
 8
9
 10
4.4665
 20
-41.2362
 30
-34.75
 70
192
 0
VERTEX
 8
9
 10
6.8431
 20
-39.242
 30
-34.75
 70
192
 0
VERTEX
 8
9
 10
8.3943
 20
-36.5553
 30
-34.75
 70
192
 0
VERTEX
 8
9
 10
0
 20
0
 30
0
 70
128
 71
1
 72
4
 73
18
 74
18
 0
VERTEX
 8
9
 10
0
 20
0
 30
0
 70
128
 71
5
 72
2
 73
127
 74
127
 0
VERTEX
 8
9
 10
0
 20
0
 30
0
 70
128
 71
1
 72
18
 73
20
 74
20
 0
VERTEX
 8
9
 10
0
 20
0
 30
0
 70
128
 71
1
 72
20
 73
26
 74
26
 0
VERTEX
 8
9
 10
0
 20
0
 30
0
 70
128
 71
3
 72
28
 73
128
 74
128
 0
VERTEX
 8
9
 10
0
 20
0
 30
0
 70
128
 71
4
 72
6
 73
16
 74
16
 0
VERTEX
 8
9
 10
0
 20
0
 30
0
 70
128
 71
7
 72
5
 73
129
 74
129
 0
VERTEX
 8
9
 10
0
 20
0
 30
0
 70
128
 71
4
 72
16
 73
18
 74
18
 0
VERTEX
 8
9
 10
0
 20
0
 30
0
 70
128
 71
5
 72
127
 73
129
 74
129
 0
VERTEX
 8
9
 10
0
 20
0
 30
0
 70
128
 71
6
 72
8
 73
14
 74
14
 0
VERTEX
 8
9
 10
0
 20
0
 30
0
 70
128
 71
9
 72
7
 73
130
 74
130
 0
VERTEX
 8
9
 10
0
 20
0
 30
0
 70
128
 71
6
 72
14
 73
16
 74
16
 0
VERTEX
 8
9
 10
0
 20
0
 30
0
 70
128
 71
7
 72
129
 73
130
 74
130
 0
VERTEX
 8
9
 10
0
 20
0
 30
0
 70
128
 71
8
 72
10
 73
12
 74
12
 0
VERTEX
 8
9
 10
0
 20
0
 30
0
 70
128
 71
11
 72
9
 73
131
 74
131
 0
VERTEX
 8
9
 10
0
 20
0
 30
0
 70
128
 71
8
 72
12
 73
14
 74
14
 0
VERTEX
 8
9
 10
0
 20
0
 30
0
 70
128
 71
9
 72
130
 73
131
 74
131
 0
VERTEX
 8
9
 10
0
 20
0
 30
0
 70
128
 71
13
 72
11
 73
132
 74
132
 0
VERTEX
 8
9
 10
0
 20
0
 30
0
 70
128
 71
11
 72
131
 73
132
 74
132
 0
VERTEX
 8
9
 10
0
 20
0
 30
0
 70
128
 71
15
 72
13
 73
134
 74
134
 0
VERTEX
 8
9
 10
0
 20
0
 30
0
 70
128
 71
13
 72
132
 73
133
 74
133
 0
VERTEX
 8
9
 10
0
 20
0
 30
0
 70
128
 71
13
 72
133
 73
134
 74
134
 0
VERTEX
 8
9
 10
0
 20
0
 30
0
 70
128
 71
17
 72
15
 73
135
 74
135
 0
VERTEX
 8
9
 10
0
 20
0
 30
0
 70
128
 71
15
 72
134
 73
135
 74
135
 0
VERTEX
 8
9
 10
0
 20
0
 30
0
 70
128
 71
19
 72
17
 73
136
 74
136
 0
VERTEX
 8
9
 10
0
 20
0
 30
0
 70
128
 71
17
 72
135
 73
136
 74
136
 0
VERTEX
 8
9
 10
0
 20
0
 30
0
 70
128
 71
22
 72
19
 73
136
 74
136
 0
VERTEX
 8
9
 10
0
 20
0
 30
0
 70
128
 71
20
 72
23
 73
26
 74
26
 0
VERTEX
 8
9
 10
0
 20
0
 30
0
 70
128
 71
25
 72
21
 73
44
 74
44
 0
VERTEX
 8
9
 10
0
 20
0
 30
0
 70
128
 71
44
 72
21
 73
123
 74
123
 0
VERTEX
 8
9
 10
0
 20
0
 30
0
 70
128
 71
124
 72
22
 73
136
 74
136
 0
VERTEX
 8
9
 10
0
 20
0
 30
0
 70
128
 71
27
 72
24
 73
41
 74
41
 0
VERTEX
 8
9
 10
0
 20
0
 30
0
 70
128
 71
41
 72
24
 73
43
 74
43
 0
VERTEX
 8
9
 10
0
 20
0
 30
0
 70
128
 71
28
 72
42
 73
128
 74
128
 0
VERTEX
 8
9
 10
0
 20
0
 30
0
 70
128
 71
29
 72
31
 73
53
 74
53
 0
VERTEX
 8
9
 10
0
 20
0
 30
0
 70
128
 71
32
 72
30
 73
110
 74
110
 0
VERTEX
 8
9
 10
0
 20
0
 30
0
 70
128
 71
29
 72
53
 73
55
 74
55
 0
VERTEX
 8
9
 10
0
 20
0
 30
0
 70
128
 71
110
 72
30
 73
111
 74
111
 0
VERTEX
 8
9
 10
0
 20
0
 30
0
 70
128
 71
31
 72
33
 73
50
 74
50
 0
VERTEX
 8
9
 10
0
 20
0
 30
0
 70
128
 71
35
 72
32
 73
122
 74
122
 0
VERTEX
 8
9
 10
0
 20
0
 30
0
 70
128
 71
31
 72
50
 73
53
 74
53
 0
VERTEX
 8
9
 10
0
 20
0
 30
0
 70
128
 71
32
 72
110
 73
122
 74
122
 0
VERTEX
 8
9
 10
0
 20
0
 30
0
 70
128
 71
33
 72
36
 73
47
 74
47
 0
VERTEX
 8
9
 10
0
 20
0
 30
0
 70
128
 71
37
 72
34
 73
102
 74
102
 0
VERTEX
 8
9
 10
0
 20
0
 30
0
 70
128
 71
33
 72
47
 73
50
 74
50
 0
VERTEX
 8
9
 10
0
 20
0
 30
0
 70
128
 71
34
 72
66
 73
102
 74
102
 0
VERTEX
 8
9
 10
0
 20
0
 30
0
 70
128
 71
68
 72
35
 73
122
 74
122
 0
VERTEX
 8
9
 10
0
 20
0
 30
0
 70
128
 71
36
 72
39
 73
45
 74
45
 0
VERTEX
 8
9
 10
0
 20
0
 30
0
 70
128
 71
40
 72
38
 73
104
 74
104
 0
VERTEX
 8
9
 10
0
 20
0
 30
0
 70
128
 71
36
 72
45
 73
47
 74
47
 0
VERTEX
 8
9
 10
0
 20
0
 30
0
 70
128
 71
39
 72
41
 73
43
 74
43
 0
VERTEX
 8
9
 10
0
 20
0
 30
0
 70
128
 71
42
 72
40
 73
138
 74
138
 0
VERTEX
 8
9
 10
0
 20
0
 30
0
 70
128
 71
39
 72
43
 73
45
 74
45
 0
VERTEX
 8
9
 10
0
 20
0
 30
0
 70
128
 71
40
 72
104
 73
138
 74
138
 0
VERTEX
 8
9
 10
0
 20
0
 30
0
 70
128
 71
128
 72
42
 73
138
 74
138
 0
VERTEX
 8
9
 10
0
 20
0
 30
0
 70
128
 71
46
 72
44
 73
123
 74
123
 0
VERTEX
 8
9
 10
0
 20
0
 30
0
 70
128
 71
49
 72
46
 73
125
 74
125
 0
VERTEX
 8
9
 10
0
 20
0
 30
0
 70
128
 71
46
 72
123
 73
125
 74
125
 0
VERTEX
 8
9
 10
0
 20
0
 30
0
 70
128
 71
51
 72
48
 73
57
 74
57
 0
VERTEX
 8
9
 10
0
 20
0
 30
0
 70
128
 71
57
 72
48
 73
61
 74
61
 0
VERTEX
 8
9
 10
0
 20
0
 30
0
 70
128
 71
63
 72
49
 73
125
 74
125
 0
VERTEX
 8
9
 10
0
 20
0
 30
0
 70
128
 71
54
 72
52
 73
59
 74
59
 0
VERTEX
 8
9
 10
0
 20
0
 30
0
 70
128
 71
56
 72
54
 73
106
 74
106
 0
VERTEX
 8
9
 10
0
 20
0
 30
0
 70
128
 71
54
 72
59
 73
106
 74
106
 0
VERTEX
 8
9
 10
0
 20
0
 30
0
 70
128
 71
56
 72
106
 73
108
 74
108
 0
VERTEX
 8
9
 10
0
 20
0
 30
0
 70
128
 71
58
 72
62
 73
83
 74
83
 0
VERTEX
 8
9
 10
0
 20
0
 30
0
 70
128
 71
60
 72
84
 73
113
 74
113
 0
VERTEX
 8
9
 10
0
 20
0
 30
0
 70
128
 71
107
 72
60
 73
113
 74
113
 0
VERTEX
 8
9
 10
0
 20
0
 30
0
 70
128
 71
83
 72
62
 73
85
 74
85
 0
VERTEX
 8
9
 10
0
 20
0
 30
0
 70
128
 71
86
 72
64
 73
126
 74
126
 0
VERTEX
 8
9
 10
0
 20
0
 30
0
 70
128
 71
65
 72
69
 73
99
 74
99
 0
VERTEX
 8
9
 10
0
 20
0
 30
0
 70
128
 71
70
 72
67
 73
121
 74
121
 0
VERTEX
 8
9
 10
0
 20
0
 30
0
 70
128
 71
65
 72
99
 73
101
 74
101
 0
VERTEX
 8
9
 10
0
 20
0
 30
0
 70
128
 71
69
 72
71
 73
97
 74
97
 0
VERTEX
 8
9
 10
0
 20
0
 30
0
 70
128
 71
72
 72
70
 73
120
 74
120
 0
VERTEX
 8
9
 10
0
 20
0
 30
0
 70
128
 71
69
 72
97
 73
99
 74
99
 0
VERTEX
 8
9
 10
0
 20
0
 30
0
 70
128
 71
120
 72
70
 73
121
 74
121
 0
VERTEX
 8
9
 10
0
 20
0
 30
0
 70
128
 71
71
 72
73
 73
95
 74
95
 0
VERTEX
 8
9
 10
0
 20
0
 30
0
 70
128
 71
74
 72
72
 73
119
 74
119
 0
VERTEX
 8
9
 10
0
 20
0
 30
0
 70
128
 71
71
 72
95
 73
97
 74
97
 0
VERTEX
 8
9
 10
0
 20
0
 30
0
 70
128
 71
119
 72
72
 73
120
 74
120
 0
VERTEX
 8
9
 10
0
 20
0
 30
0
 70
128
 71
73
 72
75
 73
93
 74
93
 0
VERTEX
 8
9
 10
0
 20
0
 30
0
 70
128
 71
76
 72
74
 73
118
 74
118
 0
VERTEX
 8
9
 10
0
 20
0
 30
0
 70
128
 71
73
 72
93
 73
95
 74
95
 0
VERTEX
 8
9
 10
0
 20
0
 30
0
 70
128
 71
118
 72
74
 73
119
 74
119
 0
VERTEX
 8
9
 10
0
 20
0
 30
0
 70
128
 71
75
 72
77
 73
91
 74
91
 0
VERTEX
 8
9
 10
0
 20
0
 30
0
 70
128
 71
78
 72
76
 73
117
 74
117
 0
VERTEX
 8
9
 10
0
 20
0
 30
0
 70
128
 71
75
 72
91
 73
93
 74
93
 0
VERTEX
 8
9
 10
0
 20
0
 30
0
 70
128
 71
117
 72
76
 73
118
 74
118
 0
VERTEX
 8
9
 10
0
 20
0
 30
0
 70
128
 71
77
 72
79
 73
89
 74
89
 0
VERTEX
 8
9
 10
0
 20
0
 30
0
 70
128
 71
80
 72
78
 73
116
 74
116
 0
VERTEX
 8
9
 10
0
 20
0
 30
0
 70
128
 71
77
 72
89
 73
91
 74
91
 0
VERTEX
 8
9
 10
0
 20
0
 30
0
 70
128
 71
116
 72
78
 73
117
 74
117
 0
VERTEX
 8
9
 10
0
 20
0
 30
0
 70
128
 71
79
 72
81
 73
87
 74
87
 0
VERTEX
 8
9
 10
0
 20
0
 30
0
 70
128
 71
82
 72
80
 73
115
 74
115
 0
VERTEX
 8
9
 10
0
 20
0
 30
0
 70
128
 71
79
 72
87
 73
89
 74
89
 0
VERTEX
 8
9
 10
0
 20
0
 30
0
 70
128
 71
115
 72
80
 73
116
 74
116
 0
VERTEX
 8
9
 10
0
 20
0
 30
0
 70
128
 71
81
 72
83
 73
85
 74
85
 0
VERTEX
 8
9
 10
0
 20
0
 30
0
 70
128
 71
84
 72
82
 73
114
 74
114
 0
VERTEX
 8
9
 10
0
 20
0
 30
0
 70
128
 71
81
 72
85
 73
87
 74
87
 0
VERTEX
 8
9
 10
0
 20
0
 30
0
 70
128
 71
114
 72
82
 73
115
 74
115
 0
VERTEX
 8
9
 10
0
 20
0
 30
0
 70
128
 71
113
 72
84
 73
114
 74
114
 0
VERTEX
 8
9
 10
0
 20
0
 30
0
 70
128
 71
88
 72
86
 73
146
 74
146
 0
VERTEX
 8
9
 10
0
 20
0
 30
0
 70
128
 71
86
 72
126
 73
146
 74
146
 0
VERTEX
 8
9
 10
0
 20
0
 30
0
 70
128
 71
90
 72
88
 73
145
 74
145
 0
VERTEX
 8
9
 10
0
 20
0
 30
0
 70
128
 71
145
 72
88
 73
146
 74
146
 0
VERTEX
 8
9
 10
0
 20
0
 30
0
 70
128
 71
92
 72
90
 73
144
 74
144
 0
VERTEX
 8
9
 10
0
 20
0
 30
0
 70
128
 71
144
 72
90
 73
145
 74
145
 0
VERTEX
 8
9
 10
0
 20
0
 30
0
 70
128
 71
94
 72
92
 73
143
 74
143
 0
VERTEX
 8
9
 10
0
 20
0
 30
0
 70
128
 71
143
 72
92
 73
144
 74
144
 0
VERTEX
 8
9
 10
0
 20
0
 30
0
 70
128
 71
96
 72
94
 73
142
 74
142
 0
VERTEX
 8
9
 10
0
 20
0
 30
0
 70
128
 71
142
 72
94
 73
143
 74
143
 0
VERTEX
 8
9
 10
0
 20
0
 30
0
 70
128
 71
98
 72
96
 73
141
 74
141
 0
VERTEX
 8
9
 10
0
 20
0
 30
0
 70
128
 71
141
 72
96
 73
142
 74
142
 0
VERTEX
 8
9
 10
0
 20
0
 30
0
 70
128
 71
100
 72
98
 73
140
 74
140
 0
VERTEX
 8
9
 10
0
 20
0
 30
0
 70
128
 71
140
 72
98
 73
141
 74
141
 0
VERTEX
 8
9
 10
0
 20
0
 30
0
 70
128
 71
103
 72
100
 73
139
 74
139
 0
VERTEX
 8
9
 10
0
 20
0
 30
0
 70
128
 71
139
 72
100
 73
140
 74
140
 0
VERTEX
 8
9
 10
0
 20
0
 30
0
 70
128
 71
137
 72
103
 73
139
 74
139
 0
VERTEX
 8
9
 10
0
 20
0
 30
0
 70
128
 71
105
 72
109
 73
112
 74
112
 0
SEQEND
 0
POLYLINE
 8
8
 66
1
 10
0.0
 20
0.0
 30
0.0
 70
64
 71
22
 72
15
 0
VERTEX
 8
8
 10
8.5
 20
-30.542
 30
0
 70
192
 0
VERTEX
 8
8
 10
8.5
 20
-30.542
 30
0
 70
192
 0
VERTEX
 8
8
 10
7.1978
 20
-28.0972
 30
0
 70
192
 0
VERTEX
 8
8
 10
5.2152
 20
-26.1653
 30
0
 70
192
 0
VERTEX
 8
8
 10
2.7388
 20
-24.9269
 30
0
 70
192
 0
VERTEX
 8
8
 10
0
 20
-24.5
 30
0
 70
192
 0
VERTEX
 8
8
 10
0
 20
-24.5
 30
0
 70
192
 0
VERTEX
 8
8
 10
-2.7388
 20
-24.9269
 30
0
 70
192
 0
VERTEX
 8
8
 10
-5.2152
 20
-26.1653
 30
0
 70
192
 0
VERTEX
 8
8
 10
-7.1978
 20
-28.0972
 30
0
 70
192
 0
VERTEX
 8
8
 10
8.5
 20
-33.5
 30
0
 70
192
 0
VERTEX
 8
8
 10
8.9985
 20
-33.3457
 30
0
 70
192
 0
VERTEX
 8
8
 10
8.9985
 20
-33.3457
 30
0
 70
192
 0
VERTEX
 8
8
 10
0
 20
-24.5
 30
113
 70
192
 0
VERTEX
 8
8
 10
0
 20
-24.5
 30
113
 70
192
 0
VERTEX
 8
8
 10
-3.0792
 20
-25.0433
 30
113
 70
192
 0
VERTEX
 8
8
 10
-5.7851
 20
-26.606
 30
113
 70
192
 0
VERTEX
 8
8
 10
-7.7936
 20
-28.9994
 30
113
 70
192
 0
VERTEX
 8
8
 10
8.8631
 20
-31.9363
 30
113
 70
192
 0
VERTEX
 8
8
 10
7.7936
 20
-28.9994
 30
113
 70
192
 0
VERTEX
 8
8
 10
5.7851
 20
-26.606
 30
113
 70
192
 0
VERTEX
 8
8
 10
3.0792
 20
-25.0433
 30
113
 70
192
 0
VERTEX
 8
8
 10
0
 20
0
 30
0
 70
128
 71
1
 72
11
 73
12
 74
12
 0
VERTEX
 8
8
 10
0
 20
0
 30
0
 70
128
 71
2
 72
13
 73
19
 74
19
 0
VERTEX
 8
8
 10
0
 20
0
 30
0
 70
128
 71
2
 72
19
 73
20
 74
20
 0
VERTEX
 8
8
 10
0
 20
0
 30
0
 70
128
 71
4
 72
3
 73
21
 74
21
 0
VERTEX
 8
8
 10
0
 20
0
 30
0
 70
128
 71
3
 72
20
 73
21
 74
21
 0
VERTEX
 8
8
 10
0
 20
0
 30
0
 70
128
 71
5
 72
4
 73
22
 74
22
 0
VERTEX
 8
8
 10
0
 20
0
 30
0
 70
128
 71
4
 72
21
 73
22
 74
22
 0
VERTEX
 8
8
 10
0
 20
0
 30
0
 70
128
 71
7
 72
5
 73
22
 74
22
 0
VERTEX
 8
8
 10
0
 20
0
 30
0
 70
128
 71
8
 72
6
 73
14
 74
14
 0
VERTEX
 8
8
 10
0
 20
0
 30
0
 70
128
 71
15
 72
7
 73
22
 74
22
 0
VERTEX
 8
8
 10
0
 20
0
 30
0
 70
128
 71
9
 72
8
 73
16
 74
16
 0
VERTEX
 8
8
 10
0
 20
0
 30
0
 70
128
 71
8
 72
14
 73
16
 74
16
 0
VERTEX
 8
8
 10
0
 20
0
 30
0
 70
128
 71
10
 72
9
 73
17
 74
17
 0
VERTEX
 8
8
 10
0
 20
0
 30
0
 70
128
 71
9
 72
16
 73
17
 74
17
 0
VERTEX
 8
8
 10
0
 20
0
 30
0
 70
128
 71
10
 72
17
 73
18
 74
18
 0
SEQEND
 0
POLYLINE
 8
7
 66
1
 10
0.0
 20
0.0
 30
0.0
 70
64
 71
3
 72
1
 0
VERTEX
 8
7
 10
8.5
 20
-30.542
 30
0
 70
192
 0
VERTEX
 8
7
 10
8.5
 20
-33.5
 30
0
 70
192
 0
VERTEX
 8
7
 10
8.75
 20
-33.5
 30
-0.067
 70
192
 0
VERTEX
 8
7
 10
0
 20
0
 30
0
 70
128
 71
2
 72
1
 73
3
 74
3
 0
SEQEND
 0
POLYLINE
 8
6
 66
1
 10
0.0
 20
0.0
 30
0.0
 70
64
 71
3
 72
1
 0
VERTEX
 8
6
 10
8.5
 20
-30.542
 30
0
 70
192
 0
VERTEX
 8
6
 10
7.1978
 20
-28.0972
 30
0
 70
192
 0
VERTEX
 8
6
 10
7.7936
 20
-28.9994
 30
113
 70
192
 0
VERTEX
 8
6
 10
0
 20
0
 30
0
 70
128
 71
2
 72
1
 73
3
 74
3
 0
SEQEND
 0
POLYLINE
 8
5
 66
1
 10
0.0
 20
0.0
 30
0.0
 70
64
 71
17
 72
11
 0
VERTEX
 8
5
 10
-8.5
 20
42.5
 30
0
 70
192
 0
VERTEX
 8
5
 10
8.5
 20
42.5
 30
0
 70
192
 0
VERTEX
 8
5
 10
8.5
 20
42.5
 30
0
 70
192
 0
VERTEX
 8
5
 10
8.5
 20
42.5
 30
0
 70
192
 0
VERTEX
 8
5
 10
8.5
 20
-30.542
 30
0
 70
192
 0
VERTEX
 8
5
 10
8.5
 20
-30.542
 30
0
 70
192
 0
VERTEX
 8
5
 10
7.1978
 20
-28.0972
 30
0
 70
192
 0
VERTEX
 8
5
 10
5.2152
 20
-26.1653
 30
0
 70
192
 0
VERTEX
 8
5
 10
2.7388
 20
-24.9269
 30
0
 70
192
 0
VERTEX
 8
5
 10
0
 20
-24.5
 30
0
 70
192
 0
VERTEX
 8
5
 10
-2.7388
 20
-24.9269
 30
0
 70
192
 0
VERTEX
 8
5
 10
-5.2152
 20
-26.1653
 30
0
 70
192
 0
VERTEX
 8
5
 10
-7.1978
 20
-28.0972
 30
0
 70
192
 0
VERTEX
 8
5
 10
-8.7496
 20
42.5
 30
-0.067
 70
192
 0
VERTEX
 8
5
 10
8.7496
 20
42.5
 30
-0.067
 70
192
 0
VERTEX
 8
5
 10
8.7496
 20
42.5
 30
-0.067
 70
192
 0
VERTEX
 8
5
 10
8.75
 20
-33.5
 30
-0.067
 70
192
 0
VERTEX
 8
5
 10
0
 20
0
 30
0
 70
128
 71
3
 72
1
 73
15
 74
15
 0
VERTEX
 8
5
 10
0
 20
0
 30
0
 70
128
 71
1
 72
14
 73
15
 74
15
 0
VERTEX
 8
5
 10
0
 20
0
 30
0
 70
128
 71
2
 72
5
 73
7
 74
7
 0
VERTEX
 8
5
 10
0
 20
0
 30
0
 70
128
 71
6
 72
4
 73
17
 74
17
 0
VERTEX
 8
5
 10
0
 20
0
 30
0
 70
128
 71
2
 72
7
 73
8
 74
8
 0
VERTEX
 8
5
 10
0
 20
0
 30
0
 70
128
 71
2
 72
8
 73
9
 74
9
 0
VERTEX
 8
5
 10
0
 20
0
 30
0
 70
128
 71
2
 72
9
 73
10
 74
10
 0
VERTEX
 8
5
 10
0
 20
0
 30
0
 70
128
 71
2
 72
10
 73
11
 74
11
 0
VERTEX
 8
5
 10
0
 20
0
 30
0
 70
128
 71
2
 72
11
 73
12
 74
12
 0
VERTEX
 8
5
 10
0
 20
0
 30
0
 70
128
 71
2
 72
12
 73
13
 74
13
 0
VERTEX
 8
5
 10
0
 20
0
 30
0
 70
128
 71
4
 72
16
 73
17
 74
17
 0
SEQEND
 0
POLYLINE
 8
4
 66
1
 10
0.0
 20
0.0
 30
0.0
 70
64
 71
8
 72
4
 0
VERTEX
 8
4
 10
-8.5
 20
-30.542
 30
0
 70
192
 0
VERTEX
 8
4
 10
-8.5
 20
-30.542
 30
0
 70
192
 0
VERTEX
 8
4
 10
-8.5
 20
-33.5
 30
0
 70
192
 0
VERTEX
 8
4
 10
-8.9985
 20
-33.3457
 30
0
 70
192
 0
VERTEX
 8
4
 10
-8.9985
 20
-33.3457
 30
0
 70
192
 0
VERTEX
 8
4
 10
-8.5971
 20
-36.1616
 30
0
 70
192
 0
VERTEX
 8
4
 10
-7.7936
 20
-28.9994
 30
113
 70
192
 0
VERTEX
 8
4
 10
-8.8631
 20
-31.9363
 30
113
 70
192
 0
VERTEX
 8
4
 10
0
 20
0
 30
0
 70
128
 71
3
 72
1
 73
6
 74
6
 0
VERTEX
 8
4
 10
0
 20
0
 30
0
 70
128
 71
1
 72
4
 73
6
 74
6
 0
VERTEX
 8
4
 10
0
 20
0
 30
0
 70
128
 71
5
 72
2
 73
8
 74
8
 0
VERTEX
 8
4
 10
0
 20
0
 30
0
 70
128
 71
2
 72
7
 73
8
 74
8
 0
SEQEND
 0
POLYLINE
 8
3
 66
1
 10
0.0
 20
0.0
 30
0.0
 70
64
 71
3
 72
1
 0
VERTEX
 8
3
 10
-8.5
 20
-30.542
 30
0
 70
192
 0
VERTEX
 8
3
 10
-8.7496
 20
42.5
 30
-0.067
 70
192
 0
VERTEX
 8
3
 10
-8.5
 20
-33.5
 30
0
 70
192
 0
VERTEX
 8
3
 10
0
 20
0
 30
0
 70
128
 71
2
 72
1
 73
3
 74
3
 0
SEQEND
 0
POLYLINE
 8
2
 66
1
 10
0.0
 20
0.0
 30
0.0
 70
64
 71
3
 72
1
 0
VERTEX
 8
2
 10
-8.5
 20
-30.542
 30
0
 70
192
 0
VERTEX
 8
2
 10
-7.1978
 20
-28.0972
 30
0
 70
192
 0
VERTEX
 8
2
 10
-7.7936
 20
-28.9994
 30
113
 70
192
 0
VERTEX
 8
2
 10
0
 20
0
 30
0
 70
128
 71
1
 72
2
 73
3
 74
3
 0
SEQEND
 0
POLYLINE
 8
1
 66
1
 10
0.0
 20
0.0
 30
0.0
 70
64
 71
7
 72
3
 0
VERTEX
 8
1
 10
-8.5
 20
-30.542
 30
0
 70
192
 0
VERTEX
 8
1
 10
-8.5
 20
-30.542
 30
0
 70
192
 0
VERTEX
 8
1
 10
-8.5
 20
42.5
 30
0
 70
192
 0
VERTEX
 8
1
 10
-8.5
 20
42.5
 30
0
 70
192
 0
VERTEX
 8
1
 10
8.5
 20
42.5
 30
0
 70
192
 0
VERTEX
 8
1
 10
-7.1978
 20
-28.0972
 30
0
 70
192
 0
VERTEX
 8
1
 10
-8.7496
 20
42.5
 30
-0.067
 70
192
 0
VERTEX
 8
1
 10
0
 20
0
 30
0
 70
128
 71
1
 72
3
 73
5
 74
5
 0
VERTEX
 8
1
 10
0
 20
0
 30
0
 70
128
 71
4
 72
2
 73
7
 74
7
 0
VERTEX
 8
1
 10
0
 20
0
 30
0
 70
128
 71
1
 72
5
 73
6
 74
6
 0
SEQEND
 0
ENDSEC
 0
EOF
