 0
SECTION
 2
HEADER
 9
$ACADVER
 1
AC1009
 0
ENDSEC
 0
SECTION
 2
TABLES
 0
TABLE
 2
LTYPE
 70
1
 0
LTYPE
 2
CONTINUOUS
 70
64
 3
solid line
 72
65
 73
0
 40
0.0
 0
ENDTAB
 0
TABLE
 2
LAYER
 70
6
 0
LAYER
 2
0
 70
0
 62
7
 6
CONTINUOUS
 0
LAYER
 2
MESH_184_F0
 70
64
 62
7
 6
CONTINUOUS
 0
LAYER
 2
MESH_183_F0
 70
64
 62
7
 6
CONTINUOUS
 0
LAYER
 2
MESH_182_F0
 70
64
 62
7
 6
CONTINUOUS
 0
LAYER
 2
MESH_181_F0
 70
64
 62
7
 6
CONTINUOUS
 0
LAYER
 2
MESH_180_F0
 70
64
 62
7
 6
CONTINUOUS
 0
LAYER
 2
MESH_179_F0
 70
64
 62
7
 6
CONTINUOUS
 0
LAYER
 2
MESH_178_F0
 70
64
 62
7
 6
CONTINUOUS
 0
LAYER
 2
MESH_177_F0
 70
64
 62
7
 6
CONTINUOUS
 0
LAYER
 2
MESH_176_F0
 70
64
 62
7
 6
CONTINUOUS
 0
LAYER
 2
MESH_175_F0
 70
64
 62
7
 6
CONTINUOUS
 0
LAYER
 2
MESH_174_F0
 70
64
 62
7
 6
CONTINUOUS
 0
LAYER
 2
MESH_173_F0
 70
64
 62
7
 6
CONTINUOUS
 0
LAYER
 2
MESH_172_F0
 70
64
 62
7
 6
CONTINUOUS
 0
LAYER
 2
MESH_171_F0
 70
64
 62
7
 6
CONTINUOUS
 0
LAYER
 2
MESH_170_F0
 70
64
 62
7
 6
CONTINUOUS
 0
LAYER
 2
MESH_169_F0
 70
64
 62
7
 6
CONTINUOUS
 0
LAYER
 2
MESH_168_F0
 70
64
 62
7
 6
CONTINUOUS
 0
LAYER
 2
MESH_167_F0
 70
64
 62
7
 6
CONTINUOUS
 0
LAYER
 2
MESH_166_F0
 70
64
 62
7
 6
CONTINUOUS
 0
LAYER
 2
MESH_165_F0
 70
64
 62
7
 6
CONTINUOUS
 0
LAYER
 2
MESH_164_F0
 70
64
 62
7
 6
CONTINUOUS
 0
LAYER
 2
MESH_163_F0
 70
64
 62
7
 6
CONTINUOUS
 0
LAYER
 2
MESH_162_F0
 70
64
 62
7
 6
CONTINUOUS
 0
LAYER
 2
MESH_161_F0
 70
64
 62
7
 6
CONTINUOUS
 0
LAYER
 2
MESH_160_F0
 70
64
 62
7
 6
CONTINUOUS
 0
LAYER
 2
MESH_159_F0
 70
64
 62
7
 6
CONTINUOUS
 0
LAYER
 2
MESH_158_F0
 70
64
 62
7
 6
CONTINUOUS
 0
LAYER
 2
MESH_157_F0
 70
64
 62
7
 6
CONTINUOUS
 0
LAYER
 2
MESH_156_F0
 70
64
 62
7
 6
CONTINUOUS
 0
LAYER
 2
MESH_155_F0
 70
64
 62
7
 6
CONTINUOUS
 0
LAYER
 2
MESH_154_F0
 70
64
 62
7
 6
CONTINUOUS
 0
LAYER
 2
MESH_153_F0
 70
64
 62
7
 6
CONTINUOUS
 0
LAYER
 2
T7825_3DPL_F0
 70
64
 62
7
 6
CONTINUOUS
 0
ENDTAB
 0
ENDSEC
 0
SECTION
 2
BLOCKS
 0
ENDSEC
 0
SECTION
 2
ENTITIES
 0
POLYLINE
 8
MESH_184_F0
 66
1
 10
0.0
 20
0.0
 30
0.0
 70
64
 71
4
 72
2
 0
VERTEX
 8
MESH_184_F0
 10
100
 20
-20
 30
120
 70
192
 0
VERTEX
 8
MESH_184_F0
 10
100
 20
0
 30
120
 70
192
 0
VERTEX
 8
MESH_184_F0
 10
-100
 20
0
 30
120
 70
192
 0
VERTEX
 8
MESH_184_F0
 10
-100
 20
-20
 30
120
 70
192
 0
VERTEX
 8
MESH_184_F0
 10
0
 20
0
 30
0
 70
128
 71
4
 72
2
 73
1
 74
1
 0
VERTEX
 8
MESH_184_F0
 10
0
 20
0
 30
0
 70
128
 71
3
 72
2
 73
4
 74
4
 0
SEQEND
 0
POLYLINE
 8
MESH_183_F0
 66
1
 10
0.0
 20
0.0
 30
0.0
 70
64
 71
19
 72
17
 0
VERTEX
 8
MESH_183_F0
 10
138.7298
 20
-19.8
 30
130
 70
192
 0
VERTEX
 8
MESH_183_F0
 10
152.6573
 20
-19.8
 30
139.7737
 70
192
 0
VERTEX
 8
MESH_183_F0
 10
164.2029
 20
-19.8
 30
152.2718
 70
192
 0
VERTEX
 8
MESH_183_F0
 10
172.8443
 20
-19.8
 30
166.9288
 70
192
 0
VERTEX
 8
MESH_183_F0
 10
178.1906
 20
-19.8
 30
183.0817
 70
192
 0
VERTEX
 8
MESH_183_F0
 10
180
 20
-19.8
 30
200
 70
192
 0
VERTEX
 8
MESH_183_F0
 10
180
 20
0
 30
200
 70
192
 0
VERTEX
 8
MESH_183_F0
 10
178.4627
 20
0
 30
184.3926
 70
192
 0
VERTEX
 8
MESH_183_F0
 10
173.9103
 20
0
 30
169.3853
 70
192
 0
VERTEX
 8
MESH_183_F0
 10
166.5175
 20
0
 30
155.5543
 70
192
 0
VERTEX
 8
MESH_183_F0
 10
156.5685
 20
0
 30
143.4315
 70
192
 0
VERTEX
 8
MESH_183_F0
 10
144.4456
 20
0
 30
133.4825
 70
192
 0
VERTEX
 8
MESH_183_F0
 10
130.6147
 20
0
 30
126.0897
 70
192
 0
VERTEX
 8
MESH_183_F0
 10
115.6074
 20
0
 30
121.5373
 70
192
 0
VERTEX
 8
MESH_183_F0
 10
100
 20
0
 30
120
 70
192
 0
VERTEX
 8
MESH_183_F0
 10
100
 20
-20
 30
120
 70
192
 0
VERTEX
 8
MESH_183_F0
 10
113.4126
 20
-20
 30
121.1324
 70
192
 0
VERTEX
 8
MESH_183_F0
 10
126.4456
 20
-20
 30
124.4975
 70
192
 0
VERTEX
 8
MESH_183_F0
 10
138.7298
 20
-20
 30
130
 70
192
 0
VERTEX
 8
MESH_183_F0
 10
0
 20
0
 30
0
 70
128
 71
5
 72
8
 73
6
 74
6
 0
VERTEX
 8
MESH_183_F0
 10
0
 20
0
 30
0
 70
128
 71
8
 72
7
 73
6
 74
6
 0
VERTEX
 8
MESH_183_F0
 10
0
 20
0
 30
0
 70
128
 71
4
 72
9
 73
5
 74
5
 0
VERTEX
 8
MESH_183_F0
 10
0
 20
0
 30
0
 70
128
 71
9
 72
8
 73
5
 74
5
 0
VERTEX
 8
MESH_183_F0
 10
0
 20
0
 30
0
 70
128
 71
3
 72
10
 73
4
 74
4
 0
VERTEX
 8
MESH_183_F0
 10
0
 20
0
 30
0
 70
128
 71
10
 72
9
 73
4
 74
4
 0
VERTEX
 8
MESH_183_F0
 10
0
 20
0
 30
0
 70
128
 71
3
 72
11
 73
10
 74
10
 0
VERTEX
 8
MESH_183_F0
 10
0
 20
0
 30
0
 70
128
 71
2
 72
11
 73
3
 74
3
 0
VERTEX
 8
MESH_183_F0
 10
0
 20
0
 30
0
 70
128
 71
12
 72
11
 73
2
 74
2
 0
VERTEX
 8
MESH_183_F0
 10
0
 20
0
 30
0
 70
128
 71
13
 72
12
 73
1
 74
1
 0
VERTEX
 8
MESH_183_F0
 10
0
 20
0
 30
0
 70
128
 71
14
 72
13
 73
18
 74
18
 0
VERTEX
 8
MESH_183_F0
 10
0
 20
0
 30
0
 70
128
 71
15
 72
14
 73
17
 74
17
 0
VERTEX
 8
MESH_183_F0
 10
0
 20
0
 30
0
 70
128
 71
15
 72
17
 73
16
 74
16
 0
VERTEX
 8
MESH_183_F0
 10
0
 20
0
 30
0
 70
128
 71
14
 72
18
 73
17
 74
17
 0
VERTEX
 8
MESH_183_F0
 10
0
 20
0
 30
0
 70
128
 71
18
 72
1
 73
19
 74
19
 0
VERTEX
 8
MESH_183_F0
 10
0
 20
0
 30
0
 70
128
 71
13
 72
1
 73
18
 74
18
 0
VERTEX
 8
MESH_183_F0
 10
0
 20
0
 30
0
 70
128
 71
2
 72
1
 73
12
 74
12
 0
SEQEND
 0
POLYLINE
 8
MESH_182_F0
 66
1
 10
0.0
 20
0.0
 30
0.0
 70
64
 71
4
 72
2
 0
VERTEX
 8
MESH_182_F0
 10
180
 20
-19.8
 30
500
 70
192
 0
VERTEX
 8
MESH_182_F0
 10
180
 20
0
 30
500
 70
192
 0
VERTEX
 8
MESH_182_F0
 10
180
 20
0
 30
200
 70
192
 0
VERTEX
 8
MESH_182_F0
 10
180
 20
-19.8
 30
200
 70
192
 0
VERTEX
 8
MESH_182_F0
 10
0
 20
0
 30
0
 70
128
 71
4
 72
2
 73
1
 74
1
 0
VERTEX
 8
MESH_182_F0
 10
0
 20
0
 30
0
 70
128
 71
3
 72
2
 73
4
 74
4
 0
SEQEND
 0
POLYLINE
 8
MESH_181_F0
 66
1
 10
0.0
 20
0.0
 30
0.0
 70
64
 71
4
 72
2
 0
VERTEX
 8
MESH_181_F0
 10
-138.7298
 20
-20
 30
570
 70
192
 0
VERTEX
 8
MESH_181_F0
 10
138.7298
 20
-20
 30
570
 70
192
 0
VERTEX
 8
MESH_181_F0
 10
138.7298
 20
-19.8
 30
570
 70
192
 0
VERTEX
 8
MESH_181_F0
 10
-138.7298
 20
-19.8
 30
570
 70
192
 0
VERTEX
 8
MESH_181_F0
 10
0
 20
0
 30
0
 70
128
 71
1
 72
3
 73
2
 74
2
 0
VERTEX
 8
MESH_181_F0
 10
0
 20
0
 30
0
 70
128
 71
4
 72
3
 73
1
 74
1
 0
SEQEND
 0
POLYLINE
 8
MESH_180_F0
 66
1
 10
0.0
 20
0.0
 30
0.0
 70
64
 71
8
 72
6
 0
VERTEX
 8
MESH_180_F0
 10
100
 20
-20
 30
580
 70
192
 0
VERTEX
 8
MESH_180_F0
 10
113.4126
 20
-20
 30
578.8676
 70
192
 0
VERTEX
 8
MESH_180_F0
 10
126.4456
 20
-20
 30
575.5025
 70
192
 0
VERTEX
 8
MESH_180_F0
 10
138.7298
 20
-20
 30
570
 70
192
 0
VERTEX
 8
MESH_180_F0
 10
-138.7298
 20
-20
 30
570
 70
192
 0
VERTEX
 8
MESH_180_F0
 10
-126.4456
 20
-20
 30
575.5025
 70
192
 0
VERTEX
 8
MESH_180_F0
 10
-113.4126
 20
-20
 30
578.8676
 70
192
 0
VERTEX
 8
MESH_180_F0
 10
-100
 20
-20
 30
580
 70
192
 0
VERTEX
 8
MESH_180_F0
 10
0
 20
0
 30
0
 70
128
 71
7
 72
1
 73
8
 74
8
 0
VERTEX
 8
MESH_180_F0
 10
0
 20
0
 30
0
 70
128
 71
2
 72
1
 73
7
 74
7
 0
VERTEX
 8
MESH_180_F0
 10
0
 20
0
 30
0
 70
128
 71
3
 72
2
 73
6
 74
6
 0
VERTEX
 8
MESH_180_F0
 10
0
 20
0
 30
0
 70
128
 71
4
 72
3
 73
5
 74
5
 0
VERTEX
 8
MESH_180_F0
 10
0
 20
0
 30
0
 70
128
 71
3
 72
6
 73
5
 74
5
 0
VERTEX
 8
MESH_180_F0
 10
0
 20
0
 30
0
 70
128
 71
2
 72
7
 73
6
 74
6
 0
SEQEND
 0
POLYLINE
 8
MESH_179_F0
 66
1
 10
0.0
 20
0.0
 30
0.0
 70
64
 71
22
 72
20
 0
VERTEX
 8
MESH_179_F0
 10
138.7298
 20
-20
 30
570
 70
192
 0
VERTEX
 8
MESH_179_F0
 10
126.4456
 20
-20
 30
575.5025
 70
192
 0
VERTEX
 8
MESH_179_F0
 10
113.4126
 20
-20
 30
578.8676
 70
192
 0
VERTEX
 8
MESH_179_F0
 10
100
 20
-20
 30
580
 70
192
 0
VERTEX
 8
MESH_179_F0
 10
100
 20
0
 30
580
 70
192
 0
VERTEX
 8
MESH_179_F0
 10
114.3792
 20
0
 30
578.6971
 70
192
 0
VERTEX
 8
MESH_179_F0
 10
128.29
 20
0
 30
574.8309
 70
192
 0
VERTEX
 8
MESH_179_F0
 10
141.2794
 20
0
 30
568.5274
 70
192
 0
VERTEX
 8
MESH_179_F0
 10
152.9243
 20
0
 30
559.9919
 70
192
 0
VERTEX
 8
MESH_179_F0
 10
155.3776
 20
0
 30
557.7349
 70
192
 0
VERTEX
 8
MESH_179_F0
 10
157.7349
 20
0
 30
555.3776
 70
192
 0
VERTEX
 8
MESH_179_F0
 10
159.9919
 20
0
 30
552.9243
 70
192
 0
VERTEX
 8
MESH_179_F0
 10
168.5274
 20
0
 30
541.2794
 70
192
 0
VERTEX
 8
MESH_179_F0
 10
174.8309
 20
0
 30
528.29
 70
192
 0
VERTEX
 8
MESH_179_F0
 10
178.6971
 20
0
 30
514.3792
 70
192
 0
VERTEX
 8
MESH_179_F0
 10
180
 20
0
 30
500
 70
192
 0
VERTEX
 8
MESH_179_F0
 10
180
 20
-19.8
 30
500
 70
192
 0
VERTEX
 8
MESH_179_F0
 10
178.1906
 20
-19.8
 30
516.9183
 70
192
 0
VERTEX
 8
MESH_179_F0
 10
172.8443
 20
-19.8
 30
533.0712
 70
192
 0
VERTEX
 8
MESH_179_F0
 10
164.2029
 20
-19.8
 30
547.7282
 70
192
 0
VERTEX
 8
MESH_179_F0
 10
152.6573
 20
-19.8
 30
560.2263
 70
192
 0
VERTEX
 8
MESH_179_F0
 10
138.7298
 20
-19.8
 30
570
 70
192
 0
VERTEX
 8
MESH_179_F0
 10
0
 20
0
 30
0
 70
128
 71
22
 72
2
 73
1
 74
1
 0
VERTEX
 8
MESH_179_F0
 10
0
 20
0
 30
0
 70
128
 71
7
 72
2
 73
22
 74
22
 0
VERTEX
 8
MESH_179_F0
 10
0
 20
0
 30
0
 70
128
 71
7
 72
22
 73
8
 74
8
 0
VERTEX
 8
MESH_179_F0
 10
0
 20
0
 30
0
 70
128
 71
22
 72
21
 73
8
 74
8
 0
VERTEX
 8
MESH_179_F0
 10
0
 20
0
 30
0
 70
128
 71
21
 72
9
 73
8
 74
8
 0
VERTEX
 8
MESH_179_F0
 10
0
 20
0
 30
0
 70
128
 71
10
 72
9
 73
21
 74
21
 0
VERTEX
 8
MESH_179_F0
 10
0
 20
0
 30
0
 70
128
 71
10
 72
21
 73
11
 74
11
 0
VERTEX
 8
MESH_179_F0
 10
0
 20
0
 30
0
 70
128
 71
21
 72
12
 73
11
 74
11
 0
VERTEX
 8
MESH_179_F0
 10
0
 20
0
 30
0
 70
128
 71
20
 72
12
 73
21
 74
21
 0
VERTEX
 8
MESH_179_F0
 10
0
 20
0
 30
0
 70
128
 71
13
 72
12
 73
20
 74
20
 0
VERTEX
 8
MESH_179_F0
 10
0
 20
0
 30
0
 70
128
 71
14
 72
13
 73
19
 74
19
 0
VERTEX
 8
MESH_179_F0
 10
0
 20
0
 30
0
 70
128
 71
15
 72
14
 73
18
 74
18
 0
VERTEX
 8
MESH_179_F0
 10
0
 20
0
 30
0
 70
128
 71
16
 72
15
 73
17
 74
17
 0
VERTEX
 8
MESH_179_F0
 10
0
 20
0
 30
0
 70
128
 71
15
 72
18
 73
17
 74
17
 0
VERTEX
 8
MESH_179_F0
 10
0
 20
0
 30
0
 70
128
 71
6
 72
2
 73
7
 74
7
 0
VERTEX
 8
MESH_179_F0
 10
0
 20
0
 30
0
 70
128
 71
3
 72
2
 73
6
 74
6
 0
VERTEX
 8
MESH_179_F0
 10
0
 20
0
 30
0
 70
128
 71
3
 72
6
 73
4
 74
4
 0
VERTEX
 8
MESH_179_F0
 10
0
 20
0
 30
0
 70
128
 71
6
 72
5
 73
4
 74
4
 0
VERTEX
 8
MESH_179_F0
 10
0
 20
0
 30
0
 70
128
 71
14
 72
19
 73
18
 74
18
 0
VERTEX
 8
MESH_179_F0
 10
0
 20
0
 30
0
 70
128
 71
13
 72
20
 73
19
 74
19
 0
SEQEND
 0
POLYLINE
 8
MESH_178_F0
 66
1
 10
0.0
 20
0.0
 30
0.0
 70
64
 71
4
 72
2
 0
VERTEX
 8
MESH_178_F0
 10
-100
 20
-20
 30
580
 70
192
 0
VERTEX
 8
MESH_178_F0
 10
-100
 20
0
 30
580
 70
192
 0
VERTEX
 8
MESH_178_F0
 10
100
 20
0
 30
580
 70
192
 0
VERTEX
 8
MESH_178_F0
 10
100
 20
-20
 30
580
 70
192
 0
VERTEX
 8
MESH_178_F0
 10
0
 20
0
 30
0
 70
128
 71
4
 72
2
 73
1
 74
1
 0
VERTEX
 8
MESH_178_F0
 10
0
 20
0
 30
0
 70
128
 71
3
 72
2
 73
4
 74
4
 0
SEQEND
 0
POLYLINE
 8
MESH_177_F0
 66
1
 10
0.0
 20
0.0
 30
0.0
 70
64
 71
22
 72
20
 0
VERTEX
 8
MESH_177_F0
 10
-138.7298
 20
-19.8
 30
570
 70
192
 0
VERTEX
 8
MESH_177_F0
 10
-152.6573
 20
-19.8
 30
560.2263
 70
192
 0
VERTEX
 8
MESH_177_F0
 10
-164.2029
 20
-19.8
 30
547.7282
 70
192
 0
VERTEX
 8
MESH_177_F0
 10
-172.8443
 20
-19.8
 30
533.0712
 70
192
 0
VERTEX
 8
MESH_177_F0
 10
-178.1906
 20
-19.8
 30
516.9183
 70
192
 0
VERTEX
 8
MESH_177_F0
 10
-180
 20
-19.8
 30
500
 70
192
 0
VERTEX
 8
MESH_177_F0
 10
-180
 20
0
 30
500
 70
192
 0
VERTEX
 8
MESH_177_F0
 10
-178.6971
 20
0
 30
514.3792
 70
192
 0
VERTEX
 8
MESH_177_F0
 10
-174.8309
 20
0
 30
528.29
 70
192
 0
VERTEX
 8
MESH_177_F0
 10
-168.5274
 20
0
 30
541.2794
 70
192
 0
VERTEX
 8
MESH_177_F0
 10
-159.9919
 20
0
 30
552.9243
 70
192
 0
VERTEX
 8
MESH_177_F0
 10
-157.7349
 20
0
 30
555.3776
 70
192
 0
VERTEX
 8
MESH_177_F0
 10
-155.3776
 20
0
 30
557.7349
 70
192
 0
VERTEX
 8
MESH_177_F0
 10
-152.9243
 20
0
 30
559.9919
 70
192
 0
VERTEX
 8
MESH_177_F0
 10
-141.2794
 20
0
 30
568.5274
 70
192
 0
VERTEX
 8
MESH_177_F0
 10
-128.29
 20
0
 30
574.8309
 70
192
 0
VERTEX
 8
MESH_177_F0
 10
-114.3792
 20
0
 30
578.6971
 70
192
 0
VERTEX
 8
MESH_177_F0
 10
-100
 20
0
 30
580
 70
192
 0
VERTEX
 8
MESH_177_F0
 10
-100
 20
-20
 30
580
 70
192
 0
VERTEX
 8
MESH_177_F0
 10
-113.4126
 20
-20
 30
578.8676
 70
192
 0
VERTEX
 8
MESH_177_F0
 10
-126.4456
 20
-20
 30
575.5025
 70
192
 0
VERTEX
 8
MESH_177_F0
 10
-138.7298
 20
-20
 30
570
 70
192
 0
VERTEX
 8
MESH_177_F0
 10
0
 20
0
 30
0
 70
128
 71
2
 72
14
 73
13
 74
13
 0
VERTEX
 8
MESH_177_F0
 10
0
 20
0
 30
0
 70
128
 71
3
 72
2
 73
12
 74
12
 0
VERTEX
 8
MESH_177_F0
 10
0
 20
0
 30
0
 70
128
 71
10
 72
3
 73
11
 74
11
 0
VERTEX
 8
MESH_177_F0
 10
0
 20
0
 30
0
 70
128
 71
3
 72
12
 73
11
 74
11
 0
VERTEX
 8
MESH_177_F0
 10
0
 20
0
 30
0
 70
128
 71
10
 72
4
 73
3
 74
3
 0
VERTEX
 8
MESH_177_F0
 10
0
 20
0
 30
0
 70
128
 71
9
 72
4
 73
10
 74
10
 0
VERTEX
 8
MESH_177_F0
 10
0
 20
0
 30
0
 70
128
 71
5
 72
4
 73
9
 74
9
 0
VERTEX
 8
MESH_177_F0
 10
0
 20
0
 30
0
 70
128
 71
6
 72
5
 73
8
 74
8
 0
VERTEX
 8
MESH_177_F0
 10
0
 20
0
 30
0
 70
128
 71
6
 72
8
 73
7
 74
7
 0
VERTEX
 8
MESH_177_F0
 10
0
 20
0
 30
0
 70
128
 71
5
 72
9
 73
8
 74
8
 0
VERTEX
 8
MESH_177_F0
 10
0
 20
0
 30
0
 70
128
 71
2
 72
13
 73
12
 74
12
 0
VERTEX
 8
MESH_177_F0
 10
0
 20
0
 30
0
 70
128
 71
2
 72
15
 73
14
 74
14
 0
VERTEX
 8
MESH_177_F0
 10
0
 20
0
 30
0
 70
128
 71
1
 72
15
 73
2
 74
2
 0
VERTEX
 8
MESH_177_F0
 10
0
 20
0
 30
0
 70
128
 71
16
 72
15
 73
1
 74
1
 0
VERTEX
 8
MESH_177_F0
 10
0
 20
0
 30
0
 70
128
 71
17
 72
16
 73
21
 74
21
 0
VERTEX
 8
MESH_177_F0
 10
0
 20
0
 30
0
 70
128
 71
19
 72
17
 73
20
 74
20
 0
VERTEX
 8
MESH_177_F0
 10
0
 20
0
 30
0
 70
128
 71
17
 72
21
 73
20
 74
20
 0
VERTEX
 8
MESH_177_F0
 10
0
 20
0
 30
0
 70
128
 71
19
 72
18
 73
17
 74
17
 0
VERTEX
 8
MESH_177_F0
 10
0
 20
0
 30
0
 70
128
 71
21
 72
1
 73
22
 74
22
 0
VERTEX
 8
MESH_177_F0
 10
0
 20
0
 30
0
 70
128
 71
16
 72
1
 73
21
 74
21
 0
SEQEND
 0
POLYLINE
 8
MESH_176_F0
 66
1
 10
0.0
 20
0.0
 30
0.0
 70
64
 71
24
 72
22
 0
VERTEX
 8
MESH_176_F0
 10
-180
 20
-19.8
 30
500
 70
192
 0
VERTEX
 8
MESH_176_F0
 10
-178.1906
 20
-19.8
 30
516.9183
 70
192
 0
VERTEX
 8
MESH_176_F0
 10
-172.8443
 20
-19.8
 30
533.0712
 70
192
 0
VERTEX
 8
MESH_176_F0
 10
-164.2029
 20
-19.8
 30
547.7282
 70
192
 0
VERTEX
 8
MESH_176_F0
 10
-152.6573
 20
-19.8
 30
560.2263
 70
192
 0
VERTEX
 8
MESH_176_F0
 10
-138.7298
 20
-19.8
 30
570
 70
192
 0
VERTEX
 8
MESH_176_F0
 10
138.7298
 20
-19.8
 30
570
 70
192
 0
VERTEX
 8
MESH_176_F0
 10
152.6573
 20
-19.8
 30
560.2263
 70
192
 0
VERTEX
 8
MESH_176_F0
 10
164.2029
 20
-19.8
 30
547.7282
 70
192
 0
VERTEX
 8
MESH_176_F0
 10
172.8443
 20
-19.8
 30
533.0712
 70
192
 0
VERTEX
 8
MESH_176_F0
 10
178.1906
 20
-19.8
 30
516.9183
 70
192
 0
VERTEX
 8
MESH_176_F0
 10
180
 20
-19.8
 30
500
 70
192
 0
VERTEX
 8
MESH_176_F0
 10
180
 20
-19.8
 30
200
 70
192
 0
VERTEX
 8
MESH_176_F0
 10
178.1906
 20
-19.8
 30
183.0817
 70
192
 0
VERTEX
 8
MESH_176_F0
 10
172.8443
 20
-19.8
 30
166.9288
 70
192
 0
VERTEX
 8
MESH_176_F0
 10
164.2029
 20
-19.8
 30
152.2718
 70
192
 0
VERTEX
 8
MESH_176_F0
 10
152.6573
 20
-19.8
 30
139.7737
 70
192
 0
VERTEX
 8
MESH_176_F0
 10
138.7298
 20
-19.8
 30
130
 70
192
 0
VERTEX
 8
MESH_176_F0
 10
-138.7298
 20
-19.8
 30
130
 70
192
 0
VERTEX
 8
MESH_176_F0
 10
-152.6573
 20
-19.8
 30
139.7737
 70
192
 0
VERTEX
 8
MESH_176_F0
 10
-164.2029
 20
-19.8
 30
152.2718
 70
192
 0
VERTEX
 8
MESH_176_F0
 10
-172.8443
 20
-19.8
 30
166.9288
 70
192
 0
VERTEX
 8
MESH_176_F0
 10
-178.1906
 20
-19.8
 30
183.0817
 70
192
 0
VERTEX
 8
MESH_176_F0
 10
-180
 20
-19.8
 30
200
 70
192
 0
VERTEX
 8
MESH_176_F0
 10
0
 20
0
 30
0
 70
128
 71
1
 72
3
 73
2
 74
2
 0
VERTEX
 8
MESH_176_F0
 10
0
 20
0
 30
0
 70
128
 71
4
 72
3
 73
1
 74
1
 0
VERTEX
 8
MESH_176_F0
 10
0
 20
0
 30
0
 70
128
 71
4
 72
1
 73
5
 74
5
 0
VERTEX
 8
MESH_176_F0
 10
0
 20
0
 30
0
 70
128
 71
1
 72
6
 73
5
 74
5
 0
VERTEX
 8
MESH_176_F0
 10
0
 20
0
 30
0
 70
128
 71
12
 72
6
 73
1
 74
1
 0
VERTEX
 8
MESH_176_F0
 10
0
 20
0
 30
0
 70
128
 71
12
 72
1
 73
13
 74
13
 0
VERTEX
 8
MESH_176_F0
 10
0
 20
0
 30
0
 70
128
 71
1
 72
24
 73
13
 74
13
 0
VERTEX
 8
MESH_176_F0
 10
0
 20
0
 30
0
 70
128
 71
24
 72
23
 73
13
 74
13
 0
VERTEX
 8
MESH_176_F0
 10
0
 20
0
 30
0
 70
128
 71
23
 72
19
 73
13
 74
13
 0
VERTEX
 8
MESH_176_F0
 10
0
 20
0
 30
0
 70
128
 71
19
 72
18
 73
13
 74
13
 0
VERTEX
 8
MESH_176_F0
 10
0
 20
0
 30
0
 70
128
 71
18
 72
17
 73
13
 74
13
 0
VERTEX
 8
MESH_176_F0
 10
0
 20
0
 30
0
 70
128
 71
17
 72
16
 73
13
 74
13
 0
VERTEX
 8
MESH_176_F0
 10
0
 20
0
 30
0
 70
128
 71
16
 72
15
 73
13
 74
13
 0
VERTEX
 8
MESH_176_F0
 10
0
 20
0
 30
0
 70
128
 71
15
 72
14
 73
13
 74
13
 0
VERTEX
 8
MESH_176_F0
 10
0
 20
0
 30
0
 70
128
 71
12
 72
7
 73
6
 74
6
 0
VERTEX
 8
MESH_176_F0
 10
0
 20
0
 30
0
 70
128
 71
8
 72
7
 73
12
 74
12
 0
VERTEX
 8
MESH_176_F0
 10
0
 20
0
 30
0
 70
128
 71
8
 72
12
 73
9
 74
9
 0
VERTEX
 8
MESH_176_F0
 10
0
 20
0
 30
0
 70
128
 71
12
 72
10
 73
9
 74
9
 0
VERTEX
 8
MESH_176_F0
 10
0
 20
0
 30
0
 70
128
 71
11
 72
10
 73
12
 74
12
 0
VERTEX
 8
MESH_176_F0
 10
0
 20
0
 30
0
 70
128
 71
23
 72
20
 73
19
 74
19
 0
VERTEX
 8
MESH_176_F0
 10
0
 20
0
 30
0
 70
128
 71
21
 72
20
 73
23
 74
23
 0
VERTEX
 8
MESH_176_F0
 10
0
 20
0
 30
0
 70
128
 71
21
 72
23
 73
22
 74
22
 0
SEQEND
 0
POLYLINE
 8
MESH_175_F0
 66
1
 10
0.0
 20
0.0
 30
0.0
 70
64
 71
4
 72
2
 0
VERTEX
 8
MESH_175_F0
 10
-138.7298
 20
-19.8
 30
130
 70
192
 0
VERTEX
 8
MESH_175_F0
 10
138.7298
 20
-19.8
 30
130
 70
192
 0
VERTEX
 8
MESH_175_F0
 10
138.7298
 20
-20
 30
130
 70
192
 0
VERTEX
 8
MESH_175_F0
 10
-138.7298
 20
-20
 30
130
 70
192
 0
VERTEX
 8
MESH_175_F0
 10
0
 20
0
 30
0
 70
128
 71
1
 72
3
 73
2
 74
2
 0
VERTEX
 8
MESH_175_F0
 10
0
 20
0
 30
0
 70
128
 71
4
 72
3
 73
1
 74
1
 0
SEQEND
 0
POLYLINE
 8
MESH_174_F0
 66
1
 10
0.0
 20
0.0
 30
0.0
 70
64
 71
8
 72
6
 0
VERTEX
 8
MESH_174_F0
 10
-100
 20
-20
 30
120
 70
192
 0
VERTEX
 8
MESH_174_F0
 10
-113.4126
 20
-20
 30
121.1324
 70
192
 0
VERTEX
 8
MESH_174_F0
 10
-126.4456
 20
-20
 30
124.4975
 70
192
 0
VERTEX
 8
MESH_174_F0
 10
-138.7298
 20
-20
 30
130
 70
192
 0
VERTEX
 8
MESH_174_F0
 10
138.7298
 20
-20
 30
130
 70
192
 0
VERTEX
 8
MESH_174_F0
 10
126.4456
 20
-20
 30
124.4975
 70
192
 0
VERTEX
 8
MESH_174_F0
 10
113.4126
 20
-20
 30
121.1324
 70
192
 0
VERTEX
 8
MESH_174_F0
 10
100
 20
-20
 30
120
 70
192
 0
VERTEX
 8
MESH_174_F0
 10
0
 20
0
 30
0
 70
128
 71
7
 72
1
 73
8
 74
8
 0
VERTEX
 8
MESH_174_F0
 10
0
 20
0
 30
0
 70
128
 71
2
 72
1
 73
7
 74
7
 0
VERTEX
 8
MESH_174_F0
 10
0
 20
0
 30
0
 70
128
 71
3
 72
2
 73
6
 74
6
 0
VERTEX
 8
MESH_174_F0
 10
0
 20
0
 30
0
 70
128
 71
4
 72
3
 73
5
 74
5
 0
VERTEX
 8
MESH_174_F0
 10
0
 20
0
 30
0
 70
128
 71
3
 72
6
 73
5
 74
5
 0
VERTEX
 8
MESH_174_F0
 10
0
 20
0
 30
0
 70
128
 71
2
 72
7
 73
6
 74
6
 0
SEQEND
 0
POLYLINE
 8
MESH_173_F0
 66
1
 10
0.0
 20
0.0
 30
0.0
 70
64
 71
22
 72
20
 0
VERTEX
 8
MESH_173_F0
 10
-138.7298
 20
-20
 30
130
 70
192
 0
VERTEX
 8
MESH_173_F0
 10
-126.4456
 20
-20
 30
124.4975
 70
192
 0
VERTEX
 8
MESH_173_F0
 10
-113.4126
 20
-20
 30
121.1324
 70
192
 0
VERTEX
 8
MESH_173_F0
 10
-100
 20
-20
 30
120
 70
192
 0
VERTEX
 8
MESH_173_F0
 10
-100
 20
0
 30
120
 70
192
 0
VERTEX
 8
MESH_173_F0
 10
-114.3792
 20
0
 30
121.3029
 70
192
 0
VERTEX
 8
MESH_173_F0
 10
-128.29
 20
0
 30
125.1691
 70
192
 0
VERTEX
 8
MESH_173_F0
 10
-141.2794
 20
0
 30
131.4726
 70
192
 0
VERTEX
 8
MESH_173_F0
 10
-152.9243
 20
0
 30
140.0081
 70
192
 0
VERTEX
 8
MESH_173_F0
 10
-155.3776
 20
0
 30
142.2651
 70
192
 0
VERTEX
 8
MESH_173_F0
 10
-157.7349
 20
0
 30
144.6223
 70
192
 0
VERTEX
 8
MESH_173_F0
 10
-159.9919
 20
0
 30
147.0757
 70
192
 0
VERTEX
 8
MESH_173_F0
 10
-168.5274
 20
0
 30
158.7206
 70
192
 0
VERTEX
 8
MESH_173_F0
 10
-174.8309
 20
0
 30
171.71
 70
192
 0
VERTEX
 8
MESH_173_F0
 10
-178.6971
 20
0
 30
185.6208
 70
192
 0
VERTEX
 8
MESH_173_F0
 10
-180
 20
0
 30
200
 70
192
 0
VERTEX
 8
MESH_173_F0
 10
-180
 20
-19.8
 30
200
 70
192
 0
VERTEX
 8
MESH_173_F0
 10
-178.1906
 20
-19.8
 30
183.0817
 70
192
 0
VERTEX
 8
MESH_173_F0
 10
-172.8443
 20
-19.8
 30
166.9288
 70
192
 0
VERTEX
 8
MESH_173_F0
 10
-164.2029
 20
-19.8
 30
152.2718
 70
192
 0
VERTEX
 8
MESH_173_F0
 10
-152.6573
 20
-19.8
 30
139.7737
 70
192
 0
VERTEX
 8
MESH_173_F0
 10
-138.7298
 20
-19.8
 30
130
 70
192
 0
VERTEX
 8
MESH_173_F0
 10
0
 20
0
 30
0
 70
128
 71
22
 72
2
 73
1
 74
1
 0
VERTEX
 8
MESH_173_F0
 10
0
 20
0
 30
0
 70
128
 71
7
 72
2
 73
22
 74
22
 0
VERTEX
 8
MESH_173_F0
 10
0
 20
0
 30
0
 70
128
 71
7
 72
22
 73
8
 74
8
 0
VERTEX
 8
MESH_173_F0
 10
0
 20
0
 30
0
 70
128
 71
22
 72
21
 73
8
 74
8
 0
VERTEX
 8
MESH_173_F0
 10
0
 20
0
 30
0
 70
128
 71
21
 72
9
 73
8
 74
8
 0
VERTEX
 8
MESH_173_F0
 10
0
 20
0
 30
0
 70
128
 71
10
 72
9
 73
21
 74
21
 0
VERTEX
 8
MESH_173_F0
 10
0
 20
0
 30
0
 70
128
 71
10
 72
21
 73
11
 74
11
 0
VERTEX
 8
MESH_173_F0
 10
0
 20
0
 30
0
 70
128
 71
21
 72
12
 73
11
 74
11
 0
VERTEX
 8
MESH_173_F0
 10
0
 20
0
 30
0
 70
128
 71
20
 72
12
 73
21
 74
21
 0
VERTEX
 8
MESH_173_F0
 10
0
 20
0
 30
0
 70
128
 71
13
 72
12
 73
20
 74
20
 0
VERTEX
 8
MESH_173_F0
 10
0
 20
0
 30
0
 70
128
 71
14
 72
13
 73
19
 74
19
 0
VERTEX
 8
MESH_173_F0
 10
0
 20
0
 30
0
 70
128
 71
15
 72
14
 73
18
 74
18
 0
VERTEX
 8
MESH_173_F0
 10
0
 20
0
 30
0
 70
128
 71
16
 72
15
 73
17
 74
17
 0
VERTEX
 8
MESH_173_F0
 10
0
 20
0
 30
0
 70
128
 71
15
 72
18
 73
17
 74
17
 0
VERTEX
 8
MESH_173_F0
 10
0
 20
0
 30
0
 70
128
 71
6
 72
2
 73
7
 74
7
 0
VERTEX
 8
MESH_173_F0
 10
0
 20
0
 30
0
 70
128
 71
3
 72
2
 73
6
 74
6
 0
VERTEX
 8
MESH_173_F0
 10
0
 20
0
 30
0
 70
128
 71
4
 72
3
 73
5
 74
5
 0
VERTEX
 8
MESH_173_F0
 10
0
 20
0
 30
0
 70
128
 71
3
 72
6
 73
5
 74
5
 0
VERTEX
 8
MESH_173_F0
 10
0
 20
0
 30
0
 70
128
 71
14
 72
19
 73
18
 74
18
 0
VERTEX
 8
MESH_173_F0
 10
0
 20
0
 30
0
 70
128
 71
13
 72
20
 73
19
 74
19
 0
SEQEND
 0
POLYLINE
 8
MESH_172_F0
 66
1
 10
0.0
 20
0.0
 30
0.0
 70
64
 71
4
 72
2
 0
VERTEX
 8
MESH_172_F0
 10
-180
 20
-19.8
 30
200
 70
192
 0
VERTEX
 8
MESH_172_F0
 10
-180
 20
0
 30
200
 70
192
 0
VERTEX
 8
MESH_172_F0
 10
-180
 20
0
 30
500
 70
192
 0
VERTEX
 8
MESH_172_F0
 10
-180
 20
-19.8
 30
500
 70
192
 0
VERTEX
 8
MESH_172_F0
 10
0
 20
0
 30
0
 70
128
 71
4
 72
2
 73
1
 74
1
 0
VERTEX
 8
MESH_172_F0
 10
0
 20
0
 30
0
 70
128
 71
3
 72
2
 73
4
 74
4
 0
SEQEND
 0
POLYLINE
 8
MESH_171_F0
 66
1
 10
0.0
 20
0.0
 30
0.0
 70
64
 71
113
 72
113
 0
VERTEX
 8
MESH_171_F0
 10
-180
 20
0
 30
500
 70
192
 0
VERTEX
 8
MESH_171_F0
 10
-180
 20
0
 30
200
 70
192
 0
VERTEX
 8
MESH_171_F0
 10
-178.6971
 20
0
 30
185.6208
 70
192
 0
VERTEX
 8
MESH_171_F0
 10
-174.8309
 20
0
 30
171.71
 70
192
 0
VERTEX
 8
MESH_171_F0
 10
-168.5274
 20
0
 30
158.7206
 70
192
 0
VERTEX
 8
MESH_171_F0
 10
-159.9919
 20
0
 30
147.0757
 70
192
 0
VERTEX
 8
MESH_171_F0
 10
-157.7349
 20
0
 30
144.6223
 70
192
 0
VERTEX
 8
MESH_171_F0
 10
-155.3776
 20
0
 30
142.2651
 70
192
 0
VERTEX
 8
MESH_171_F0
 10
-152.9243
 20
0
 30
140.0081
 70
192
 0
VERTEX
 8
MESH_171_F0
 10
-141.2794
 20
0
 30
131.4726
 70
192
 0
VERTEX
 8
MESH_171_F0
 10
-128.29
 20
0
 30
125.1691
 70
192
 0
VERTEX
 8
MESH_171_F0
 10
-114.3792
 20
0
 30
121.3029
 70
192
 0
VERTEX
 8
MESH_171_F0
 10
-100
 20
0
 30
120
 70
192
 0
VERTEX
 8
MESH_171_F0
 10
100
 20
0
 30
120
 70
192
 0
VERTEX
 8
MESH_171_F0
 10
115.6074
 20
0
 30
121.5373
 70
192
 0
VERTEX
 8
MESH_171_F0
 10
130.6147
 20
0
 30
126.0897
 70
192
 0
VERTEX
 8
MESH_171_F0
 10
144.4456
 20
0
 30
133.4825
 70
192
 0
VERTEX
 8
MESH_171_F0
 10
156.5685
 20
0
 30
143.4315
 70
192
 0
VERTEX
 8
MESH_171_F0
 10
166.5175
 20
0
 30
155.5543
 70
192
 0
VERTEX
 8
MESH_171_F0
 10
173.9103
 20
0
 30
169.3853
 70
192
 0
VERTEX
 8
MESH_171_F0
 10
178.4627
 20
0
 30
184.3926
 70
192
 0
VERTEX
 8
MESH_171_F0
 10
180
 20
0
 30
200
 70
192
 0
VERTEX
 8
MESH_171_F0
 10
180
 20
0
 30
500
 70
192
 0
VERTEX
 8
MESH_171_F0
 10
178.6971
 20
0
 30
514.3792
 70
192
 0
VERTEX
 8
MESH_171_F0
 10
174.8309
 20
0
 30
528.29
 70
192
 0
VERTEX
 8
MESH_171_F0
 10
168.5274
 20
0
 30
541.2794
 70
192
 0
VERTEX
 8
MESH_171_F0
 10
159.9919
 20
0
 30
552.9243
 70
192
 0
VERTEX
 8
MESH_171_F0
 10
157.7349
 20
0
 30
555.3776
 70
192
 0
VERTEX
 8
MESH_171_F0
 10
155.3776
 20
0
 30
557.7349
 70
192
 0
VERTEX
 8
MESH_171_F0
 10
152.9243
 20
0
 30
559.9919
 70
192
 0
VERTEX
 8
MESH_171_F0
 10
141.2794
 20
0
 30
568.5274
 70
192
 0
VERTEX
 8
MESH_171_F0
 10
128.29
 20
0
 30
574.8309
 70
192
 0
VERTEX
 8
MESH_171_F0
 10
114.3792
 20
0
 30
578.6971
 70
192
 0
VERTEX
 8
MESH_171_F0
 10
100
 20
0
 30
580
 70
192
 0
VERTEX
 8
MESH_171_F0
 10
-100
 20
0
 30
580
 70
192
 0
VERTEX
 8
MESH_171_F0
 10
-114.3792
 20
0
 30
578.6971
 70
192
 0
VERTEX
 8
MESH_171_F0
 10
-128.29
 20
0
 30
574.8309
 70
192
 0
VERTEX
 8
MESH_171_F0
 10
-141.2794
 20
0
 30
568.5274
 70
192
 0
VERTEX
 8
MESH_171_F0
 10
-152.9243
 20
0
 30
559.9919
 70
192
 0
VERTEX
 8
MESH_171_F0
 10
-155.3776
 20
0
 30
557.7349
 70
192
 0
VERTEX
 8
MESH_171_F0
 10
-157.7349
 20
0
 30
555.3776
 70
192
 0
VERTEX
 8
MESH_171_F0
 10
-159.9919
 20
0
 30
552.9243
 70
192
 0
VERTEX
 8
MESH_171_F0
 10
-168.5274
 20
0
 30
541.2794
 70
192
 0
VERTEX
 8
MESH_171_F0
 10
-174.8309
 20
0
 30
528.29
 70
192
 0
VERTEX
 8
MESH_171_F0
 10
-178.6971
 20
0
 30
514.3792
 70
192
 0
VERTEX
 8
MESH_171_F0
 10
-100
 20
0
 30
700
 70
192
 0
VERTEX
 8
MESH_171_F0
 10
100
 20
0
 30
700
 70
192
 0
VERTEX
 8
MESH_171_F0
 10
119.6242
 20
0
 30
699.0345
 70
192
 0
VERTEX
 8
MESH_171_F0
 10
139.0093
 20
0
 30
696.1578
 70
192
 0
VERTEX
 8
MESH_171_F0
 10
158.0577
 20
0
 30
691.3879
 70
192
 0
VERTEX
 8
MESH_171_F0
 10
176.5379
 20
0
 30
684.7756
 70
192
 0
VERTEX
 8
MESH_171_F0
 10
194.2786
 20
0
 30
676.384
 70
192
 0
VERTEX
 8
MESH_171_F0
 10
211.1141
 20
0
 30
666.2938
 70
192
 0
VERTEX
 8
MESH_171_F0
 10
226.8786
 20
0
 30
654.6019
 70
192
 0
VERTEX
 8
MESH_171_F0
 10
241.4211
 20
0
 30
641.4211
 70
192
 0
VERTEX
 8
MESH_171_F0
 10
254.6019
 20
0
 30
626.8787
 70
192
 0
VERTEX
 8
MESH_171_F0
 10
266.2938
 20
0
 30
611.1141
 70
192
 0
VERTEX
 8
MESH_171_F0
 10
276.384
 20
0
 30
594.2786
 70
192
 0
VERTEX
 8
MESH_171_F0
 10
284.7756
 20
0
 30
576.5378
 70
192
 0
VERTEX
 8
MESH_171_F0
 10
291.3879
 20
0
 30
558.0577
 70
192
 0
VERTEX
 8
MESH_171_F0
 10
296.1578
 20
0
 30
539.0092
 70
192
 0
VERTEX
 8
MESH_171_F0
 10
299.0345
 20
0
 30
519.6241
 70
192
 0
VERTEX
 8
MESH_171_F0
 10
300
 20
0
 30
500
 70
192
 0
VERTEX
 8
MESH_171_F0
 10
300
 20
0
 30
200
 70
192
 0
VERTEX
 8
MESH_171_F0
 10
299.0345
 20
0
 30
180.3758
 70
192
 0
VERTEX
 8
MESH_171_F0
 10
296.1578
 20
0
 30
160.9907
 70
192
 0
VERTEX
 8
MESH_171_F0
 10
291.3879
 20
0
 30
141.9423
 70
192
 0
VERTEX
 8
MESH_171_F0
 10
284.7756
 20
0
 30
123.4621
 70
192
 0
VERTEX
 8
MESH_171_F0
 10
276.384
 20
0
 30
105.7214
 70
192
 0
VERTEX
 8
MESH_171_F0
 10
266.2938
 20
0
 30
88.8859
 70
192
 0
VERTEX
 8
MESH_171_F0
 10
254.6019
 20
0
 30
73.1214
 70
192
 0
VERTEX
 8
MESH_171_F0
 10
241.4211
 20
0
 30
58.5789
 70
192
 0
VERTEX
 8
MESH_171_F0
 10
226.8786
 20
0
 30
45.3981
 70
192
 0
VERTEX
 8
MESH_171_F0
 10
211.1141
 20
0
 30
33.7062
 70
192
 0
VERTEX
 8
MESH_171_F0
 10
194.2786
 20
0
 30
23.616
 70
192
 0
VERTEX
 8
MESH_171_F0
 10
176.5379
 20
0
 30
15.2244
 70
192
 0
VERTEX
 8
MESH_171_F0
 10
158.0577
 20
0
 30
8.6121
 70
192
 0
VERTEX
 8
MESH_171_F0
 10
139.0093
 20
0
 30
3.8422
 70
192
 0
VERTEX
 8
MESH_171_F0
 10
119.6242
 20
0
 30
0.9655
 70
192
 0
VERTEX
 8
MESH_171_F0
 10
100
 20
0
 30
0
 70
192
 0
VERTEX
 8
MESH_171_F0
 10
-100
 20
0
 30
0
 70
192
 0
VERTEX
 8
MESH_171_F0
 10
-119.6242
 20
0
 30
0.9655
 70
192
 0
VERTEX
 8
MESH_171_F0
 10
-139.0093
 20
0
 30
3.8422
 70
192
 0
VERTEX
 8
MESH_171_F0
 10
-158.0577
 20
0
 30
8.6121
 70
192
 0
VERTEX
 8
MESH_171_F0
 10
-176.5379
 20
0
 30
15.2244
 70
192
 0
VERTEX
 8
MESH_171_F0
 10
-194.2786
 20
0
 30
23.616
 70
192
 0
VERTEX
 8
MESH_171_F0
 10
-211.1141
 20
0
 30
33.7062
 70
192
 0
VERTEX
 8
MESH_171_F0
 10
-226.8786
 20
0
 30
45.3981
 70
192
 0
VERTEX
 8
MESH_171_F0
 10
-241.4211
 20
0
 30
58.5789
 70
192
 0
VERTEX
 8
MESH_171_F0
 10
-254.6019
 20
0
 30
73.1214
 70
192
 0
VERTEX
 8
MESH_171_F0
 10
-266.2938
 20
0
 30
88.8859
 70
192
 0
VERTEX
 8
MESH_171_F0
 10
-276.384
 20
0
 30
105.7214
 70
192
 0
VERTEX
 8
MESH_171_F0
 10
-284.7756
 20
0
 30
123.4621
 70
192
 0
VERTEX
 8
MESH_171_F0
 10
-291.3879
 20
0
 30
141.9423
 70
192
 0
VERTEX
 8
MESH_171_F0
 10
-296.1578
 20
0
 30
160.9907
 70
192
 0
VERTEX
 8
MESH_171_F0
 10
-299.0345
 20
0
 30
180.3758
 70
192
 0
VERTEX
 8
MESH_171_F0
 10
-300
 20
0
 30
200
 70
192
 0
VERTEX
 8
MESH_171_F0
 10
-300
 20
0
 30
500
 70
192
 0
VERTEX
 8
MESH_171_F0
 10
-299.0345
 20
0
 30
519.6241
 70
192
 0
VERTEX
 8
MESH_171_F0
 10
-296.1578
 20
0
 30
539.0093
 70
192
 0
VERTEX
 8
MESH_171_F0
 10
-291.3879
 20
0
 30
558.0577
 70
192
 0
VERTEX
 8
MESH_171_F0
 10
-284.7756
 20
0
 30
576.5378
 70
192
 0
VERTEX
 8
MESH_171_F0
 10
-276.384
 20
0
 30
594.2786
 70
192
 0
VERTEX
 8
MESH_171_F0
 10
-266.2938
 20
0
 30
611.1141
 70
192
 0
VERTEX
 8
MESH_171_F0
 10
-254.6019
 20
0
 30
626.8787
 70
192
 0
VERTEX
 8
MESH_171_F0
 10
-241.4211
 20
0
 30
641.4211
 70
192
 0
VERTEX
 8
MESH_171_F0
 10
-226.8786
 20
0
 30
654.6019
 70
192
 0
VERTEX
 8
MESH_171_F0
 10
-211.1141
 20
0
 30
666.2938
 70
192
 0
VERTEX
 8
MESH_171_F0
 10
-194.2786
 20
0
 30
676.384
 70
192
 0
VERTEX
 8
MESH_171_F0
 10
-176.5379
 20
0
 30
684.7756
 70
192
 0
VERTEX
 8
MESH_171_F0
 10
-158.0577
 20
0
 30
691.3879
 70
192
 0
VERTEX
 8
MESH_171_F0
 10
-139.0093
 20
0
 30
696.1578
 70
192
 0
VERTEX
 8
MESH_171_F0
 10
-119.6242
 20
0
 30
699.0345
 70
192
 0
VERTEX
 8
MESH_171_F0
 10
0
 20
0
 30
0
 70
128
 71
4
 72
94
 73
93
 74
93
 0
VERTEX
 8
MESH_171_F0
 10
0
 20
0
 30
0
 70
128
 71
4
 72
93
 73
5
 74
5
 0
VERTEX
 8
MESH_171_F0
 10
0
 20
0
 30
0
 70
128
 71
93
 72
6
 73
5
 74
5
 0
VERTEX
 8
MESH_171_F0
 10
0
 20
0
 30
0
 70
128
 71
7
 72
6
 73
93
 74
93
 0
VERTEX
 8
MESH_171_F0
 10
0
 20
0
 30
0
 70
128
 71
7
 72
93
 73
8
 74
8
 0
VERTEX
 8
MESH_171_F0
 10
0
 20
0
 30
0
 70
128
 71
93
 72
9
 73
8
 74
8
 0
VERTEX
 8
MESH_171_F0
 10
0
 20
0
 30
0
 70
128
 71
10
 72
9
 73
93
 74
93
 0
VERTEX
 8
MESH_171_F0
 10
0
 20
0
 30
0
 70
128
 71
10
 72
93
 73
11
 74
11
 0
VERTEX
 8
MESH_171_F0
 10
0
 20
0
 30
0
 70
128
 71
93
 72
12
 73
11
 74
11
 0
VERTEX
 8
MESH_171_F0
 10
0
 20
0
 30
0
 70
128
 71
92
 72
12
 73
93
 74
93
 0
VERTEX
 8
MESH_171_F0
 10
0
 20
0
 30
0
 70
128
 71
13
 72
12
 73
92
 74
92
 0
VERTEX
 8
MESH_171_F0
 10
0
 20
0
 30
0
 70
128
 71
13
 72
92
 73
14
 74
14
 0
VERTEX
 8
MESH_171_F0
 10
0
 20
0
 30
0
 70
128
 71
92
 72
91
 73
14
 74
14
 0
VERTEX
 8
MESH_171_F0
 10
0
 20
0
 30
0
 70
128
 71
91
 72
90
 73
14
 74
14
 0
VERTEX
 8
MESH_171_F0
 10
0
 20
0
 30
0
 70
128
 71
90
 72
89
 73
14
 74
14
 0
VERTEX
 8
MESH_171_F0
 10
0
 20
0
 30
0
 70
128
 71
89
 72
88
 73
14
 74
14
 0
VERTEX
 8
MESH_171_F0
 10
0
 20
0
 30
0
 70
128
 71
88
 72
87
 73
14
 74
14
 0
VERTEX
 8
MESH_171_F0
 10
0
 20
0
 30
0
 70
128
 71
87
 72
86
 73
14
 74
14
 0
VERTEX
 8
MESH_171_F0
 10
0
 20
0
 30
0
 70
128
 71
86
 72
85
 73
14
 74
14
 0
VERTEX
 8
MESH_171_F0
 10
0
 20
0
 30
0
 70
128
 71
85
 72
84
 73
14
 74
14
 0
VERTEX
 8
MESH_171_F0
 10
0
 20
0
 30
0
 70
128
 71
84
 72
83
 73
14
 74
14
 0
VERTEX
 8
MESH_171_F0
 10
0
 20
0
 30
0
 70
128
 71
83
 72
82
 73
14
 74
14
 0
VERTEX
 8
MESH_171_F0
 10
0
 20
0
 30
0
 70
128
 71
82
 72
81
 73
14
 74
14
 0
VERTEX
 8
MESH_171_F0
 10
0
 20
0
 30
0
 70
128
 71
81
 72
80
 73
14
 74
14
 0
VERTEX
 8
MESH_171_F0
 10
0
 20
0
 30
0
 70
128
 71
80
 72
79
 73
14
 74
14
 0
VERTEX
 8
MESH_171_F0
 10
0
 20
0
 30
0
 70
128
 71
79
 72
78
 73
14
 74
14
 0
VERTEX
 8
MESH_171_F0
 10
0
 20
0
 30
0
 70
128
 71
78
 72
15
 73
14
 74
14
 0
VERTEX
 8
MESH_171_F0
 10
0
 20
0
 30
0
 70
128
 71
77
 72
15
 73
78
 74
78
 0
VERTEX
 8
MESH_171_F0
 10
0
 20
0
 30
0
 70
128
 71
16
 72
15
 73
77
 74
77
 0
VERTEX
 8
MESH_171_F0
 10
0
 20
0
 30
0
 70
128
 71
75
 72
16
 73
76
 74
76
 0
VERTEX
 8
MESH_171_F0
 10
0
 20
0
 30
0
 70
128
 71
16
 72
77
 73
76
 74
76
 0
VERTEX
 8
MESH_171_F0
 10
0
 20
0
 30
0
 70
128
 71
3
 72
95
 73
4
 74
4
 0
VERTEX
 8
MESH_171_F0
 10
0
 20
0
 30
0
 70
128
 71
95
 72
94
 73
4
 74
4
 0
VERTEX
 8
MESH_171_F0
 10
0
 20
0
 30
0
 70
128
 71
75
 72
17
 73
16
 74
16
 0
VERTEX
 8
MESH_171_F0
 10
0
 20
0
 30
0
 70
128
 71
74
 72
17
 73
75
 74
75
 0
VERTEX
 8
MESH_171_F0
 10
0
 20
0
 30
0
 70
128
 71
73
 72
17
 73
74
 74
74
 0
VERTEX
 8
MESH_171_F0
 10
0
 20
0
 30
0
 70
128
 71
18
 72
17
 73
73
 74
73
 0
VERTEX
 8
MESH_171_F0
 10
0
 20
0
 30
0
 70
128
 71
71
 72
18
 73
72
 74
72
 0
VERTEX
 8
MESH_171_F0
 10
0
 20
0
 30
0
 70
128
 71
18
 72
73
 73
72
 74
72
 0
VERTEX
 8
MESH_171_F0
 10
0
 20
0
 30
0
 70
128
 71
71
 72
19
 73
18
 74
18
 0
VERTEX
 8
MESH_171_F0
 10
0
 20
0
 30
0
 70
128
 71
70
 72
19
 73
71
 74
71
 0
VERTEX
 8
MESH_171_F0
 10
0
 20
0
 30
0
 70
128
 71
69
 72
19
 73
70
 74
70
 0
VERTEX
 8
MESH_171_F0
 10
0
 20
0
 30
0
 70
128
 71
20
 72
19
 73
69
 74
69
 0
VERTEX
 8
MESH_171_F0
 10
0
 20
0
 30
0
 70
128
 71
67
 72
20
 73
68
 74
68
 0
VERTEX
 8
MESH_171_F0
 10
0
 20
0
 30
0
 70
128
 71
20
 72
69
 73
68
 74
68
 0
VERTEX
 8
MESH_171_F0
 10
0
 20
0
 30
0
 70
128
 71
66
 72
20
 73
67
 74
67
 0
VERTEX
 8
MESH_171_F0
 10
0
 20
0
 30
0
 70
128
 71
21
 72
20
 73
66
 74
66
 0
VERTEX
 8
MESH_171_F0
 10
0
 20
0
 30
0
 70
128
 71
64
 72
21
 73
65
 74
65
 0
VERTEX
 8
MESH_171_F0
 10
0
 20
0
 30
0
 70
128
 71
21
 72
66
 73
65
 74
65
 0
VERTEX
 8
MESH_171_F0
 10
0
 20
0
 30
0
 70
128
 71
64
 72
22
 73
21
 74
21
 0
VERTEX
 8
MESH_171_F0
 10
0
 20
0
 30
0
 70
128
 71
63
 72
22
 73
64
 74
64
 0
VERTEX
 8
MESH_171_F0
 10
0
 20
0
 30
0
 70
128
 71
23
 72
22
 73
63
 74
63
 0
VERTEX
 8
MESH_171_F0
 10
0
 20
0
 30
0
 70
128
 71
23
 72
63
 73
24
 74
24
 0
VERTEX
 8
MESH_171_F0
 10
0
 20
0
 30
0
 70
128
 71
63
 72
62
 73
24
 74
24
 0
VERTEX
 8
MESH_171_F0
 10
0
 20
0
 30
0
 70
128
 71
62
 72
61
 73
24
 74
24
 0
VERTEX
 8
MESH_171_F0
 10
0
 20
0
 30
0
 70
128
 71
61
 72
25
 73
24
 74
24
 0
VERTEX
 8
MESH_171_F0
 10
0
 20
0
 30
0
 70
128
 71
60
 72
25
 73
61
 74
61
 0
VERTEX
 8
MESH_171_F0
 10
0
 20
0
 30
0
 70
128
 71
59
 72
25
 73
60
 74
60
 0
VERTEX
 8
MESH_171_F0
 10
0
 20
0
 30
0
 70
128
 71
26
 72
25
 73
59
 74
59
 0
VERTEX
 8
MESH_171_F0
 10
0
 20
0
 30
0
 70
128
 71
27
 72
26
 73
58
 74
58
 0
VERTEX
 8
MESH_171_F0
 10
0
 20
0
 30
0
 70
128
 71
27
 72
58
 73
28
 74
28
 0
VERTEX
 8
MESH_171_F0
 10
0
 20
0
 30
0
 70
128
 71
58
 72
29
 73
28
 74
28
 0
VERTEX
 8
MESH_171_F0
 10
0
 20
0
 30
0
 70
128
 71
30
 72
29
 73
58
 74
58
 0
VERTEX
 8
MESH_171_F0
 10
0
 20
0
 30
0
 70
128
 71
30
 72
58
 73
31
 74
31
 0
VERTEX
 8
MESH_171_F0
 10
0
 20
0
 30
0
 70
128
 71
58
 72
32
 73
31
 74
31
 0
VERTEX
 8
MESH_171_F0
 10
0
 20
0
 30
0
 70
128
 71
33
 72
32
 73
58
 74
58
 0
VERTEX
 8
MESH_171_F0
 10
0
 20
0
 30
0
 70
128
 71
33
 72
58
 73
34
 74
34
 0
VERTEX
 8
MESH_171_F0
 10
0
 20
0
 30
0
 70
128
 71
58
 72
35
 73
34
 74
34
 0
VERTEX
 8
MESH_171_F0
 10
0
 20
0
 30
0
 70
128
 71
47
 72
35
 73
58
 74
58
 0
VERTEX
 8
MESH_171_F0
 10
0
 20
0
 30
0
 70
128
 71
56
 72
47
 73
57
 74
57
 0
VERTEX
 8
MESH_171_F0
 10
0
 20
0
 30
0
 70
128
 71
47
 72
58
 73
57
 74
57
 0
VERTEX
 8
MESH_171_F0
 10
0
 20
0
 30
0
 70
128
 71
37
 72
110
 73
109
 74
109
 0
VERTEX
 8
MESH_171_F0
 10
0
 20
0
 30
0
 70
128
 71
37
 72
109
 73
38
 74
38
 0
VERTEX
 8
MESH_171_F0
 10
0
 20
0
 30
0
 70
128
 71
109
 72
108
 73
38
 74
38
 0
VERTEX
 8
MESH_171_F0
 10
0
 20
0
 30
0
 70
128
 71
108
 72
39
 73
38
 74
38
 0
VERTEX
 8
MESH_171_F0
 10
0
 20
0
 30
0
 70
128
 71
107
 72
39
 73
108
 74
108
 0
VERTEX
 8
MESH_171_F0
 10
0
 20
0
 30
0
 70
128
 71
106
 72
39
 73
107
 74
107
 0
VERTEX
 8
MESH_171_F0
 10
0
 20
0
 30
0
 70
128
 71
40
 72
39
 73
106
 74
106
 0
VERTEX
 8
MESH_171_F0
 10
0
 20
0
 30
0
 70
128
 71
40
 72
106
 73
41
 74
41
 0
VERTEX
 8
MESH_171_F0
 10
0
 20
0
 30
0
 70
128
 71
106
 72
42
 73
41
 74
41
 0
VERTEX
 8
MESH_171_F0
 10
0
 20
0
 30
0
 70
128
 71
105
 72
42
 73
106
 74
106
 0
VERTEX
 8
MESH_171_F0
 10
0
 20
0
 30
0
 70
128
 71
104
 72
42
 73
105
 74
105
 0
VERTEX
 8
MESH_171_F0
 10
0
 20
0
 30
0
 70
128
 71
43
 72
42
 73
104
 74
104
 0
VERTEX
 8
MESH_171_F0
 10
0
 20
0
 30
0
 70
128
 71
102
 72
43
 73
103
 74
103
 0
VERTEX
 8
MESH_171_F0
 10
0
 20
0
 30
0
 70
128
 71
43
 72
104
 73
103
 74
103
 0
VERTEX
 8
MESH_171_F0
 10
0
 20
0
 30
0
 70
128
 71
36
 72
111
 73
37
 74
37
 0
VERTEX
 8
MESH_171_F0
 10
0
 20
0
 30
0
 70
128
 71
111
 72
110
 73
37
 74
37
 0
VERTEX
 8
MESH_171_F0
 10
0
 20
0
 30
0
 70
128
 71
102
 72
44
 73
43
 74
43
 0
VERTEX
 8
MESH_171_F0
 10
0
 20
0
 30
0
 70
128
 71
101
 72
44
 73
102
 74
102
 0
VERTEX
 8
MESH_171_F0
 10
0
 20
0
 30
0
 70
128
 71
100
 72
44
 73
101
 74
101
 0
VERTEX
 8
MESH_171_F0
 10
0
 20
0
 30
0
 70
128
 71
45
 72
44
 73
100
 74
100
 0
VERTEX
 8
MESH_171_F0
 10
0
 20
0
 30
0
 70
128
 71
98
 72
45
 73
99
 74
99
 0
VERTEX
 8
MESH_171_F0
 10
0
 20
0
 30
0
 70
128
 71
45
 72
100
 73
99
 74
99
 0
VERTEX
 8
MESH_171_F0
 10
0
 20
0
 30
0
 70
128
 71
98
 72
1
 73
45
 74
45
 0
VERTEX
 8
MESH_171_F0
 10
0
 20
0
 30
0
 70
128
 71
97
 72
1
 73
98
 74
98
 0
VERTEX
 8
MESH_171_F0
 10
0
 20
0
 30
0
 70
128
 71
2
 72
1
 73
97
 74
97
 0
VERTEX
 8
MESH_171_F0
 10
0
 20
0
 30
0
 70
128
 71
3
 72
2
 73
96
 74
96
 0
VERTEX
 8
MESH_171_F0
 10
0
 20
0
 30
0
 70
128
 71
3
 72
96
 73
95
 74
95
 0
VERTEX
 8
MESH_171_F0
 10
0
 20
0
 30
0
 70
128
 71
35
 72
46
 73
113
 74
113
 0
VERTEX
 8
MESH_171_F0
 10
0
 20
0
 30
0
 70
128
 71
36
 72
35
 73
112
 74
112
 0
VERTEX
 8
MESH_171_F0
 10
0
 20
0
 30
0
 70
128
 71
36
 72
112
 73
111
 74
111
 0
VERTEX
 8
MESH_171_F0
 10
0
 20
0
 30
0
 70
128
 71
47
 72
49
 73
48
 74
48
 0
VERTEX
 8
MESH_171_F0
 10
0
 20
0
 30
0
 70
128
 71
50
 72
49
 73
47
 74
47
 0
VERTEX
 8
MESH_171_F0
 10
0
 20
0
 30
0
 70
128
 71
50
 72
47
 73
51
 74
51
 0
VERTEX
 8
MESH_171_F0
 10
0
 20
0
 30
0
 70
128
 71
47
 72
52
 73
51
 74
51
 0
VERTEX
 8
MESH_171_F0
 10
0
 20
0
 30
0
 70
128
 71
53
 72
52
 73
47
 74
47
 0
VERTEX
 8
MESH_171_F0
 10
0
 20
0
 30
0
 70
128
 71
53
 72
47
 73
54
 74
54
 0
VERTEX
 8
MESH_171_F0
 10
0
 20
0
 30
0
 70
128
 71
47
 72
55
 73
54
 74
54
 0
VERTEX
 8
MESH_171_F0
 10
0
 20
0
 30
0
 70
128
 71
56
 72
55
 73
47
 74
47
 0
VERTEX
 8
MESH_171_F0
 10
0
 20
0
 30
0
 70
128
 71
26
 72
59
 73
58
 74
58
 0
VERTEX
 8
MESH_171_F0
 10
0
 20
0
 30
0
 70
128
 71
2
 72
97
 73
96
 74
96
 0
VERTEX
 8
MESH_171_F0
 10
0
 20
0
 30
0
 70
128
 71
35
 72
113
 73
112
 74
112
 0
VERTEX
 8
MESH_171_F0
 10
0
 20
0
 30
0
 70
128
 71
46
 72
35
 73
47
 74
47
 0
SEQEND
 0
POLYLINE
 8
MESH_170_F0
 66
1
 10
0.0
 20
0.0
 30
0.0
 70
64
 71
34
 72
32
 0
VERTEX
 8
MESH_170_F0
 10
-300
 20
0
 30
500
 70
192
 0
VERTEX
 8
MESH_170_F0
 10
-300
 20
-20
 30
500
 70
192
 0
VERTEX
 8
MESH_170_F0
 10
-299.0345
 20
-20
 30
519.6241
 70
192
 0
VERTEX
 8
MESH_170_F0
 10
-296.1578
 20
-20
 30
539.0092
 70
192
 0
VERTEX
 8
MESH_170_F0
 10
-291.3879
 20
-20
 30
558.0577
 70
192
 0
VERTEX
 8
MESH_170_F0
 10
-284.7756
 20
-20
 30
576.5378
 70
192
 0
VERTEX
 8
MESH_170_F0
 10
-276.384
 20
-20
 30
594.2786
 70
192
 0
VERTEX
 8
MESH_170_F0
 10
-266.2938
 20
-20
 30
611.1141
 70
192
 0
VERTEX
 8
MESH_170_F0
 10
-254.6019
 20
-20
 30
626.8787
 70
192
 0
VERTEX
 8
MESH_170_F0
 10
-241.4211
 20
-20
 30
641.4211
 70
192
 0
VERTEX
 8
MESH_170_F0
 10
-226.8786
 20
-20
 30
654.6019
 70
192
 0
VERTEX
 8
MESH_170_F0
 10
-211.1141
 20
-20
 30
666.2938
 70
192
 0
VERTEX
 8
MESH_170_F0
 10
-194.2786
 20
-20
 30
676.384
 70
192
 0
VERTEX
 8
MESH_170_F0
 10
-176.5379
 20
-20
 30
684.7756
 70
192
 0
VERTEX
 8
MESH_170_F0
 10
-158.0577
 20
-20
 30
691.3879
 70
192
 0
VERTEX
 8
MESH_170_F0
 10
-139.0093
 20
-20
 30
696.1578
 70
192
 0
VERTEX
 8
MESH_170_F0
 10
-119.6242
 20
-20
 30
699.0345
 70
192
 0
VERTEX
 8
MESH_170_F0
 10
-100
 20
-20
 30
700
 70
192
 0
VERTEX
 8
MESH_170_F0
 10
-100
 20
0
 30
700
 70
192
 0
VERTEX
 8
MESH_170_F0
 10
-119.6242
 20
0
 30
699.0345
 70
192
 0
VERTEX
 8
MESH_170_F0
 10
-139.0093
 20
0
 30
696.1578
 70
192
 0
VERTEX
 8
MESH_170_F0
 10
-158.0577
 20
0
 30
691.3879
 70
192
 0
VERTEX
 8
MESH_170_F0
 10
-176.5379
 20
0
 30
684.7756
 70
192
 0
VERTEX
 8
MESH_170_F0
 10
-194.2786
 20
0
 30
676.384
 70
192
 0
VERTEX
 8
MESH_170_F0
 10
-211.1141
 20
0
 30
666.2938
 70
192
 0
VERTEX
 8
MESH_170_F0
 10
-226.8786
 20
0
 30
654.6019
 70
192
 0
VERTEX
 8
MESH_170_F0
 10
-241.4211
 20
0
 30
641.4211
 70
192
 0
VERTEX
 8
MESH_170_F0
 10
-254.6019
 20
0
 30
626.8787
 70
192
 0
VERTEX
 8
MESH_170_F0
 10
-266.2938
 20
0
 30
611.1141
 70
192
 0
VERTEX
 8
MESH_170_F0
 10
-276.384
 20
0
 30
594.2786
 70
192
 0
VERTEX
 8
MESH_170_F0
 10
-284.7756
 20
0
 30
576.5378
 70
192
 0
VERTEX
 8
MESH_170_F0
 10
-291.3879
 20
0
 30
558.0577
 70
192
 0
VERTEX
 8
MESH_170_F0
 10
-296.1578
 20
0
 30
539.0093
 70
192
 0
VERTEX
 8
MESH_170_F0
 10
-299.0345
 20
0
 30
519.6241
 70
192
 0
VERTEX
 8
MESH_170_F0
 10
0
 20
0
 30
0
 70
128
 71
1
 72
3
 73
2
 74
2
 0
VERTEX
 8
MESH_170_F0
 10
0
 20
0
 30
0
 70
128
 71
34
 72
3
 73
1
 74
1
 0
VERTEX
 8
MESH_170_F0
 10
0
 20
0
 30
0
 70
128
 71
4
 72
3
 73
34
 74
34
 0
VERTEX
 8
MESH_170_F0
 10
0
 20
0
 30
0
 70
128
 71
5
 72
4
 73
33
 74
33
 0
VERTEX
 8
MESH_170_F0
 10
0
 20
0
 30
0
 70
128
 71
6
 72
5
 73
32
 74
32
 0
VERTEX
 8
MESH_170_F0
 10
0
 20
0
 30
0
 70
128
 71
7
 72
6
 73
31
 74
31
 0
VERTEX
 8
MESH_170_F0
 10
0
 20
0
 30
0
 70
128
 71
8
 72
7
 73
30
 74
30
 0
VERTEX
 8
MESH_170_F0
 10
0
 20
0
 30
0
 70
128
 71
9
 72
8
 73
29
 74
29
 0
VERTEX
 8
MESH_170_F0
 10
0
 20
0
 30
0
 70
128
 71
10
 72
9
 73
28
 74
28
 0
VERTEX
 8
MESH_170_F0
 10
0
 20
0
 30
0
 70
128
 71
11
 72
10
 73
27
 74
27
 0
VERTEX
 8
MESH_170_F0
 10
0
 20
0
 30
0
 70
128
 71
12
 72
11
 73
26
 74
26
 0
VERTEX
 8
MESH_170_F0
 10
0
 20
0
 30
0
 70
128
 71
13
 72
12
 73
25
 74
25
 0
VERTEX
 8
MESH_170_F0
 10
0
 20
0
 30
0
 70
128
 71
14
 72
13
 73
24
 74
24
 0
VERTEX
 8
MESH_170_F0
 10
0
 20
0
 30
0
 70
128
 71
15
 72
14
 73
23
 74
23
 0
VERTEX
 8
MESH_170_F0
 10
0
 20
0
 30
0
 70
128
 71
16
 72
15
 73
22
 74
22
 0
VERTEX
 8
MESH_170_F0
 10
0
 20
0
 30
0
 70
128
 71
17
 72
16
 73
21
 74
21
 0
VERTEX
 8
MESH_170_F0
 10
0
 20
0
 30
0
 70
128
 71
19
 72
17
 73
20
 74
20
 0
VERTEX
 8
MESH_170_F0
 10
0
 20
0
 30
0
 70
128
 71
17
 72
21
 73
20
 74
20
 0
VERTEX
 8
MESH_170_F0
 10
0
 20
0
 30
0
 70
128
 71
19
 72
18
 73
17
 74
17
 0
VERTEX
 8
MESH_170_F0
 10
0
 20
0
 30
0
 70
128
 71
16
 72
22
 73
21
 74
21
 0
VERTEX
 8
MESH_170_F0
 10
0
 20
0
 30
0
 70
128
 71
15
 72
23
 73
22
 74
22
 0
VERTEX
 8
MESH_170_F0
 10
0
 20
0
 30
0
 70
128
 71
14
 72
24
 73
23
 74
23
 0
VERTEX
 8
MESH_170_F0
 10
0
 20
0
 30
0
 70
128
 71
13
 72
25
 73
24
 74
24
 0
VERTEX
 8
MESH_170_F0
 10
0
 20
0
 30
0
 70
128
 71
12
 72
26
 73
25
 74
25
 0
VERTEX
 8
MESH_170_F0
 10
0
 20
0
 30
0
 70
128
 71
11
 72
27
 73
26
 74
26
 0
VERTEX
 8
MESH_170_F0
 10
0
 20
0
 30
0
 70
128
 71
10
 72
28
 73
27
 74
27
 0
VERTEX
 8
MESH_170_F0
 10
0
 20
0
 30
0
 70
128
 71
9
 72
29
 73
28
 74
28
 0
VERTEX
 8
MESH_170_F0
 10
0
 20
0
 30
0
 70
128
 71
8
 72
30
 73
29
 74
29
 0
VERTEX
 8
MESH_170_F0
 10
0
 20
0
 30
0
 70
128
 71
7
 72
31
 73
30
 74
30
 0
VERTEX
 8
MESH_170_F0
 10
0
 20
0
 30
0
 70
128
 71
6
 72
32
 73
31
 74
31
 0
VERTEX
 8
MESH_170_F0
 10
0
 20
0
 30
0
 70
128
 71
5
 72
33
 73
32
 74
32
 0
VERTEX
 8
MESH_170_F0
 10
0
 20
0
 30
0
 70
128
 71
4
 72
34
 73
33
 74
33
 0
SEQEND
 0
POLYLINE
 8
MESH_169_F0
 66
1
 10
0.0
 20
0.0
 30
0.0
 70
64
 71
4
 72
2
 0
VERTEX
 8
MESH_169_F0
 10
-100
 20
0
 30
700
 70
192
 0
VERTEX
 8
MESH_169_F0
 10
-100
 20
-20
 30
700
 70
192
 0
VERTEX
 8
MESH_169_F0
 10
100
 20
-20
 30
700
 70
192
 0
VERTEX
 8
MESH_169_F0
 10
100
 20
0
 30
700
 70
192
 0
VERTEX
 8
MESH_169_F0
 10
0
 20
0
 30
0
 70
128
 71
4
 72
2
 73
1
 74
1
 0
VERTEX
 8
MESH_169_F0
 10
0
 20
0
 30
0
 70
128
 71
3
 72
2
 73
4
 74
4
 0
SEQEND
 0
POLYLINE
 8
MESH_168_F0
 66
1
 10
0.0
 20
0.0
 30
0.0
 70
64
 71
34
 72
32
 0
VERTEX
 8
MESH_168_F0
 10
100
 20
0
 30
700
 70
192
 0
VERTEX
 8
MESH_168_F0
 10
100
 20
-20
 30
700
 70
192
 0
VERTEX
 8
MESH_168_F0
 10
119.6242
 20
-20
 30
699.0345
 70
192
 0
VERTEX
 8
MESH_168_F0
 10
139.0093
 20
-20
 30
696.1578
 70
192
 0
VERTEX
 8
MESH_168_F0
 10
158.0577
 20
-20
 30
691.3879
 70
192
 0
VERTEX
 8
MESH_168_F0
 10
176.5379
 20
-20
 30
684.7756
 70
192
 0
VERTEX
 8
MESH_168_F0
 10
194.2786
 20
-20
 30
676.384
 70
192
 0
VERTEX
 8
MESH_168_F0
 10
211.1141
 20
-20
 30
666.2938
 70
192
 0
VERTEX
 8
MESH_168_F0
 10
226.8786
 20
-20
 30
654.6019
 70
192
 0
VERTEX
 8
MESH_168_F0
 10
241.4211
 20
-20
 30
641.4211
 70
192
 0
VERTEX
 8
MESH_168_F0
 10
254.6019
 20
-20
 30
626.8787
 70
192
 0
VERTEX
 8
MESH_168_F0
 10
266.2938
 20
-20
 30
611.1141
 70
192
 0
VERTEX
 8
MESH_168_F0
 10
276.384
 20
-20
 30
594.2786
 70
192
 0
VERTEX
 8
MESH_168_F0
 10
284.7756
 20
-20
 30
576.5378
 70
192
 0
VERTEX
 8
MESH_168_F0
 10
291.3879
 20
-20
 30
558.0577
 70
192
 0
VERTEX
 8
MESH_168_F0
 10
296.1578
 20
-20
 30
539.0093
 70
192
 0
VERTEX
 8
MESH_168_F0
 10
299.0345
 20
-20
 30
519.6241
 70
192
 0
VERTEX
 8
MESH_168_F0
 10
300
 20
-20
 30
500
 70
192
 0
VERTEX
 8
MESH_168_F0
 10
300
 20
0
 30
500
 70
192
 0
VERTEX
 8
MESH_168_F0
 10
299.0345
 20
0
 30
519.6241
 70
192
 0
VERTEX
 8
MESH_168_F0
 10
296.1578
 20
0
 30
539.0092
 70
192
 0
VERTEX
 8
MESH_168_F0
 10
291.3879
 20
0
 30
558.0577
 70
192
 0
VERTEX
 8
MESH_168_F0
 10
284.7756
 20
0
 30
576.5378
 70
192
 0
VERTEX
 8
MESH_168_F0
 10
276.384
 20
0
 30
594.2786
 70
192
 0
VERTEX
 8
MESH_168_F0
 10
266.2938
 20
0
 30
611.1141
 70
192
 0
VERTEX
 8
MESH_168_F0
 10
254.6019
 20
0
 30
626.8787
 70
192
 0
VERTEX
 8
MESH_168_F0
 10
241.4211
 20
0
 30
641.4211
 70
192
 0
VERTEX
 8
MESH_168_F0
 10
226.8786
 20
0
 30
654.6019
 70
192
 0
VERTEX
 8
MESH_168_F0
 10
211.1141
 20
0
 30
666.2938
 70
192
 0
VERTEX
 8
MESH_168_F0
 10
194.2786
 20
0
 30
676.384
 70
192
 0
VERTEX
 8
MESH_168_F0
 10
176.5379
 20
0
 30
684.7756
 70
192
 0
VERTEX
 8
MESH_168_F0
 10
158.0577
 20
0
 30
691.3879
 70
192
 0
VERTEX
 8
MESH_168_F0
 10
139.0093
 20
0
 30
696.1578
 70
192
 0
VERTEX
 8
MESH_168_F0
 10
119.6242
 20
0
 30
699.0345
 70
192
 0
VERTEX
 8
MESH_168_F0
 10
0
 20
0
 30
0
 70
128
 71
1
 72
3
 73
2
 74
2
 0
VERTEX
 8
MESH_168_F0
 10
0
 20
0
 30
0
 70
128
 71
34
 72
3
 73
1
 74
1
 0
VERTEX
 8
MESH_168_F0
 10
0
 20
0
 30
0
 70
128
 71
4
 72
3
 73
34
 74
34
 0
VERTEX
 8
MESH_168_F0
 10
0
 20
0
 30
0
 70
128
 71
5
 72
4
 73
33
 74
33
 0
VERTEX
 8
MESH_168_F0
 10
0
 20
0
 30
0
 70
128
 71
6
 72
5
 73
32
 74
32
 0
VERTEX
 8
MESH_168_F0
 10
0
 20
0
 30
0
 70
128
 71
7
 72
6
 73
31
 74
31
 0
VERTEX
 8
MESH_168_F0
 10
0
 20
0
 30
0
 70
128
 71
8
 72
7
 73
30
 74
30
 0
VERTEX
 8
MESH_168_F0
 10
0
 20
0
 30
0
 70
128
 71
9
 72
8
 73
29
 74
29
 0
VERTEX
 8
MESH_168_F0
 10
0
 20
0
 30
0
 70
128
 71
10
 72
9
 73
28
 74
28
 0
VERTEX
 8
MESH_168_F0
 10
0
 20
0
 30
0
 70
128
 71
11
 72
10
 73
27
 74
27
 0
VERTEX
 8
MESH_168_F0
 10
0
 20
0
 30
0
 70
128
 71
12
 72
11
 73
26
 74
26
 0
VERTEX
 8
MESH_168_F0
 10
0
 20
0
 30
0
 70
128
 71
13
 72
12
 73
25
 74
25
 0
VERTEX
 8
MESH_168_F0
 10
0
 20
0
 30
0
 70
128
 71
14
 72
13
 73
24
 74
24
 0
VERTEX
 8
MESH_168_F0
 10
0
 20
0
 30
0
 70
128
 71
15
 72
14
 73
23
 74
23
 0
VERTEX
 8
MESH_168_F0
 10
0
 20
0
 30
0
 70
128
 71
16
 72
15
 73
22
 74
22
 0
VERTEX
 8
MESH_168_F0
 10
0
 20
0
 30
0
 70
128
 71
17
 72
16
 73
21
 74
21
 0
VERTEX
 8
MESH_168_F0
 10
0
 20
0
 30
0
 70
128
 71
19
 72
17
 73
20
 74
20
 0
VERTEX
 8
MESH_168_F0
 10
0
 20
0
 30
0
 70
128
 71
17
 72
21
 73
20
 74
20
 0
VERTEX
 8
MESH_168_F0
 10
0
 20
0
 30
0
 70
128
 71
19
 72
18
 73
17
 74
17
 0
VERTEX
 8
MESH_168_F0
 10
0
 20
0
 30
0
 70
128
 71
16
 72
22
 73
21
 74
21
 0
VERTEX
 8
MESH_168_F0
 10
0
 20
0
 30
0
 70
128
 71
15
 72
23
 73
22
 74
22
 0
VERTEX
 8
MESH_168_F0
 10
0
 20
0
 30
0
 70
128
 71
14
 72
24
 73
23
 74
23
 0
VERTEX
 8
MESH_168_F0
 10
0
 20
0
 30
0
 70
128
 71
13
 72
25
 73
24
 74
24
 0
VERTEX
 8
MESH_168_F0
 10
0
 20
0
 30
0
 70
128
 71
12
 72
26
 73
25
 74
25
 0
VERTEX
 8
MESH_168_F0
 10
0
 20
0
 30
0
 70
128
 71
11
 72
27
 73
26
 74
26
 0
VERTEX
 8
MESH_168_F0
 10
0
 20
0
 30
0
 70
128
 71
10
 72
28
 73
27
 74
27
 0
VERTEX
 8
MESH_168_F0
 10
0
 20
0
 30
0
 70
128
 71
9
 72
29
 73
28
 74
28
 0
VERTEX
 8
MESH_168_F0
 10
0
 20
0
 30
0
 70
128
 71
8
 72
30
 73
29
 74
29
 0
VERTEX
 8
MESH_168_F0
 10
0
 20
0
 30
0
 70
128
 71
7
 72
31
 73
30
 74
30
 0
VERTEX
 8
MESH_168_F0
 10
0
 20
0
 30
0
 70
128
 71
6
 72
32
 73
31
 74
31
 0
VERTEX
 8
MESH_168_F0
 10
0
 20
0
 30
0
 70
128
 71
5
 72
33
 73
32
 74
32
 0
VERTEX
 8
MESH_168_F0
 10
0
 20
0
 30
0
 70
128
 71
4
 72
34
 73
33
 74
33
 0
SEQEND
 0
POLYLINE
 8
MESH_167_F0
 66
1
 10
0.0
 20
0.0
 30
0.0
 70
64
 71
4
 72
2
 0
VERTEX
 8
MESH_167_F0
 10
300
 20
0
 30
500
 70
192
 0
VERTEX
 8
MESH_167_F0
 10
300
 20
-20
 30
500
 70
192
 0
VERTEX
 8
MESH_167_F0
 10
300
 20
-20
 30
200
 70
192
 0
VERTEX
 8
MESH_167_F0
 10
300
 20
0
 30
200
 70
192
 0
VERTEX
 8
MESH_167_F0
 10
0
 20
0
 30
0
 70
128
 71
4
 72
2
 73
1
 74
1
 0
VERTEX
 8
MESH_167_F0
 10
0
 20
0
 30
0
 70
128
 71
3
 72
2
 73
4
 74
4
 0
SEQEND
 0
POLYLINE
 8
MESH_166_F0
 66
1
 10
0.0
 20
0.0
 30
0.0
 70
64
 71
34
 72
32
 0
VERTEX
 8
MESH_166_F0
 10
300
 20
0
 30
200
 70
192
 0
VERTEX
 8
MESH_166_F0
 10
300
 20
-20
 30
200
 70
192
 0
VERTEX
 8
MESH_166_F0
 10
299.0345
 20
-20
 30
180.3758
 70
192
 0
VERTEX
 8
MESH_166_F0
 10
296.1578
 20
-20
 30
160.9907
 70
192
 0
VERTEX
 8
MESH_166_F0
 10
291.3879
 20
-20
 30
141.9423
 70
192
 0
VERTEX
 8
MESH_166_F0
 10
284.7756
 20
-20
 30
123.4621
 70
192
 0
VERTEX
 8
MESH_166_F0
 10
276.384
 20
-20
 30
105.7214
 70
192
 0
VERTEX
 8
MESH_166_F0
 10
266.2938
 20
-20
 30
88.8859
 70
192
 0
VERTEX
 8
MESH_166_F0
 10
254.6019
 20
-20
 30
73.1214
 70
192
 0
VERTEX
 8
MESH_166_F0
 10
241.4211
 20
-20
 30
58.5789
 70
192
 0
VERTEX
 8
MESH_166_F0
 10
226.8786
 20
-20
 30
45.3981
 70
192
 0
VERTEX
 8
MESH_166_F0
 10
211.1141
 20
-20
 30
33.7062
 70
192
 0
VERTEX
 8
MESH_166_F0
 10
194.2786
 20
-20
 30
23.616
 70
192
 0
VERTEX
 8
MESH_166_F0
 10
176.5379
 20
-20
 30
15.2244
 70
192
 0
VERTEX
 8
MESH_166_F0
 10
158.0577
 20
-20
 30
8.6121
 70
192
 0
VERTEX
 8
MESH_166_F0
 10
139.0093
 20
-20
 30
3.8422
 70
192
 0
VERTEX
 8
MESH_166_F0
 10
119.6242
 20
-20
 30
0.9655
 70
192
 0
VERTEX
 8
MESH_166_F0
 10
100
 20
-20
 30
0
 70
192
 0
VERTEX
 8
MESH_166_F0
 10
100
 20
0
 30
0
 70
192
 0
VERTEX
 8
MESH_166_F0
 10
119.6242
 20
0
 30
0.9655
 70
192
 0
VERTEX
 8
MESH_166_F0
 10
139.0093
 20
0
 30
3.8422
 70
192
 0
VERTEX
 8
MESH_166_F0
 10
158.0577
 20
0
 30
8.6121
 70
192
 0
VERTEX
 8
MESH_166_F0
 10
176.5379
 20
0
 30
15.2244
 70
192
 0
VERTEX
 8
MESH_166_F0
 10
194.2786
 20
0
 30
23.616
 70
192
 0
VERTEX
 8
MESH_166_F0
 10
211.1141
 20
0
 30
33.7062
 70
192
 0
VERTEX
 8
MESH_166_F0
 10
226.8786
 20
0
 30
45.3981
 70
192
 0
VERTEX
 8
MESH_166_F0
 10
241.4211
 20
0
 30
58.5789
 70
192
 0
VERTEX
 8
MESH_166_F0
 10
254.6019
 20
0
 30
73.1214
 70
192
 0
VERTEX
 8
MESH_166_F0
 10
266.2938
 20
0
 30
88.8859
 70
192
 0
VERTEX
 8
MESH_166_F0
 10
276.384
 20
0
 30
105.7214
 70
192
 0
VERTEX
 8
MESH_166_F0
 10
284.7756
 20
0
 30
123.4621
 70
192
 0
VERTEX
 8
MESH_166_F0
 10
291.3879
 20
0
 30
141.9423
 70
192
 0
VERTEX
 8
MESH_166_F0
 10
296.1578
 20
0
 30
160.9907
 70
192
 0
VERTEX
 8
MESH_166_F0
 10
299.0345
 20
0
 30
180.3758
 70
192
 0
VERTEX
 8
MESH_166_F0
 10
0
 20
0
 30
0
 70
128
 71
1
 72
3
 73
2
 74
2
 0
VERTEX
 8
MESH_166_F0
 10
0
 20
0
 30
0
 70
128
 71
34
 72
3
 73
1
 74
1
 0
VERTEX
 8
MESH_166_F0
 10
0
 20
0
 30
0
 70
128
 71
4
 72
3
 73
34
 74
34
 0
VERTEX
 8
MESH_166_F0
 10
0
 20
0
 30
0
 70
128
 71
5
 72
4
 73
33
 74
33
 0
VERTEX
 8
MESH_166_F0
 10
0
 20
0
 30
0
 70
128
 71
6
 72
5
 73
32
 74
32
 0
VERTEX
 8
MESH_166_F0
 10
0
 20
0
 30
0
 70
128
 71
7
 72
6
 73
31
 74
31
 0
VERTEX
 8
MESH_166_F0
 10
0
 20
0
 30
0
 70
128
 71
8
 72
7
 73
30
 74
30
 0
VERTEX
 8
MESH_166_F0
 10
0
 20
0
 30
0
 70
128
 71
9
 72
8
 73
29
 74
29
 0
VERTEX
 8
MESH_166_F0
 10
0
 20
0
 30
0
 70
128
 71
10
 72
9
 73
28
 74
28
 0
VERTEX
 8
MESH_166_F0
 10
0
 20
0
 30
0
 70
128
 71
11
 72
10
 73
27
 74
27
 0
VERTEX
 8
MESH_166_F0
 10
0
 20
0
 30
0
 70
128
 71
12
 72
11
 73
26
 74
26
 0
VERTEX
 8
MESH_166_F0
 10
0
 20
0
 30
0
 70
128
 71
13
 72
12
 73
25
 74
25
 0
VERTEX
 8
MESH_166_F0
 10
0
 20
0
 30
0
 70
128
 71
14
 72
13
 73
24
 74
24
 0
VERTEX
 8
MESH_166_F0
 10
0
 20
0
 30
0
 70
128
 71
15
 72
14
 73
23
 74
23
 0
VERTEX
 8
MESH_166_F0
 10
0
 20
0
 30
0
 70
128
 71
16
 72
15
 73
22
 74
22
 0
VERTEX
 8
MESH_166_F0
 10
0
 20
0
 30
0
 70
128
 71
17
 72
16
 73
21
 74
21
 0
VERTEX
 8
MESH_166_F0
 10
0
 20
0
 30
0
 70
128
 71
18
 72
17
 73
20
 74
20
 0
VERTEX
 8
MESH_166_F0
 10
0
 20
0
 30
0
 70
128
 71
18
 72
20
 73
19
 74
19
 0
VERTEX
 8
MESH_166_F0
 10
0
 20
0
 30
0
 70
128
 71
17
 72
21
 73
20
 74
20
 0
VERTEX
 8
MESH_166_F0
 10
0
 20
0
 30
0
 70
128
 71
16
 72
22
 73
21
 74
21
 0
VERTEX
 8
MESH_166_F0
 10
0
 20
0
 30
0
 70
128
 71
15
 72
23
 73
22
 74
22
 0
VERTEX
 8
MESH_166_F0
 10
0
 20
0
 30
0
 70
128
 71
14
 72
24
 73
23
 74
23
 0
VERTEX
 8
MESH_166_F0
 10
0
 20
0
 30
0
 70
128
 71
13
 72
25
 73
24
 74
24
 0
VERTEX
 8
MESH_166_F0
 10
0
 20
0
 30
0
 70
128
 71
12
 72
26
 73
25
 74
25
 0
VERTEX
 8
MESH_166_F0
 10
0
 20
0
 30
0
 70
128
 71
11
 72
27
 73
26
 74
26
 0
VERTEX
 8
MESH_166_F0
 10
0
 20
0
 30
0
 70
128
 71
10
 72
28
 73
27
 74
27
 0
VERTEX
 8
MESH_166_F0
 10
0
 20
0
 30
0
 70
128
 71
9
 72
29
 73
28
 74
28
 0
VERTEX
 8
MESH_166_F0
 10
0
 20
0
 30
0
 70
128
 71
8
 72
30
 73
29
 74
29
 0
VERTEX
 8
MESH_166_F0
 10
0
 20
0
 30
0
 70
128
 71
7
 72
31
 73
30
 74
30
 0
VERTEX
 8
MESH_166_F0
 10
0
 20
0
 30
0
 70
128
 71
6
 72
32
 73
31
 74
31
 0
VERTEX
 8
MESH_166_F0
 10
0
 20
0
 30
0
 70
128
 71
5
 72
33
 73
32
 74
32
 0
VERTEX
 8
MESH_166_F0
 10
0
 20
0
 30
0
 70
128
 71
4
 72
34
 73
33
 74
33
 0
SEQEND
 0
POLYLINE
 8
MESH_165_F0
 66
1
 10
0.0
 20
0.0
 30
0.0
 70
64
 71
4
 72
2
 0
VERTEX
 8
MESH_165_F0
 10
100
 20
0
 30
0
 70
192
 0
VERTEX
 8
MESH_165_F0
 10
100
 20
-20
 30
0
 70
192
 0
VERTEX
 8
MESH_165_F0
 10
-100
 20
-20
 30
0
 70
192
 0
VERTEX
 8
MESH_165_F0
 10
-100
 20
0
 30
0
 70
192
 0
VERTEX
 8
MESH_165_F0
 10
0
 20
0
 30
0
 70
128
 71
4
 72
2
 73
1
 74
1
 0
VERTEX
 8
MESH_165_F0
 10
0
 20
0
 30
0
 70
128
 71
3
 72
2
 73
4
 74
4
 0
SEQEND
 0
POLYLINE
 8
MESH_164_F0
 66
1
 10
0.0
 20
0.0
 30
0.0
 70
64
 71
34
 72
32
 0
VERTEX
 8
MESH_164_F0
 10
-100
 20
0
 30
0
 70
192
 0
VERTEX
 8
MESH_164_F0
 10
-100
 20
-20
 30
0
 70
192
 0
VERTEX
 8
MESH_164_F0
 10
-119.6242
 20
-20
 30
0.9655
 70
192
 0
VERTEX
 8
MESH_164_F0
 10
-139.0093
 20
-20
 30
3.8422
 70
192
 0
VERTEX
 8
MESH_164_F0
 10
-158.0577
 20
-20
 30
8.6121
 70
192
 0
VERTEX
 8
MESH_164_F0
 10
-176.5379
 20
-20
 30
15.2244
 70
192
 0
VERTEX
 8
MESH_164_F0
 10
-194.2786
 20
-20
 30
23.616
 70
192
 0
VERTEX
 8
MESH_164_F0
 10
-211.1141
 20
-20
 30
33.7062
 70
192
 0
VERTEX
 8
MESH_164_F0
 10
-226.8786
 20
-20
 30
45.3981
 70
192
 0
VERTEX
 8
MESH_164_F0
 10
-241.4211
 20
-20
 30
58.5789
 70
192
 0
VERTEX
 8
MESH_164_F0
 10
-254.6019
 20
-20
 30
73.1214
 70
192
 0
VERTEX
 8
MESH_164_F0
 10
-266.2938
 20
-20
 30
88.8859
 70
192
 0
VERTEX
 8
MESH_164_F0
 10
-276.384
 20
-20
 30
105.7214
 70
192
 0
VERTEX
 8
MESH_164_F0
 10
-284.7756
 20
-20
 30
123.4621
 70
192
 0
VERTEX
 8
MESH_164_F0
 10
-291.3879
 20
-20
 30
141.9423
 70
192
 0
VERTEX
 8
MESH_164_F0
 10
-296.1578
 20
-20
 30
160.9907
 70
192
 0
VERTEX
 8
MESH_164_F0
 10
-299.0345
 20
-20
 30
180.3758
 70
192
 0
VERTEX
 8
MESH_164_F0
 10
-300
 20
-20
 30
200
 70
192
 0
VERTEX
 8
MESH_164_F0
 10
-300
 20
0
 30
200
 70
192
 0
VERTEX
 8
MESH_164_F0
 10
-299.0345
 20
0
 30
180.3758
 70
192
 0
VERTEX
 8
MESH_164_F0
 10
-296.1578
 20
0
 30
160.9907
 70
192
 0
VERTEX
 8
MESH_164_F0
 10
-291.3879
 20
0
 30
141.9423
 70
192
 0
VERTEX
 8
MESH_164_F0
 10
-284.7756
 20
0
 30
123.4621
 70
192
 0
VERTEX
 8
MESH_164_F0
 10
-276.384
 20
0
 30
105.7214
 70
192
 0
VERTEX
 8
MESH_164_F0
 10
-266.2938
 20
0
 30
88.8859
 70
192
 0
VERTEX
 8
MESH_164_F0
 10
-254.6019
 20
0
 30
73.1214
 70
192
 0
VERTEX
 8
MESH_164_F0
 10
-241.4211
 20
0
 30
58.5789
 70
192
 0
VERTEX
 8
MESH_164_F0
 10
-226.8786
 20
0
 30
45.3981
 70
192
 0
VERTEX
 8
MESH_164_F0
 10
-211.1141
 20
0
 30
33.7062
 70
192
 0
VERTEX
 8
MESH_164_F0
 10
-194.2786
 20
0
 30
23.616
 70
192
 0
VERTEX
 8
MESH_164_F0
 10
-176.5379
 20
0
 30
15.2244
 70
192
 0
VERTEX
 8
MESH_164_F0
 10
-158.0577
 20
0
 30
8.6121
 70
192
 0
VERTEX
 8
MESH_164_F0
 10
-139.0093
 20
0
 30
3.8422
 70
192
 0
VERTEX
 8
MESH_164_F0
 10
-119.6242
 20
0
 30
0.9655
 70
192
 0
VERTEX
 8
MESH_164_F0
 10
0
 20
0
 30
0
 70
128
 71
1
 72
3
 73
2
 74
2
 0
VERTEX
 8
MESH_164_F0
 10
0
 20
0
 30
0
 70
128
 71
34
 72
3
 73
1
 74
1
 0
VERTEX
 8
MESH_164_F0
 10
0
 20
0
 30
0
 70
128
 71
4
 72
3
 73
34
 74
34
 0
VERTEX
 8
MESH_164_F0
 10
0
 20
0
 30
0
 70
128
 71
5
 72
4
 73
33
 74
33
 0
VERTEX
 8
MESH_164_F0
 10
0
 20
0
 30
0
 70
128
 71
6
 72
5
 73
32
 74
32
 0
VERTEX
 8
MESH_164_F0
 10
0
 20
0
 30
0
 70
128
 71
7
 72
6
 73
31
 74
31
 0
VERTEX
 8
MESH_164_F0
 10
0
 20
0
 30
0
 70
128
 71
8
 72
7
 73
30
 74
30
 0
VERTEX
 8
MESH_164_F0
 10
0
 20
0
 30
0
 70
128
 71
9
 72
8
 73
29
 74
29
 0
VERTEX
 8
MESH_164_F0
 10
0
 20
0
 30
0
 70
128
 71
10
 72
9
 73
28
 74
28
 0
VERTEX
 8
MESH_164_F0
 10
0
 20
0
 30
0
 70
128
 71
11
 72
10
 73
27
 74
27
 0
VERTEX
 8
MESH_164_F0
 10
0
 20
0
 30
0
 70
128
 71
12
 72
11
 73
26
 74
26
 0
VERTEX
 8
MESH_164_F0
 10
0
 20
0
 30
0
 70
128
 71
13
 72
12
 73
25
 74
25
 0
VERTEX
 8
MESH_164_F0
 10
0
 20
0
 30
0
 70
128
 71
14
 72
13
 73
24
 74
24
 0
VERTEX
 8
MESH_164_F0
 10
0
 20
0
 30
0
 70
128
 71
15
 72
14
 73
23
 74
23
 0
VERTEX
 8
MESH_164_F0
 10
0
 20
0
 30
0
 70
128
 71
16
 72
15
 73
22
 74
22
 0
VERTEX
 8
MESH_164_F0
 10
0
 20
0
 30
0
 70
128
 71
17
 72
16
 73
21
 74
21
 0
VERTEX
 8
MESH_164_F0
 10
0
 20
0
 30
0
 70
128
 71
18
 72
17
 73
20
 74
20
 0
VERTEX
 8
MESH_164_F0
 10
0
 20
0
 30
0
 70
128
 71
18
 72
20
 73
19
 74
19
 0
VERTEX
 8
MESH_164_F0
 10
0
 20
0
 30
0
 70
128
 71
17
 72
21
 73
20
 74
20
 0
VERTEX
 8
MESH_164_F0
 10
0
 20
0
 30
0
 70
128
 71
16
 72
22
 73
21
 74
21
 0
VERTEX
 8
MESH_164_F0
 10
0
 20
0
 30
0
 70
128
 71
15
 72
23
 73
22
 74
22
 0
VERTEX
 8
MESH_164_F0
 10
0
 20
0
 30
0
 70
128
 71
14
 72
24
 73
23
 74
23
 0
VERTEX
 8
MESH_164_F0
 10
0
 20
0
 30
0
 70
128
 71
13
 72
25
 73
24
 74
24
 0
VERTEX
 8
MESH_164_F0
 10
0
 20
0
 30
0
 70
128
 71
12
 72
26
 73
25
 74
25
 0
VERTEX
 8
MESH_164_F0
 10
0
 20
0
 30
0
 70
128
 71
11
 72
27
 73
26
 74
26
 0
VERTEX
 8
MESH_164_F0
 10
0
 20
0
 30
0
 70
128
 71
10
 72
28
 73
27
 74
27
 0
VERTEX
 8
MESH_164_F0
 10
0
 20
0
 30
0
 70
128
 71
9
 72
29
 73
28
 74
28
 0
VERTEX
 8
MESH_164_F0
 10
0
 20
0
 30
0
 70
128
 71
8
 72
30
 73
29
 74
29
 0
VERTEX
 8
MESH_164_F0
 10
0
 20
0
 30
0
 70
128
 71
7
 72
31
 73
30
 74
30
 0
VERTEX
 8
MESH_164_F0
 10
0
 20
0
 30
0
 70
128
 71
6
 72
32
 73
31
 74
31
 0
VERTEX
 8
MESH_164_F0
 10
0
 20
0
 30
0
 70
128
 71
5
 72
33
 73
32
 74
32
 0
VERTEX
 8
MESH_164_F0
 10
0
 20
0
 30
0
 70
128
 71
4
 72
34
 73
33
 74
33
 0
SEQEND
 0
POLYLINE
 8
MESH_163_F0
 66
1
 10
0.0
 20
0.0
 30
0.0
 70
64
 71
4
 72
2
 0
VERTEX
 8
MESH_163_F0
 10
-300
 20
0
 30
200
 70
192
 0
VERTEX
 8
MESH_163_F0
 10
-300
 20
-20
 30
200
 70
192
 0
VERTEX
 8
MESH_163_F0
 10
-300
 20
-20
 30
500
 70
192
 0
VERTEX
 8
MESH_163_F0
 10
-300
 20
0
 30
500
 70
192
 0
VERTEX
 8
MESH_163_F0
 10
0
 20
0
 30
0
 70
128
 71
4
 72
2
 73
1
 74
1
 0
VERTEX
 8
MESH_163_F0
 10
0
 20
0
 30
0
 70
128
 71
3
 72
2
 73
4
 74
4
 0
SEQEND
 0
POLYLINE
 8
MESH_162_F0
 66
1
 10
0.0
 20
0.0
 30
0.0
 70
64
 71
108
 72
108
 0
VERTEX
 8
MESH_162_F0
 10
299.5
 20
-20
 30
199.5
 70
192
 0
VERTEX
 8
MESH_162_F0
 10
296.4767
 20
-20
 30
164.944
 70
192
 0
VERTEX
 8
MESH_162_F0
 10
287.4988
 20
-20
 30
131.438
 70
192
 0
VERTEX
 8
MESH_162_F0
 10
272.8391
 20
-20
 30
100
 70
192
 0
VERTEX
 8
MESH_162_F0
 10
252.9428
 20
-20
 30
71.5853
 70
192
 0
VERTEX
 8
MESH_162_F0
 10
228.4147
 20
-20
 30
47.0572
 70
192
 0
VERTEX
 8
MESH_162_F0
 10
200
 20
-20
 30
27.1609
 70
192
 0
VERTEX
 8
MESH_162_F0
 10
168.562
 20
-20
 30
12.5012
 70
192
 0
VERTEX
 8
MESH_162_F0
 10
135.056
 20
-20
 30
3.5233
 70
192
 0
VERTEX
 8
MESH_162_F0
 10
100.5
 20
-20
 30
0.5
 70
192
 0
VERTEX
 8
MESH_162_F0
 10
-100.5
 20
-20
 30
0.5
 70
192
 0
VERTEX
 8
MESH_162_F0
 10
-135.056
 20
-20
 30
3.5233
 70
192
 0
VERTEX
 8
MESH_162_F0
 10
-168.562
 20
-20
 30
12.5012
 70
192
 0
VERTEX
 8
MESH_162_F0
 10
-200
 20
-20
 30
27.1609
 70
192
 0
VERTEX
 8
MESH_162_F0
 10
-228.4147
 20
-20
 30
47.0572
 70
192
 0
VERTEX
 8
MESH_162_F0
 10
-252.9428
 20
-20
 30
71.5853
 70
192
 0
VERTEX
 8
MESH_162_F0
 10
-272.8391
 20
-20
 30
100
 70
192
 0
VERTEX
 8
MESH_162_F0
 10
-287.4988
 20
-20
 30
131.438
 70
192
 0
VERTEX
 8
MESH_162_F0
 10
-296.4767
 20
-20
 30
164.944
 70
192
 0
VERTEX
 8
MESH_162_F0
 10
-299.5
 20
-20
 30
199.5
 70
192
 0
VERTEX
 8
MESH_162_F0
 10
-299.5
 20
-20
 30
500.5
 70
192
 0
VERTEX
 8
MESH_162_F0
 10
-296.4767
 20
-20
 30
535.056
 70
192
 0
VERTEX
 8
MESH_162_F0
 10
-287.4988
 20
-20
 30
568.562
 70
192
 0
VERTEX
 8
MESH_162_F0
 10
-272.8391
 20
-20
 30
600
 70
192
 0
VERTEX
 8
MESH_162_F0
 10
-252.9428
 20
-20
 30
628.4147
 70
192
 0
VERTEX
 8
MESH_162_F0
 10
-228.4147
 20
-20
 30
652.9428
 70
192
 0
VERTEX
 8
MESH_162_F0
 10
-200
 20
-20
 30
672.8391
 70
192
 0
VERTEX
 8
MESH_162_F0
 10
-168.562
 20
-20
 30
687.4988
 70
192
 0
VERTEX
 8
MESH_162_F0
 10
-135.056
 20
-20
 30
696.4767
 70
192
 0
VERTEX
 8
MESH_162_F0
 10
-100.5
 20
-20
 30
699.5
 70
192
 0
VERTEX
 8
MESH_162_F0
 10
100.5
 20
-20
 30
699.5
 70
192
 0
VERTEX
 8
MESH_162_F0
 10
135.056
 20
-20
 30
696.4767
 70
192
 0
VERTEX
 8
MESH_162_F0
 10
168.562
 20
-20
 30
687.4988
 70
192
 0
VERTEX
 8
MESH_162_F0
 10
200
 20
-20
 30
672.8391
 70
192
 0
VERTEX
 8
MESH_162_F0
 10
228.4147
 20
-20
 30
652.9428
 70
192
 0
VERTEX
 8
MESH_162_F0
 10
252.9428
 20
-20
 30
628.4147
 70
192
 0
VERTEX
 8
MESH_162_F0
 10
272.8391
 20
-20
 30
600
 70
192
 0
VERTEX
 8
MESH_162_F0
 10
287.4988
 20
-20
 30
568.562
 70
192
 0
VERTEX
 8
MESH_162_F0
 10
296.4767
 20
-20
 30
535.056
 70
192
 0
VERTEX
 8
MESH_162_F0
 10
299.5
 20
-20
 30
500.5
 70
192
 0
VERTEX
 8
MESH_162_F0
 10
-300
 20
-20
 30
500
 70
192
 0
VERTEX
 8
MESH_162_F0
 10
-300
 20
-20
 30
200
 70
192
 0
VERTEX
 8
MESH_162_F0
 10
-299.0345
 20
-20
 30
180.3758
 70
192
 0
VERTEX
 8
MESH_162_F0
 10
-296.1578
 20
-20
 30
160.9907
 70
192
 0
VERTEX
 8
MESH_162_F0
 10
-291.3879
 20
-20
 30
141.9423
 70
192
 0
VERTEX
 8
MESH_162_F0
 10
-284.7756
 20
-20
 30
123.4621
 70
192
 0
VERTEX
 8
MESH_162_F0
 10
-276.384
 20
-20
 30
105.7214
 70
192
 0
VERTEX
 8
MESH_162_F0
 10
-266.2938
 20
-20
 30
88.8859
 70
192
 0
VERTEX
 8
MESH_162_F0
 10
-254.6019
 20
-20
 30
73.1214
 70
192
 0
VERTEX
 8
MESH_162_F0
 10
-241.4211
 20
-20
 30
58.5789
 70
192
 0
VERTEX
 8
MESH_162_F0
 10
-226.8786
 20
-20
 30
45.3981
 70
192
 0
VERTEX
 8
MESH_162_F0
 10
-211.1141
 20
-20
 30
33.7062
 70
192
 0
VERTEX
 8
MESH_162_F0
 10
-194.2786
 20
-20
 30
23.616
 70
192
 0
VERTEX
 8
MESH_162_F0
 10
-176.5379
 20
-20
 30
15.2244
 70
192
 0
VERTEX
 8
MESH_162_F0
 10
-158.0577
 20
-20
 30
8.6121
 70
192
 0
VERTEX
 8
MESH_162_F0
 10
-139.0093
 20
-20
 30
3.8422
 70
192
 0
VERTEX
 8
MESH_162_F0
 10
-119.6242
 20
-20
 30
0.9655
 70
192
 0
VERTEX
 8
MESH_162_F0
 10
-100
 20
-20
 30
0
 70
192
 0
VERTEX
 8
MESH_162_F0
 10
100
 20
-20
 30
0
 70
192
 0
VERTEX
 8
MESH_162_F0
 10
119.6242
 20
-20
 30
0.9655
 70
192
 0
VERTEX
 8
MESH_162_F0
 10
139.0093
 20
-20
 30
3.8422
 70
192
 0
VERTEX
 8
MESH_162_F0
 10
158.0577
 20
-20
 30
8.6121
 70
192
 0
VERTEX
 8
MESH_162_F0
 10
176.5379
 20
-20
 30
15.2244
 70
192
 0
VERTEX
 8
MESH_162_F0
 10
194.2786
 20
-20
 30
23.616
 70
192
 0
VERTEX
 8
MESH_162_F0
 10
211.1141
 20
-20
 30
33.7062
 70
192
 0
VERTEX
 8
MESH_162_F0
 10
226.8786
 20
-20
 30
45.3981
 70
192
 0
VERTEX
 8
MESH_162_F0
 10
241.4211
 20
-20
 30
58.5789
 70
192
 0
VERTEX
 8
MESH_162_F0
 10
254.6019
 20
-20
 30
73.1214
 70
192
 0
VERTEX
 8
MESH_162_F0
 10
266.2938
 20
-20
 30
88.8859
 70
192
 0
VERTEX
 8
MESH_162_F0
 10
276.384
 20
-20
 30
105.7214
 70
192
 0
VERTEX
 8
MESH_162_F0
 10
284.7756
 20
-20
 30
123.4621
 70
192
 0
VERTEX
 8
MESH_162_F0
 10
291.3879
 20
-20
 30
141.9423
 70
192
 0
VERTEX
 8
MESH_162_F0
 10
296.1578
 20
-20
 30
160.9907
 70
192
 0
VERTEX
 8
MESH_162_F0
 10
299.0345
 20
-20
 30
180.3758
 70
192
 0
VERTEX
 8
MESH_162_F0
 10
300
 20
-20
 30
200
 70
192
 0
VERTEX
 8
MESH_162_F0
 10
300
 20
-20
 30
500
 70
192
 0
VERTEX
 8
MESH_162_F0
 10
299.0345
 20
-20
 30
519.6241
 70
192
 0
VERTEX
 8
MESH_162_F0
 10
296.1578
 20
-20
 30
539.0093
 70
192
 0
VERTEX
 8
MESH_162_F0
 10
291.3879
 20
-20
 30
558.0577
 70
192
 0
VERTEX
 8
MESH_162_F0
 10
284.7756
 20
-20
 30
576.5378
 70
192
 0
VERTEX
 8
MESH_162_F0
 10
276.384
 20
-20
 30
594.2786
 70
192
 0
VERTEX
 8
MESH_162_F0
 10
266.2938
 20
-20
 30
611.1141
 70
192
 0
VERTEX
 8
MESH_162_F0
 10
254.6019
 20
-20
 30
626.8787
 70
192
 0
VERTEX
 8
MESH_162_F0
 10
241.4211
 20
-20
 30
641.4211
 70
192
 0
VERTEX
 8
MESH_162_F0
 10
226.8786
 20
-20
 30
654.6019
 70
192
 0
VERTEX
 8
MESH_162_F0
 10
211.1141
 20
-20
 30
666.2938
 70
192
 0
VERTEX
 8
MESH_162_F0
 10
194.2786
 20
-20
 30
676.384
 70
192
 0
VERTEX
 8
MESH_162_F0
 10
176.5379
 20
-20
 30
684.7756
 70
192
 0
VERTEX
 8
MESH_162_F0
 10
158.0577
 20
-20
 30
691.3879
 70
192
 0
VERTEX
 8
MESH_162_F0
 10
139.0093
 20
-20
 30
696.1578
 70
192
 0
VERTEX
 8
MESH_162_F0
 10
119.6242
 20
-20
 30
699.0345
 70
192
 0
VERTEX
 8
MESH_162_F0
 10
100
 20
-20
 30
700
 70
192
 0
VERTEX
 8
MESH_162_F0
 10
-100
 20
-20
 30
700
 70
192
 0
VERTEX
 8
MESH_162_F0
 10
-119.6242
 20
-20
 30
699.0345
 70
192
 0
VERTEX
 8
MESH_162_F0
 10
-139.0093
 20
-20
 30
696.1578
 70
192
 0
VERTEX
 8
MESH_162_F0
 10
-158.0577
 20
-20
 30
691.3879
 70
192
 0
VERTEX
 8
MESH_162_F0
 10
-176.5379
 20
-20
 30
684.7756
 70
192
 0
VERTEX
 8
MESH_162_F0
 10
-194.2786
 20
-20
 30
676.384
 70
192
 0
VERTEX
 8
MESH_162_F0
 10
-211.1141
 20
-20
 30
666.2938
 70
192
 0
VERTEX
 8
MESH_162_F0
 10
-226.8786
 20
-20
 30
654.6019
 70
192
 0
VERTEX
 8
MESH_162_F0
 10
-241.4211
 20
-20
 30
641.4211
 70
192
 0
VERTEX
 8
MESH_162_F0
 10
-254.6019
 20
-20
 30
626.8787
 70
192
 0
VERTEX
 8
MESH_162_F0
 10
-266.2938
 20
-20
 30
611.1141
 70
192
 0
VERTEX
 8
MESH_162_F0
 10
-276.384
 20
-20
 30
594.2786
 70
192
 0
VERTEX
 8
MESH_162_F0
 10
-284.7756
 20
-20
 30
576.5378
 70
192
 0
VERTEX
 8
MESH_162_F0
 10
-291.3879
 20
-20
 30
558.0577
 70
192
 0
VERTEX
 8
MESH_162_F0
 10
-296.1578
 20
-20
 30
539.0092
 70
192
 0
VERTEX
 8
MESH_162_F0
 10
-299.0345
 20
-20
 30
519.6241
 70
192
 0
VERTEX
 8
MESH_162_F0
 10
0
 20
0
 30
0
 70
128
 71
2
 72
73
 73
72
 74
72
 0
VERTEX
 8
MESH_162_F0
 10
0
 20
0
 30
0
 70
128
 71
2
 72
72
 73
3
 74
3
 0
VERTEX
 8
MESH_162_F0
 10
0
 20
0
 30
0
 70
128
 71
72
 72
71
 73
3
 74
3
 0
VERTEX
 8
MESH_162_F0
 10
0
 20
0
 30
0
 70
128
 71
71
 72
4
 73
3
 74
3
 0
VERTEX
 8
MESH_162_F0
 10
0
 20
0
 30
0
 70
128
 71
70
 72
4
 73
71
 74
71
 0
VERTEX
 8
MESH_162_F0
 10
0
 20
0
 30
0
 70
128
 71
69
 72
4
 73
70
 74
70
 0
VERTEX
 8
MESH_162_F0
 10
0
 20
0
 30
0
 70
128
 71
5
 72
4
 73
69
 74
69
 0
VERTEX
 8
MESH_162_F0
 10
0
 20
0
 30
0
 70
128
 71
67
 72
5
 73
68
 74
68
 0
VERTEX
 8
MESH_162_F0
 10
0
 20
0
 30
0
 70
128
 71
5
 72
69
 73
68
 74
68
 0
VERTEX
 8
MESH_162_F0
 10
0
 20
0
 30
0
 70
128
 71
67
 72
6
 73
5
 74
5
 0
VERTEX
 8
MESH_162_F0
 10
0
 20
0
 30
0
 70
128
 71
66
 72
6
 73
67
 74
67
 0
VERTEX
 8
MESH_162_F0
 10
0
 20
0
 30
0
 70
128
 71
65
 72
6
 73
66
 74
66
 0
VERTEX
 8
MESH_162_F0
 10
0
 20
0
 30
0
 70
128
 71
7
 72
6
 73
65
 74
65
 0
VERTEX
 8
MESH_162_F0
 10
0
 20
0
 30
0
 70
128
 71
8
 72
7
 73
64
 74
64
 0
VERTEX
 8
MESH_162_F0
 10
0
 20
0
 30
0
 70
128
 71
62
 72
8
 73
63
 74
63
 0
VERTEX
 8
MESH_162_F0
 10
0
 20
0
 30
0
 70
128
 71
8
 72
64
 73
63
 74
63
 0
VERTEX
 8
MESH_162_F0
 10
0
 20
0
 30
0
 70
128
 71
62
 72
9
 73
8
 74
8
 0
VERTEX
 8
MESH_162_F0
 10
0
 20
0
 30
0
 70
128
 71
61
 72
9
 73
62
 74
62
 0
VERTEX
 8
MESH_162_F0
 10
0
 20
0
 30
0
 70
128
 71
60
 72
9
 73
61
 74
61
 0
VERTEX
 8
MESH_162_F0
 10
0
 20
0
 30
0
 70
128
 71
10
 72
9
 73
60
 74
60
 0
VERTEX
 8
MESH_162_F0
 10
0
 20
0
 30
0
 70
128
 71
11
 72
10
 73
59
 74
59
 0
VERTEX
 8
MESH_162_F0
 10
0
 20
0
 30
0
 70
128
 71
57
 72
11
 73
58
 74
58
 0
VERTEX
 8
MESH_162_F0
 10
0
 20
0
 30
0
 70
128
 71
11
 72
59
 73
58
 74
58
 0
VERTEX
 8
MESH_162_F0
 10
0
 20
0
 30
0
 70
128
 71
57
 72
12
 73
11
 74
11
 0
VERTEX
 8
MESH_162_F0
 10
0
 20
0
 30
0
 70
128
 71
56
 72
12
 73
57
 74
57
 0
VERTEX
 8
MESH_162_F0
 10
0
 20
0
 30
0
 70
128
 71
55
 72
12
 73
56
 74
56
 0
VERTEX
 8
MESH_162_F0
 10
0
 20
0
 30
0
 70
128
 71
13
 72
12
 73
55
 74
55
 0
VERTEX
 8
MESH_162_F0
 10
0
 20
0
 30
0
 70
128
 71
53
 72
13
 73
54
 74
54
 0
VERTEX
 8
MESH_162_F0
 10
0
 20
0
 30
0
 70
128
 71
13
 72
55
 73
54
 74
54
 0
VERTEX
 8
MESH_162_F0
 10
0
 20
0
 30
0
 70
128
 71
53
 72
14
 73
13
 74
13
 0
VERTEX
 8
MESH_162_F0
 10
0
 20
0
 30
0
 70
128
 71
52
 72
14
 73
53
 74
53
 0
VERTEX
 8
MESH_162_F0
 10
0
 20
0
 30
0
 70
128
 71
15
 72
14
 73
52
 74
52
 0
VERTEX
 8
MESH_162_F0
 10
0
 20
0
 30
0
 70
128
 71
50
 72
15
 73
51
 74
51
 0
VERTEX
 8
MESH_162_F0
 10
0
 20
0
 30
0
 70
128
 71
15
 72
52
 73
51
 74
51
 0
VERTEX
 8
MESH_162_F0
 10
0
 20
0
 30
0
 70
128
 71
50
 72
16
 73
15
 74
15
 0
VERTEX
 8
MESH_162_F0
 10
0
 20
0
 30
0
 70
128
 71
49
 72
16
 73
50
 74
50
 0
VERTEX
 8
MESH_162_F0
 10
0
 20
0
 30
0
 70
128
 71
48
 72
16
 73
49
 74
49
 0
VERTEX
 8
MESH_162_F0
 10
0
 20
0
 30
0
 70
128
 71
17
 72
16
 73
48
 74
48
 0
VERTEX
 8
MESH_162_F0
 10
0
 20
0
 30
0
 70
128
 71
46
 72
17
 73
47
 74
47
 0
VERTEX
 8
MESH_162_F0
 10
0
 20
0
 30
0
 70
128
 71
17
 72
48
 73
47
 74
47
 0
VERTEX
 8
MESH_162_F0
 10
0
 20
0
 30
0
 70
128
 71
46
 72
18
 73
17
 74
17
 0
VERTEX
 8
MESH_162_F0
 10
0
 20
0
 30
0
 70
128
 71
45
 72
18
 73
46
 74
46
 0
VERTEX
 8
MESH_162_F0
 10
0
 20
0
 30
0
 70
128
 71
19
 72
18
 73
45
 74
45
 0
VERTEX
 8
MESH_162_F0
 10
0
 20
0
 30
0
 70
128
 71
43
 72
19
 73
44
 74
44
 0
VERTEX
 8
MESH_162_F0
 10
0
 20
0
 30
0
 70
128
 71
19
 72
45
 73
44
 74
44
 0
VERTEX
 8
MESH_162_F0
 10
0
 20
0
 30
0
 70
128
 71
43
 72
20
 73
19
 74
19
 0
VERTEX
 8
MESH_162_F0
 10
0
 20
0
 30
0
 70
128
 71
42
 72
20
 73
43
 74
43
 0
VERTEX
 8
MESH_162_F0
 10
0
 20
0
 30
0
 70
128
 71
41
 72
20
 73
42
 74
42
 0
VERTEX
 8
MESH_162_F0
 10
0
 20
0
 30
0
 70
128
 71
21
 72
20
 73
41
 74
41
 0
VERTEX
 8
MESH_162_F0
 10
0
 20
0
 30
0
 70
128
 71
22
 72
21
 73
108
 74
108
 0
VERTEX
 8
MESH_162_F0
 10
0
 20
0
 30
0
 70
128
 71
106
 72
22
 73
107
 74
107
 0
VERTEX
 8
MESH_162_F0
 10
0
 20
0
 30
0
 70
128
 71
22
 72
108
 73
107
 74
107
 0
VERTEX
 8
MESH_162_F0
 10
0
 20
0
 30
0
 70
128
 71
106
 72
23
 73
22
 74
22
 0
VERTEX
 8
MESH_162_F0
 10
0
 20
0
 30
0
 70
128
 71
105
 72
23
 73
106
 74
106
 0
VERTEX
 8
MESH_162_F0
 10
0
 20
0
 30
0
 70
128
 71
104
 72
23
 73
105
 74
105
 0
VERTEX
 8
MESH_162_F0
 10
0
 20
0
 30
0
 70
128
 71
24
 72
23
 73
104
 74
104
 0
VERTEX
 8
MESH_162_F0
 10
0
 20
0
 30
0
 70
128
 71
25
 72
24
 73
103
 74
103
 0
VERTEX
 8
MESH_162_F0
 10
0
 20
0
 30
0
 70
128
 71
101
 72
25
 73
102
 74
102
 0
VERTEX
 8
MESH_162_F0
 10
0
 20
0
 30
0
 70
128
 71
25
 72
103
 73
102
 74
102
 0
VERTEX
 8
MESH_162_F0
 10
0
 20
0
 30
0
 70
128
 71
101
 72
26
 73
25
 74
25
 0
VERTEX
 8
MESH_162_F0
 10
0
 20
0
 30
0
 70
128
 71
100
 72
26
 73
101
 74
101
 0
VERTEX
 8
MESH_162_F0
 10
0
 20
0
 30
0
 70
128
 71
99
 72
26
 73
100
 74
100
 0
VERTEX
 8
MESH_162_F0
 10
0
 20
0
 30
0
 70
128
 71
27
 72
26
 73
99
 74
99
 0
VERTEX
 8
MESH_162_F0
 10
0
 20
0
 30
0
 70
128
 71
97
 72
27
 73
98
 74
98
 0
VERTEX
 8
MESH_162_F0
 10
0
 20
0
 30
0
 70
128
 71
27
 72
99
 73
98
 74
98
 0
VERTEX
 8
MESH_162_F0
 10
0
 20
0
 30
0
 70
128
 71
97
 72
28
 73
27
 74
27
 0
VERTEX
 8
MESH_162_F0
 10
0
 20
0
 30
0
 70
128
 71
96
 72
28
 73
97
 74
97
 0
VERTEX
 8
MESH_162_F0
 10
0
 20
0
 30
0
 70
128
 71
29
 72
28
 73
96
 74
96
 0
VERTEX
 8
MESH_162_F0
 10
0
 20
0
 30
0
 70
128
 71
94
 72
29
 73
95
 74
95
 0
VERTEX
 8
MESH_162_F0
 10
0
 20
0
 30
0
 70
128
 71
29
 72
96
 73
95
 74
95
 0
VERTEX
 8
MESH_162_F0
 10
0
 20
0
 30
0
 70
128
 71
94
 72
30
 73
29
 74
29
 0
VERTEX
 8
MESH_162_F0
 10
0
 20
0
 30
0
 70
128
 71
93
 72
30
 73
94
 74
94
 0
VERTEX
 8
MESH_162_F0
 10
0
 20
0
 30
0
 70
128
 71
31
 72
30
 73
93
 74
93
 0
VERTEX
 8
MESH_162_F0
 10
0
 20
0
 30
0
 70
128
 71
91
 72
31
 73
92
 74
92
 0
VERTEX
 8
MESH_162_F0
 10
0
 20
0
 30
0
 70
128
 71
31
 72
93
 73
92
 74
92
 0
VERTEX
 8
MESH_162_F0
 10
0
 20
0
 30
0
 70
128
 71
91
 72
32
 73
31
 74
31
 0
VERTEX
 8
MESH_162_F0
 10
0
 20
0
 30
0
 70
128
 71
90
 72
32
 73
91
 74
91
 0
VERTEX
 8
MESH_162_F0
 10
0
 20
0
 30
0
 70
128
 71
89
 72
32
 73
90
 74
90
 0
VERTEX
 8
MESH_162_F0
 10
0
 20
0
 30
0
 70
128
 71
33
 72
32
 73
89
 74
89
 0
VERTEX
 8
MESH_162_F0
 10
0
 20
0
 30
0
 70
128
 71
34
 72
33
 73
88
 74
88
 0
VERTEX
 8
MESH_162_F0
 10
0
 20
0
 30
0
 70
128
 71
86
 72
34
 73
87
 74
87
 0
VERTEX
 8
MESH_162_F0
 10
0
 20
0
 30
0
 70
128
 71
34
 72
88
 73
87
 74
87
 0
VERTEX
 8
MESH_162_F0
 10
0
 20
0
 30
0
 70
128
 71
86
 72
35
 73
34
 74
34
 0
VERTEX
 8
MESH_162_F0
 10
0
 20
0
 30
0
 70
128
 71
85
 72
35
 73
86
 74
86
 0
VERTEX
 8
MESH_162_F0
 10
0
 20
0
 30
0
 70
128
 71
84
 72
35
 73
85
 74
85
 0
VERTEX
 8
MESH_162_F0
 10
0
 20
0
 30
0
 70
128
 71
36
 72
35
 73
84
 74
84
 0
VERTEX
 8
MESH_162_F0
 10
0
 20
0
 30
0
 70
128
 71
82
 72
36
 73
83
 74
83
 0
VERTEX
 8
MESH_162_F0
 10
0
 20
0
 30
0
 70
128
 71
36
 72
84
 73
83
 74
83
 0
VERTEX
 8
MESH_162_F0
 10
0
 20
0
 30
0
 70
128
 71
82
 72
37
 73
36
 74
36
 0
VERTEX
 8
MESH_162_F0
 10
0
 20
0
 30
0
 70
128
 71
81
 72
37
 73
82
 74
82
 0
VERTEX
 8
MESH_162_F0
 10
0
 20
0
 30
0
 70
128
 71
38
 72
37
 73
81
 74
81
 0
VERTEX
 8
MESH_162_F0
 10
0
 20
0
 30
0
 70
128
 71
79
 72
38
 73
80
 74
80
 0
VERTEX
 8
MESH_162_F0
 10
0
 20
0
 30
0
 70
128
 71
38
 72
81
 73
80
 74
80
 0
VERTEX
 8
MESH_162_F0
 10
0
 20
0
 30
0
 70
128
 71
79
 72
39
 73
38
 74
38
 0
VERTEX
 8
MESH_162_F0
 10
0
 20
0
 30
0
 70
128
 71
78
 72
39
 73
79
 74
79
 0
VERTEX
 8
MESH_162_F0
 10
0
 20
0
 30
0
 70
128
 71
77
 72
39
 73
78
 74
78
 0
VERTEX
 8
MESH_162_F0
 10
0
 20
0
 30
0
 70
128
 71
40
 72
39
 73
77
 74
77
 0
VERTEX
 8
MESH_162_F0
 10
0
 20
0
 30
0
 70
128
 71
1
 72
40
 73
76
 74
76
 0
VERTEX
 8
MESH_162_F0
 10
0
 20
0
 30
0
 70
128
 71
74
 72
1
 73
75
 74
75
 0
VERTEX
 8
MESH_162_F0
 10
0
 20
0
 30
0
 70
128
 71
1
 72
76
 73
75
 74
75
 0
VERTEX
 8
MESH_162_F0
 10
0
 20
0
 30
0
 70
128
 71
10
 72
60
 73
59
 74
59
 0
VERTEX
 8
MESH_162_F0
 10
0
 20
0
 30
0
 70
128
 71
7
 72
65
 73
64
 74
64
 0
VERTEX
 8
MESH_162_F0
 10
0
 20
0
 30
0
 70
128
 71
2
 72
74
 73
73
 74
73
 0
VERTEX
 8
MESH_162_F0
 10
0
 20
0
 30
0
 70
128
 71
1
 72
74
 73
2
 74
2
 0
VERTEX
 8
MESH_162_F0
 10
0
 20
0
 30
0
 70
128
 71
40
 72
77
 73
76
 74
76
 0
VERTEX
 8
MESH_162_F0
 10
0
 20
0
 30
0
 70
128
 71
33
 72
89
 73
88
 74
88
 0
VERTEX
 8
MESH_162_F0
 10
0
 20
0
 30
0
 70
128
 71
24
 72
104
 73
103
 74
103
 0
VERTEX
 8
MESH_162_F0
 10
0
 20
0
 30
0
 70
128
 71
21
 72
41
 73
108
 74
108
 0
SEQEND
 0
POLYLINE
 8
MESH_161_F0
 66
1
 10
0.0
 20
0.0
 30
0.0
 70
64
 71
68
 72
66
 0
VERTEX
 8
MESH_161_F0
 10
-100.5
 20
-24
 30
0.5
 70
192
 0
VERTEX
 8
MESH_161_F0
 10
100.5
 20
-24
 30
0.5
 70
192
 0
VERTEX
 8
MESH_161_F0
 10
120.026
 20
-24
 30
1.4606
 70
192
 0
VERTEX
 8
MESH_161_F0
 10
139.3142
 20
-24
 30
4.323
 70
192
 0
VERTEX
 8
MESH_161_F0
 10
158.2674
 20
-24
 30
9.069
 70
192
 0
VERTEX
 8
MESH_161_F0
 10
176.6552
 20
-24
 30
15.6483
 70
192
 0
VERTEX
 8
MESH_161_F0
 10
194.3072
 20
-24
 30
23.9979
 70
192
 0
VERTEX
 8
MESH_161_F0
 10
211.0585
 20
-24
 30
34.0377
 70
192
 0
VERTEX
 8
MESH_161_F0
 10
226.7442
 20
-24
 30
45.6711
 70
192
 0
VERTEX
 8
MESH_161_F0
 10
241.214
 20
-24
 30
58.786
 70
192
 0
VERTEX
 8
MESH_161_F0
 10
254.3289
 20
-24
 30
73.2558
 70
192
 0
VERTEX
 8
MESH_161_F0
 10
265.9623
 20
-24
 30
88.9415
 70
192
 0
VERTEX
 8
MESH_161_F0
 10
276.0021
 20
-24
 30
105.6927
 70
192
 0
VERTEX
 8
MESH_161_F0
 10
284.3517
 20
-24
 30
123.3448
 70
192
 0
VERTEX
 8
MESH_161_F0
 10
290.931
 20
-24
 30
141.7325
 70
192
 0
VERTEX
 8
MESH_161_F0
 10
295.677
 20
-24
 30
160.6858
 70
192
 0
VERTEX
 8
MESH_161_F0
 10
298.5394
 20
-24
 30
179.974
 70
192
 0
VERTEX
 8
MESH_161_F0
 10
299.5
 20
-24
 30
199.5
 70
192
 0
VERTEX
 8
MESH_161_F0
 10
299.5
 20
-24
 30
500.5
 70
192
 0
VERTEX
 8
MESH_161_F0
 10
298.5394
 20
-24
 30
520.026
 70
192
 0
VERTEX
 8
MESH_161_F0
 10
295.677
 20
-24
 30
539.3142
 70
192
 0
VERTEX
 8
MESH_161_F0
 10
290.931
 20
-24
 30
558.2675
 70
192
 0
VERTEX
 8
MESH_161_F0
 10
284.3517
 20
-24
 30
576.6552
 70
192
 0
VERTEX
 8
MESH_161_F0
 10
276.0021
 20
-24
 30
594.3073
 70
192
 0
VERTEX
 8
MESH_161_F0
 10
265.9623
 20
-24
 30
611.0585
 70
192
 0
VERTEX
 8
MESH_161_F0
 10
254.3289
 20
-24
 30
626.7443
 70
192
 0
VERTEX
 8
MESH_161_F0
 10
241.214
 20
-24
 30
641.214
 70
192
 0
VERTEX
 8
MESH_161_F0
 10
226.7442
 20
-24
 30
654.3289
 70
192
 0
VERTEX
 8
MESH_161_F0
 10
211.0585
 20
-24
 30
665.9623
 70
192
 0
VERTEX
 8
MESH_161_F0
 10
194.3072
 20
-24
 30
676.0021
 70
192
 0
VERTEX
 8
MESH_161_F0
 10
176.6552
 20
-24
 30
684.3517
 70
192
 0
VERTEX
 8
MESH_161_F0
 10
158.2674
 20
-24
 30
690.931
 70
192
 0
VERTEX
 8
MESH_161_F0
 10
139.3142
 20
-24
 30
695.677
 70
192
 0
VERTEX
 8
MESH_161_F0
 10
120.026
 20
-24
 30
698.5394
 70
192
 0
VERTEX
 8
MESH_161_F0
 10
100.5
 20
-24
 30
699.5
 70
192
 0
VERTEX
 8
MESH_161_F0
 10
-100.5
 20
-24
 30
699.5
 70
192
 0
VERTEX
 8
MESH_161_F0
 10
-120.026
 20
-24
 30
698.5394
 70
192
 0
VERTEX
 8
MESH_161_F0
 10
-139.3142
 20
-24
 30
695.677
 70
192
 0
VERTEX
 8
MESH_161_F0
 10
-158.2674
 20
-24
 30
690.931
 70
192
 0
VERTEX
 8
MESH_161_F0
 10
-176.6552
 20
-24
 30
684.3517
 70
192
 0
VERTEX
 8
MESH_161_F0
 10
-194.3072
 20
-24
 30
676.0021
 70
192
 0
VERTEX
 8
MESH_161_F0
 10
-211.0585
 20
-24
 30
665.9623
 70
192
 0
VERTEX
 8
MESH_161_F0
 10
-226.7442
 20
-24
 30
654.3289
 70
192
 0
VERTEX
 8
MESH_161_F0
 10
-241.214
 20
-24
 30
641.214
 70
192
 0
VERTEX
 8
MESH_161_F0
 10
-254.3289
 20
-24
 30
626.7443
 70
192
 0
VERTEX
 8
MESH_161_F0
 10
-265.9623
 20
-24
 30
611.0585
 70
192
 0
VERTEX
 8
MESH_161_F0
 10
-276.0021
 20
-24
 30
594.3073
 70
192
 0
VERTEX
 8
MESH_161_F0
 10
-284.3517
 20
-24
 30
576.6552
 70
192
 0
VERTEX
 8
MESH_161_F0
 10
-290.931
 20
-24
 30
558.2675
 70
192
 0
VERTEX
 8
MESH_161_F0
 10
-295.677
 20
-24
 30
539.3142
 70
192
 0
VERTEX
 8
MESH_161_F0
 10
-298.5394
 20
-24
 30
520.026
 70
192
 0
VERTEX
 8
MESH_161_F0
 10
-299.5
 20
-24
 30
500.5
 70
192
 0
VERTEX
 8
MESH_161_F0
 10
-299.5
 20
-24
 30
199.5
 70
192
 0
VERTEX
 8
MESH_161_F0
 10
-298.5394
 20
-24
 30
179.974
 70
192
 0
VERTEX
 8
MESH_161_F0
 10
-295.677
 20
-24
 30
160.6858
 70
192
 0
VERTEX
 8
MESH_161_F0
 10
-290.931
 20
-24
 30
141.7325
 70
192
 0
VERTEX
 8
MESH_161_F0
 10
-284.3517
 20
-24
 30
123.3448
 70
192
 0
VERTEX
 8
MESH_161_F0
 10
-276.0021
 20
-24
 30
105.6927
 70
192
 0
VERTEX
 8
MESH_161_F0
 10
-265.9623
 20
-24
 30
88.9415
 70
192
 0
VERTEX
 8
MESH_161_F0
 10
-254.3289
 20
-24
 30
73.2558
 70
192
 0
VERTEX
 8
MESH_161_F0
 10
-241.214
 20
-24
 30
58.786
 70
192
 0
VERTEX
 8
MESH_161_F0
 10
-226.7442
 20
-24
 30
45.6711
 70
192
 0
VERTEX
 8
MESH_161_F0
 10
-211.0585
 20
-24
 30
34.0377
 70
192
 0
VERTEX
 8
MESH_161_F0
 10
-194.3072
 20
-24
 30
23.9979
 70
192
 0
VERTEX
 8
MESH_161_F0
 10
-176.6552
 20
-24
 30
15.6483
 70
192
 0
VERTEX
 8
MESH_161_F0
 10
-158.2674
 20
-24
 30
9.069
 70
192
 0
VERTEX
 8
MESH_161_F0
 10
-139.3142
 20
-24
 30
4.323
 70
192
 0
VERTEX
 8
MESH_161_F0
 10
-120.026
 20
-24
 30
1.4606
 70
192
 0
VERTEX
 8
MESH_161_F0
 10
0
 20
0
 30
0
 70
128
 71
53
 72
1
 73
68
 74
68
 0
VERTEX
 8
MESH_161_F0
 10
0
 20
0
 30
0
 70
128
 71
66
 72
53
 73
67
 74
67
 0
VERTEX
 8
MESH_161_F0
 10
0
 20
0
 30
0
 70
128
 71
53
 72
68
 73
67
 74
67
 0
VERTEX
 8
MESH_161_F0
 10
0
 20
0
 30
0
 70
128
 71
2
 72
4
 73
3
 74
3
 0
VERTEX
 8
MESH_161_F0
 10
0
 20
0
 30
0
 70
128
 71
5
 72
4
 73
2
 74
2
 0
VERTEX
 8
MESH_161_F0
 10
0
 20
0
 30
0
 70
128
 71
5
 72
2
 73
6
 74
6
 0
VERTEX
 8
MESH_161_F0
 10
0
 20
0
 30
0
 70
128
 71
2
 72
7
 73
6
 74
6
 0
VERTEX
 8
MESH_161_F0
 10
0
 20
0
 30
0
 70
128
 71
8
 72
7
 73
2
 74
2
 0
VERTEX
 8
MESH_161_F0
 10
0
 20
0
 30
0
 70
128
 71
8
 72
2
 73
9
 74
9
 0
VERTEX
 8
MESH_161_F0
 10
0
 20
0
 30
0
 70
128
 71
2
 72
10
 73
9
 74
9
 0
VERTEX
 8
MESH_161_F0
 10
0
 20
0
 30
0
 70
128
 71
11
 72
10
 73
2
 74
2
 0
VERTEX
 8
MESH_161_F0
 10
0
 20
0
 30
0
 70
128
 71
11
 72
2
 73
12
 74
12
 0
VERTEX
 8
MESH_161_F0
 10
0
 20
0
 30
0
 70
128
 71
2
 72
13
 73
12
 74
12
 0
VERTEX
 8
MESH_161_F0
 10
0
 20
0
 30
0
 70
128
 71
14
 72
13
 73
2
 74
2
 0
VERTEX
 8
MESH_161_F0
 10
0
 20
0
 30
0
 70
128
 71
14
 72
2
 73
15
 74
15
 0
VERTEX
 8
MESH_161_F0
 10
0
 20
0
 30
0
 70
128
 71
2
 72
16
 73
15
 74
15
 0
VERTEX
 8
MESH_161_F0
 10
0
 20
0
 30
0
 70
128
 71
17
 72
16
 73
2
 74
2
 0
VERTEX
 8
MESH_161_F0
 10
0
 20
0
 30
0
 70
128
 71
17
 72
2
 73
18
 74
18
 0
VERTEX
 8
MESH_161_F0
 10
0
 20
0
 30
0
 70
128
 71
2
 72
53
 73
18
 74
18
 0
VERTEX
 8
MESH_161_F0
 10
0
 20
0
 30
0
 70
128
 71
53
 72
52
 73
18
 74
18
 0
VERTEX
 8
MESH_161_F0
 10
0
 20
0
 30
0
 70
128
 71
52
 72
19
 73
18
 74
18
 0
VERTEX
 8
MESH_161_F0
 10
0
 20
0
 30
0
 70
128
 71
36
 72
19
 73
52
 74
52
 0
VERTEX
 8
MESH_161_F0
 10
0
 20
0
 30
0
 70
128
 71
50
 72
36
 73
51
 74
51
 0
VERTEX
 8
MESH_161_F0
 10
0
 20
0
 30
0
 70
128
 71
36
 72
52
 73
51
 74
51
 0
VERTEX
 8
MESH_161_F0
 10
0
 20
0
 30
0
 70
128
 71
35
 72
19
 73
36
 74
36
 0
VERTEX
 8
MESH_161_F0
 10
0
 20
0
 30
0
 70
128
 71
20
 72
19
 73
35
 74
35
 0
VERTEX
 8
MESH_161_F0
 10
0
 20
0
 30
0
 70
128
 71
20
 72
35
 73
21
 74
21
 0
VERTEX
 8
MESH_161_F0
 10
0
 20
0
 30
0
 70
128
 71
35
 72
22
 73
21
 74
21
 0
VERTEX
 8
MESH_161_F0
 10
0
 20
0
 30
0
 70
128
 71
23
 72
22
 73
35
 74
35
 0
VERTEX
 8
MESH_161_F0
 10
0
 20
0
 30
0
 70
128
 71
23
 72
35
 73
24
 74
24
 0
VERTEX
 8
MESH_161_F0
 10
0
 20
0
 30
0
 70
128
 71
35
 72
25
 73
24
 74
24
 0
VERTEX
 8
MESH_161_F0
 10
0
 20
0
 30
0
 70
128
 71
26
 72
25
 73
35
 74
35
 0
VERTEX
 8
MESH_161_F0
 10
0
 20
0
 30
0
 70
128
 71
26
 72
35
 73
27
 74
27
 0
VERTEX
 8
MESH_161_F0
 10
0
 20
0
 30
0
 70
128
 71
35
 72
28
 73
27
 74
27
 0
VERTEX
 8
MESH_161_F0
 10
0
 20
0
 30
0
 70
128
 71
29
 72
28
 73
35
 74
35
 0
VERTEX
 8
MESH_161_F0
 10
0
 20
0
 30
0
 70
128
 71
29
 72
35
 73
30
 74
30
 0
VERTEX
 8
MESH_161_F0
 10
0
 20
0
 30
0
 70
128
 71
35
 72
31
 73
30
 74
30
 0
VERTEX
 8
MESH_161_F0
 10
0
 20
0
 30
0
 70
128
 71
32
 72
31
 73
35
 74
35
 0
VERTEX
 8
MESH_161_F0
 10
0
 20
0
 30
0
 70
128
 71
32
 72
35
 73
33
 74
33
 0
VERTEX
 8
MESH_161_F0
 10
0
 20
0
 30
0
 70
128
 71
35
 72
34
 73
33
 74
33
 0
VERTEX
 8
MESH_161_F0
 10
0
 20
0
 30
0
 70
128
 71
36
 72
38
 73
37
 74
37
 0
VERTEX
 8
MESH_161_F0
 10
0
 20
0
 30
0
 70
128
 71
39
 72
38
 73
36
 74
36
 0
VERTEX
 8
MESH_161_F0
 10
0
 20
0
 30
0
 70
128
 71
39
 72
36
 73
40
 74
40
 0
VERTEX
 8
MESH_161_F0
 10
0
 20
0
 30
0
 70
128
 71
36
 72
41
 73
40
 74
40
 0
VERTEX
 8
MESH_161_F0
 10
0
 20
0
 30
0
 70
128
 71
42
 72
41
 73
36
 74
36
 0
VERTEX
 8
MESH_161_F0
 10
0
 20
0
 30
0
 70
128
 71
42
 72
36
 73
43
 74
43
 0
VERTEX
 8
MESH_161_F0
 10
0
 20
0
 30
0
 70
128
 71
36
 72
44
 73
43
 74
43
 0
VERTEX
 8
MESH_161_F0
 10
0
 20
0
 30
0
 70
128
 71
45
 72
44
 73
36
 74
36
 0
VERTEX
 8
MESH_161_F0
 10
0
 20
0
 30
0
 70
128
 71
45
 72
36
 73
46
 74
46
 0
VERTEX
 8
MESH_161_F0
 10
0
 20
0
 30
0
 70
128
 71
36
 72
47
 73
46
 74
46
 0
VERTEX
 8
MESH_161_F0
 10
0
 20
0
 30
0
 70
128
 71
48
 72
47
 73
36
 74
36
 0
VERTEX
 8
MESH_161_F0
 10
0
 20
0
 30
0
 70
128
 71
48
 72
36
 73
49
 74
49
 0
VERTEX
 8
MESH_161_F0
 10
0
 20
0
 30
0
 70
128
 71
36
 72
50
 73
49
 74
49
 0
VERTEX
 8
MESH_161_F0
 10
0
 20
0
 30
0
 70
128
 71
53
 72
55
 73
54
 74
54
 0
VERTEX
 8
MESH_161_F0
 10
0
 20
0
 30
0
 70
128
 71
56
 72
55
 73
53
 74
53
 0
VERTEX
 8
MESH_161_F0
 10
0
 20
0
 30
0
 70
128
 71
56
 72
53
 73
57
 74
57
 0
VERTEX
 8
MESH_161_F0
 10
0
 20
0
 30
0
 70
128
 71
53
 72
58
 73
57
 74
57
 0
VERTEX
 8
MESH_161_F0
 10
0
 20
0
 30
0
 70
128
 71
59
 72
58
 73
53
 74
53
 0
VERTEX
 8
MESH_161_F0
 10
0
 20
0
 30
0
 70
128
 71
59
 72
53
 73
60
 74
60
 0
VERTEX
 8
MESH_161_F0
 10
0
 20
0
 30
0
 70
128
 71
53
 72
61
 73
60
 74
60
 0
VERTEX
 8
MESH_161_F0
 10
0
 20
0
 30
0
 70
128
 71
62
 72
61
 73
53
 74
53
 0
VERTEX
 8
MESH_161_F0
 10
0
 20
0
 30
0
 70
128
 71
62
 72
53
 73
63
 74
63
 0
VERTEX
 8
MESH_161_F0
 10
0
 20
0
 30
0
 70
128
 71
53
 72
64
 73
63
 74
63
 0
VERTEX
 8
MESH_161_F0
 10
0
 20
0
 30
0
 70
128
 71
65
 72
64
 73
53
 74
53
 0
VERTEX
 8
MESH_161_F0
 10
0
 20
0
 30
0
 70
128
 71
65
 72
53
 73
66
 74
66
 0
VERTEX
 8
MESH_161_F0
 10
0
 20
0
 30
0
 70
128
 71
2
 72
1
 73
53
 74
53
 0
SEQEND
 0
POLYLINE
 8
MESH_160_F0
 66
1
 10
0.0
 20
0.0
 30
0.0
 70
64
 71
27
 72
25
 0
VERTEX
 8
MESH_160_F0
 10
299.5
 20
-20
 30
199.5
 70
192
 0
VERTEX
 8
MESH_160_F0
 10
299.5
 20
-24
 30
199.5
 70
192
 0
VERTEX
 8
MESH_160_F0
 10
298.5394
 20
-24
 30
179.974
 70
192
 0
VERTEX
 8
MESH_160_F0
 10
295.677
 20
-24
 30
160.6858
 70
192
 0
VERTEX
 8
MESH_160_F0
 10
290.931
 20
-24
 30
141.7325
 70
192
 0
VERTEX
 8
MESH_160_F0
 10
284.3517
 20
-24
 30
123.3448
 70
192
 0
VERTEX
 8
MESH_160_F0
 10
276.0021
 20
-24
 30
105.6927
 70
192
 0
VERTEX
 8
MESH_160_F0
 10
265.9623
 20
-24
 30
88.9415
 70
192
 0
VERTEX
 8
MESH_160_F0
 10
254.3289
 20
-24
 30
73.2558
 70
192
 0
VERTEX
 8
MESH_160_F0
 10
241.214
 20
-24
 30
58.786
 70
192
 0
VERTEX
 8
MESH_160_F0
 10
226.7442
 20
-24
 30
45.6711
 70
192
 0
VERTEX
 8
MESH_160_F0
 10
211.0585
 20
-24
 30
34.0377
 70
192
 0
VERTEX
 8
MESH_160_F0
 10
194.3072
 20
-24
 30
23.9979
 70
192
 0
VERTEX
 8
MESH_160_F0
 10
176.6552
 20
-24
 30
15.6483
 70
192
 0
VERTEX
 8
MESH_160_F0
 10
158.2674
 20
-24
 30
9.069
 70
192
 0
VERTEX
 8
MESH_160_F0
 10
139.3142
 20
-24
 30
4.323
 70
192
 0
VERTEX
 8
MESH_160_F0
 10
120.026
 20
-24
 30
1.4606
 70
192
 0
VERTEX
 8
MESH_160_F0
 10
100.5
 20
-24
 30
0.5
 70
192
 0
VERTEX
 8
MESH_160_F0
 10
100.5
 20
-20
 30
0.5
 70
192
 0
VERTEX
 8
MESH_160_F0
 10
135.056
 20
-20
 30
3.5233
 70
192
 0
VERTEX
 8
MESH_160_F0
 10
168.562
 20
-20
 30
12.5012
 70
192
 0
VERTEX
 8
MESH_160_F0
 10
200
 20
-20
 30
27.1609
 70
192
 0
VERTEX
 8
MESH_160_F0
 10
228.4147
 20
-20
 30
47.0572
 70
192
 0
VERTEX
 8
MESH_160_F0
 10
252.9428
 20
-20
 30
71.5853
 70
192
 0
VERTEX
 8
MESH_160_F0
 10
272.8391
 20
-20
 30
100
 70
192
 0
VERTEX
 8
MESH_160_F0
 10
287.4988
 20
-20
 30
131.438
 70
192
 0
VERTEX
 8
MESH_160_F0
 10
296.4767
 20
-20
 30
164.944
 70
192
 0
VERTEX
 8
MESH_160_F0
 10
0
 20
0
 30
0
 70
128
 71
1
 72
3
 73
2
 74
2
 0
VERTEX
 8
MESH_160_F0
 10
0
 20
0
 30
0
 70
128
 71
27
 72
3
 73
1
 74
1
 0
VERTEX
 8
MESH_160_F0
 10
0
 20
0
 30
0
 70
128
 71
4
 72
3
 73
27
 74
27
 0
VERTEX
 8
MESH_160_F0
 10
0
 20
0
 30
0
 70
128
 71
4
 72
27
 73
5
 74
5
 0
VERTEX
 8
MESH_160_F0
 10
0
 20
0
 30
0
 70
128
 71
27
 72
26
 73
5
 74
5
 0
VERTEX
 8
MESH_160_F0
 10
0
 20
0
 30
0
 70
128
 71
26
 72
6
 73
5
 74
5
 0
VERTEX
 8
MESH_160_F0
 10
0
 20
0
 30
0
 70
128
 71
7
 72
6
 73
26
 74
26
 0
VERTEX
 8
MESH_160_F0
 10
0
 20
0
 30
0
 70
128
 71
8
 72
7
 73
25
 74
25
 0
VERTEX
 8
MESH_160_F0
 10
0
 20
0
 30
0
 70
128
 71
9
 72
8
 73
24
 74
24
 0
VERTEX
 8
MESH_160_F0
 10
0
 20
0
 30
0
 70
128
 71
9
 72
24
 73
10
 74
10
 0
VERTEX
 8
MESH_160_F0
 10
0
 20
0
 30
0
 70
128
 71
24
 72
23
 73
10
 74
10
 0
VERTEX
 8
MESH_160_F0
 10
0
 20
0
 30
0
 70
128
 71
23
 72
11
 73
10
 74
10
 0
VERTEX
 8
MESH_160_F0
 10
0
 20
0
 30
0
 70
128
 71
12
 72
11
 73
23
 74
23
 0
VERTEX
 8
MESH_160_F0
 10
0
 20
0
 30
0
 70
128
 71
13
 72
12
 73
22
 74
22
 0
VERTEX
 8
MESH_160_F0
 10
0
 20
0
 30
0
 70
128
 71
13
 72
22
 73
14
 74
14
 0
VERTEX
 8
MESH_160_F0
 10
0
 20
0
 30
0
 70
128
 71
22
 72
21
 73
14
 74
14
 0
VERTEX
 8
MESH_160_F0
 10
0
 20
0
 30
0
 70
128
 71
21
 72
15
 73
14
 74
14
 0
VERTEX
 8
MESH_160_F0
 10
0
 20
0
 30
0
 70
128
 71
20
 72
15
 73
21
 74
21
 0
VERTEX
 8
MESH_160_F0
 10
0
 20
0
 30
0
 70
128
 71
16
 72
15
 73
20
 74
20
 0
VERTEX
 8
MESH_160_F0
 10
0
 20
0
 30
0
 70
128
 71
16
 72
20
 73
17
 74
17
 0
VERTEX
 8
MESH_160_F0
 10
0
 20
0
 30
0
 70
128
 71
20
 72
19
 73
17
 74
17
 0
VERTEX
 8
MESH_160_F0
 10
0
 20
0
 30
0
 70
128
 71
19
 72
18
 73
17
 74
17
 0
VERTEX
 8
MESH_160_F0
 10
0
 20
0
 30
0
 70
128
 71
12
 72
23
 73
22
 74
22
 0
VERTEX
 8
MESH_160_F0
 10
0
 20
0
 30
0
 70
128
 71
8
 72
25
 73
24
 74
24
 0
VERTEX
 8
MESH_160_F0
 10
0
 20
0
 30
0
 70
128
 71
7
 72
26
 73
25
 74
25
 0
SEQEND
 0
POLYLINE
 8
MESH_159_F0
 66
1
 10
0.0
 20
0.0
 30
0.0
 70
64
 71
4
 72
2
 0
VERTEX
 8
MESH_159_F0
 10
100.5
 20
-20
 30
0.5
 70
192
 0
VERTEX
 8
MESH_159_F0
 10
100.5
 20
-24
 30
0.5
 70
192
 0
VERTEX
 8
MESH_159_F0
 10
-100.5
 20
-24
 30
0.5
 70
192
 0
VERTEX
 8
MESH_159_F0
 10
-100.5
 20
-20
 30
0.5
 70
192
 0
VERTEX
 8
MESH_159_F0
 10
0
 20
0
 30
0
 70
128
 71
4
 72
2
 73
1
 74
1
 0
VERTEX
 8
MESH_159_F0
 10
0
 20
0
 30
0
 70
128
 71
3
 72
2
 73
4
 74
4
 0
SEQEND
 0
POLYLINE
 8
MESH_158_F0
 66
1
 10
0.0
 20
0.0
 30
0.0
 70
64
 71
27
 72
25
 0
VERTEX
 8
MESH_158_F0
 10
-100.5
 20
-20
 30
0.5
 70
192
 0
VERTEX
 8
MESH_158_F0
 10
-100.5
 20
-24
 30
0.5
 70
192
 0
VERTEX
 8
MESH_158_F0
 10
-120.026
 20
-24
 30
1.4606
 70
192
 0
VERTEX
 8
MESH_158_F0
 10
-139.3142
 20
-24
 30
4.323
 70
192
 0
VERTEX
 8
MESH_158_F0
 10
-158.2674
 20
-24
 30
9.069
 70
192
 0
VERTEX
 8
MESH_158_F0
 10
-176.6552
 20
-24
 30
15.6483
 70
192
 0
VERTEX
 8
MESH_158_F0
 10
-194.3072
 20
-24
 30
23.9979
 70
192
 0
VERTEX
 8
MESH_158_F0
 10
-211.0585
 20
-24
 30
34.0377
 70
192
 0
VERTEX
 8
MESH_158_F0
 10
-226.7442
 20
-24
 30
45.6711
 70
192
 0
VERTEX
 8
MESH_158_F0
 10
-241.214
 20
-24
 30
58.786
 70
192
 0
VERTEX
 8
MESH_158_F0
 10
-254.3289
 20
-24
 30
73.2558
 70
192
 0
VERTEX
 8
MESH_158_F0
 10
-265.9623
 20
-24
 30
88.9415
 70
192
 0
VERTEX
 8
MESH_158_F0
 10
-276.0021
 20
-24
 30
105.6927
 70
192
 0
VERTEX
 8
MESH_158_F0
 10
-284.3517
 20
-24
 30
123.3448
 70
192
 0
VERTEX
 8
MESH_158_F0
 10
-290.931
 20
-24
 30
141.7325
 70
192
 0
VERTEX
 8
MESH_158_F0
 10
-295.677
 20
-24
 30
160.6858
 70
192
 0
VERTEX
 8
MESH_158_F0
 10
-298.5394
 20
-24
 30
179.974
 70
192
 0
VERTEX
 8
MESH_158_F0
 10
-299.5
 20
-24
 30
199.5
 70
192
 0
VERTEX
 8
MESH_158_F0
 10
-299.5
 20
-20
 30
199.5
 70
192
 0
VERTEX
 8
MESH_158_F0
 10
-296.4767
 20
-20
 30
164.944
 70
192
 0
VERTEX
 8
MESH_158_F0
 10
-287.4988
 20
-20
 30
131.438
 70
192
 0
VERTEX
 8
MESH_158_F0
 10
-272.8391
 20
-20
 30
100
 70
192
 0
VERTEX
 8
MESH_158_F0
 10
-252.9428
 20
-20
 30
71.5853
 70
192
 0
VERTEX
 8
MESH_158_F0
 10
-228.4147
 20
-20
 30
47.0572
 70
192
 0
VERTEX
 8
MESH_158_F0
 10
-200
 20
-20
 30
27.1609
 70
192
 0
VERTEX
 8
MESH_158_F0
 10
-168.562
 20
-20
 30
12.5012
 70
192
 0
VERTEX
 8
MESH_158_F0
 10
-135.056
 20
-20
 30
3.5233
 70
192
 0
VERTEX
 8
MESH_158_F0
 10
0
 20
0
 30
0
 70
128
 71
1
 72
3
 73
2
 74
2
 0
VERTEX
 8
MESH_158_F0
 10
0
 20
0
 30
0
 70
128
 71
27
 72
3
 73
1
 74
1
 0
VERTEX
 8
MESH_158_F0
 10
0
 20
0
 30
0
 70
128
 71
4
 72
3
 73
27
 74
27
 0
VERTEX
 8
MESH_158_F0
 10
0
 20
0
 30
0
 70
128
 71
4
 72
27
 73
5
 74
5
 0
VERTEX
 8
MESH_158_F0
 10
0
 20
0
 30
0
 70
128
 71
27
 72
26
 73
5
 74
5
 0
VERTEX
 8
MESH_158_F0
 10
0
 20
0
 30
0
 70
128
 71
26
 72
6
 73
5
 74
5
 0
VERTEX
 8
MESH_158_F0
 10
0
 20
0
 30
0
 70
128
 71
7
 72
6
 73
26
 74
26
 0
VERTEX
 8
MESH_158_F0
 10
0
 20
0
 30
0
 70
128
 71
8
 72
7
 73
25
 74
25
 0
VERTEX
 8
MESH_158_F0
 10
0
 20
0
 30
0
 70
128
 71
9
 72
8
 73
24
 74
24
 0
VERTEX
 8
MESH_158_F0
 10
0
 20
0
 30
0
 70
128
 71
9
 72
24
 73
10
 74
10
 0
VERTEX
 8
MESH_158_F0
 10
0
 20
0
 30
0
 70
128
 71
24
 72
23
 73
10
 74
10
 0
VERTEX
 8
MESH_158_F0
 10
0
 20
0
 30
0
 70
128
 71
23
 72
11
 73
10
 74
10
 0
VERTEX
 8
MESH_158_F0
 10
0
 20
0
 30
0
 70
128
 71
12
 72
11
 73
23
 74
23
 0
VERTEX
 8
MESH_158_F0
 10
0
 20
0
 30
0
 70
128
 71
13
 72
12
 73
22
 74
22
 0
VERTEX
 8
MESH_158_F0
 10
0
 20
0
 30
0
 70
128
 71
13
 72
22
 73
14
 74
14
 0
VERTEX
 8
MESH_158_F0
 10
0
 20
0
 30
0
 70
128
 71
22
 72
21
 73
14
 74
14
 0
VERTEX
 8
MESH_158_F0
 10
0
 20
0
 30
0
 70
128
 71
21
 72
15
 73
14
 74
14
 0
VERTEX
 8
MESH_158_F0
 10
0
 20
0
 30
0
 70
128
 71
20
 72
15
 73
21
 74
21
 0
VERTEX
 8
MESH_158_F0
 10
0
 20
0
 30
0
 70
128
 71
16
 72
15
 73
20
 74
20
 0
VERTEX
 8
MESH_158_F0
 10
0
 20
0
 30
0
 70
128
 71
16
 72
20
 73
17
 74
17
 0
VERTEX
 8
MESH_158_F0
 10
0
 20
0
 30
0
 70
128
 71
20
 72
19
 73
17
 74
17
 0
VERTEX
 8
MESH_158_F0
 10
0
 20
0
 30
0
 70
128
 71
19
 72
18
 73
17
 74
17
 0
VERTEX
 8
MESH_158_F0
 10
0
 20
0
 30
0
 70
128
 71
12
 72
23
 73
22
 74
22
 0
VERTEX
 8
MESH_158_F0
 10
0
 20
0
 30
0
 70
128
 71
8
 72
25
 73
24
 74
24
 0
VERTEX
 8
MESH_158_F0
 10
0
 20
0
 30
0
 70
128
 71
7
 72
26
 73
25
 74
25
 0
SEQEND
 0
POLYLINE
 8
MESH_157_F0
 66
1
 10
0.0
 20
0.0
 30
0.0
 70
64
 71
4
 72
2
 0
VERTEX
 8
MESH_157_F0
 10
-299.5
 20
-20
 30
199.5
 70
192
 0
VERTEX
 8
MESH_157_F0
 10
-299.5
 20
-24
 30
199.5
 70
192
 0
VERTEX
 8
MESH_157_F0
 10
-299.5
 20
-24
 30
500.5
 70
192
 0
VERTEX
 8
MESH_157_F0
 10
-299.5
 20
-20
 30
500.5
 70
192
 0
VERTEX
 8
MESH_157_F0
 10
0
 20
0
 30
0
 70
128
 71
4
 72
2
 73
1
 74
1
 0
VERTEX
 8
MESH_157_F0
 10
0
 20
0
 30
0
 70
128
 71
3
 72
2
 73
4
 74
4
 0
SEQEND
 0
POLYLINE
 8
MESH_156_F0
 66
1
 10
0.0
 20
0.0
 30
0.0
 70
64
 71
27
 72
25
 0
VERTEX
 8
MESH_156_F0
 10
-299.5
 20
-20
 30
500.5
 70
192
 0
VERTEX
 8
MESH_156_F0
 10
-299.5
 20
-24
 30
500.5
 70
192
 0
VERTEX
 8
MESH_156_F0
 10
-298.5394
 20
-24
 30
520.026
 70
192
 0
VERTEX
 8
MESH_156_F0
 10
-295.677
 20
-24
 30
539.3142
 70
192
 0
VERTEX
 8
MESH_156_F0
 10
-290.931
 20
-24
 30
558.2675
 70
192
 0
VERTEX
 8
MESH_156_F0
 10
-284.3517
 20
-24
 30
576.6552
 70
192
 0
VERTEX
 8
MESH_156_F0
 10
-276.0021
 20
-24
 30
594.3073
 70
192
 0
VERTEX
 8
MESH_156_F0
 10
-265.9623
 20
-24
 30
611.0585
 70
192
 0
VERTEX
 8
MESH_156_F0
 10
-254.3289
 20
-24
 30
626.7443
 70
192
 0
VERTEX
 8
MESH_156_F0
 10
-241.214
 20
-24
 30
641.214
 70
192
 0
VERTEX
 8
MESH_156_F0
 10
-226.7442
 20
-24
 30
654.3289
 70
192
 0
VERTEX
 8
MESH_156_F0
 10
-211.0585
 20
-24
 30
665.9623
 70
192
 0
VERTEX
 8
MESH_156_F0
 10
-194.3072
 20
-24
 30
676.0021
 70
192
 0
VERTEX
 8
MESH_156_F0
 10
-176.6552
 20
-24
 30
684.3517
 70
192
 0
VERTEX
 8
MESH_156_F0
 10
-158.2674
 20
-24
 30
690.931
 70
192
 0
VERTEX
 8
MESH_156_F0
 10
-139.3142
 20
-24
 30
695.677
 70
192
 0
VERTEX
 8
MESH_156_F0
 10
-120.026
 20
-24
 30
698.5394
 70
192
 0
VERTEX
 8
MESH_156_F0
 10
-100.5
 20
-24
 30
699.5
 70
192
 0
VERTEX
 8
MESH_156_F0
 10
-100.5
 20
-20
 30
699.5
 70
192
 0
VERTEX
 8
MESH_156_F0
 10
-135.056
 20
-20
 30
696.4767
 70
192
 0
VERTEX
 8
MESH_156_F0
 10
-168.562
 20
-20
 30
687.4988
 70
192
 0
VERTEX
 8
MESH_156_F0
 10
-200
 20
-20
 30
672.8391
 70
192
 0
VERTEX
 8
MESH_156_F0
 10
-228.4147
 20
-20
 30
652.9428
 70
192
 0
VERTEX
 8
MESH_156_F0
 10
-252.9428
 20
-20
 30
628.4147
 70
192
 0
VERTEX
 8
MESH_156_F0
 10
-272.8391
 20
-20
 30
600
 70
192
 0
VERTEX
 8
MESH_156_F0
 10
-287.4988
 20
-20
 30
568.562
 70
192
 0
VERTEX
 8
MESH_156_F0
 10
-296.4767
 20
-20
 30
535.056
 70
192
 0
VERTEX
 8
MESH_156_F0
 10
0
 20
0
 30
0
 70
128
 71
1
 72
3
 73
2
 74
2
 0
VERTEX
 8
MESH_156_F0
 10
0
 20
0
 30
0
 70
128
 71
27
 72
3
 73
1
 74
1
 0
VERTEX
 8
MESH_156_F0
 10
0
 20
0
 30
0
 70
128
 71
4
 72
3
 73
27
 74
27
 0
VERTEX
 8
MESH_156_F0
 10
0
 20
0
 30
0
 70
128
 71
4
 72
27
 73
5
 74
5
 0
VERTEX
 8
MESH_156_F0
 10
0
 20
0
 30
0
 70
128
 71
27
 72
26
 73
5
 74
5
 0
VERTEX
 8
MESH_156_F0
 10
0
 20
0
 30
0
 70
128
 71
26
 72
6
 73
5
 74
5
 0
VERTEX
 8
MESH_156_F0
 10
0
 20
0
 30
0
 70
128
 71
7
 72
6
 73
26
 74
26
 0
VERTEX
 8
MESH_156_F0
 10
0
 20
0
 30
0
 70
128
 71
8
 72
7
 73
25
 74
25
 0
VERTEX
 8
MESH_156_F0
 10
0
 20
0
 30
0
 70
128
 71
9
 72
8
 73
24
 74
24
 0
VERTEX
 8
MESH_156_F0
 10
0
 20
0
 30
0
 70
128
 71
9
 72
24
 73
10
 74
10
 0
VERTEX
 8
MESH_156_F0
 10
0
 20
0
 30
0
 70
128
 71
24
 72
23
 73
10
 74
10
 0
VERTEX
 8
MESH_156_F0
 10
0
 20
0
 30
0
 70
128
 71
23
 72
11
 73
10
 74
10
 0
VERTEX
 8
MESH_156_F0
 10
0
 20
0
 30
0
 70
128
 71
12
 72
11
 73
23
 74
23
 0
VERTEX
 8
MESH_156_F0
 10
0
 20
0
 30
0
 70
128
 71
13
 72
12
 73
22
 74
22
 0
VERTEX
 8
MESH_156_F0
 10
0
 20
0
 30
0
 70
128
 71
13
 72
22
 73
14
 74
14
 0
VERTEX
 8
MESH_156_F0
 10
0
 20
0
 30
0
 70
128
 71
22
 72
21
 73
14
 74
14
 0
VERTEX
 8
MESH_156_F0
 10
0
 20
0
 30
0
 70
128
 71
21
 72
15
 73
14
 74
14
 0
VERTEX
 8
MESH_156_F0
 10
0
 20
0
 30
0
 70
128
 71
20
 72
15
 73
21
 74
21
 0
VERTEX
 8
MESH_156_F0
 10
0
 20
0
 30
0
 70
128
 71
16
 72
15
 73
20
 74
20
 0
VERTEX
 8
MESH_156_F0
 10
0
 20
0
 30
0
 70
128
 71
16
 72
20
 73
17
 74
17
 0
VERTEX
 8
MESH_156_F0
 10
0
 20
0
 30
0
 70
128
 71
20
 72
19
 73
17
 74
17
 0
VERTEX
 8
MESH_156_F0
 10
0
 20
0
 30
0
 70
128
 71
19
 72
18
 73
17
 74
17
 0
VERTEX
 8
MESH_156_F0
 10
0
 20
0
 30
0
 70
128
 71
12
 72
23
 73
22
 74
22
 0
VERTEX
 8
MESH_156_F0
 10
0
 20
0
 30
0
 70
128
 71
8
 72
25
 73
24
 74
24
 0
VERTEX
 8
MESH_156_F0
 10
0
 20
0
 30
0
 70
128
 71
7
 72
26
 73
25
 74
25
 0
SEQEND
 0
POLYLINE
 8
MESH_155_F0
 66
1
 10
0.0
 20
0.0
 30
0.0
 70
64
 71
4
 72
2
 0
VERTEX
 8
MESH_155_F0
 10
-100.5
 20
-20
 30
699.5
 70
192
 0
VERTEX
 8
MESH_155_F0
 10
-100.5
 20
-24
 30
699.5
 70
192
 0
VERTEX
 8
MESH_155_F0
 10
100.5
 20
-24
 30
699.5
 70
192
 0
VERTEX
 8
MESH_155_F0
 10
100.5
 20
-20
 30
699.5
 70
192
 0
VERTEX
 8
MESH_155_F0
 10
0
 20
0
 30
0
 70
128
 71
4
 72
2
 73
1
 74
1
 0
VERTEX
 8
MESH_155_F0
 10
0
 20
0
 30
0
 70
128
 71
3
 72
2
 73
4
 74
4
 0
SEQEND
 0
POLYLINE
 8
MESH_154_F0
 66
1
 10
0.0
 20
0.0
 30
0.0
 70
64
 71
27
 72
25
 0
VERTEX
 8
MESH_154_F0
 10
100.5
 20
-20
 30
699.5
 70
192
 0
VERTEX
 8
MESH_154_F0
 10
100.5
 20
-24
 30
699.5
 70
192
 0
VERTEX
 8
MESH_154_F0
 10
120.026
 20
-24
 30
698.5394
 70
192
 0
VERTEX
 8
MESH_154_F0
 10
139.3142
 20
-24
 30
695.677
 70
192
 0
VERTEX
 8
MESH_154_F0
 10
158.2674
 20
-24
 30
690.931
 70
192
 0
VERTEX
 8
MESH_154_F0
 10
176.6552
 20
-24
 30
684.3517
 70
192
 0
VERTEX
 8
MESH_154_F0
 10
194.3072
 20
-24
 30
676.0021
 70
192
 0
VERTEX
 8
MESH_154_F0
 10
211.0585
 20
-24
 30
665.9623
 70
192
 0
VERTEX
 8
MESH_154_F0
 10
226.7442
 20
-24
 30
654.3289
 70
192
 0
VERTEX
 8
MESH_154_F0
 10
241.214
 20
-24
 30
641.214
 70
192
 0
VERTEX
 8
MESH_154_F0
 10
254.3289
 20
-24
 30
626.7443
 70
192
 0
VERTEX
 8
MESH_154_F0
 10
265.9623
 20
-24
 30
611.0585
 70
192
 0
VERTEX
 8
MESH_154_F0
 10
276.0021
 20
-24
 30
594.3073
 70
192
 0
VERTEX
 8
MESH_154_F0
 10
284.3517
 20
-24
 30
576.6552
 70
192
 0
VERTEX
 8
MESH_154_F0
 10
290.931
 20
-24
 30
558.2675
 70
192
 0
VERTEX
 8
MESH_154_F0
 10
295.677
 20
-24
 30
539.3142
 70
192
 0
VERTEX
 8
MESH_154_F0
 10
298.5394
 20
-24
 30
520.026
 70
192
 0
VERTEX
 8
MESH_154_F0
 10
299.5
 20
-24
 30
500.5
 70
192
 0
VERTEX
 8
MESH_154_F0
 10
299.5
 20
-20
 30
500.5
 70
192
 0
VERTEX
 8
MESH_154_F0
 10
296.4767
 20
-20
 30
535.056
 70
192
 0
VERTEX
 8
MESH_154_F0
 10
287.4988
 20
-20
 30
568.562
 70
192
 0
VERTEX
 8
MESH_154_F0
 10
272.8391
 20
-20
 30
600
 70
192
 0
VERTEX
 8
MESH_154_F0
 10
252.9428
 20
-20
 30
628.4147
 70
192
 0
VERTEX
 8
MESH_154_F0
 10
228.4147
 20
-20
 30
652.9428
 70
192
 0
VERTEX
 8
MESH_154_F0
 10
200
 20
-20
 30
672.8391
 70
192
 0
VERTEX
 8
MESH_154_F0
 10
168.562
 20
-20
 30
687.4988
 70
192
 0
VERTEX
 8
MESH_154_F0
 10
135.056
 20
-20
 30
696.4767
 70
192
 0
VERTEX
 8
MESH_154_F0
 10
0
 20
0
 30
0
 70
128
 71
1
 72
3
 73
2
 74
2
 0
VERTEX
 8
MESH_154_F0
 10
0
 20
0
 30
0
 70
128
 71
27
 72
3
 73
1
 74
1
 0
VERTEX
 8
MESH_154_F0
 10
0
 20
0
 30
0
 70
128
 71
4
 72
3
 73
27
 74
27
 0
VERTEX
 8
MESH_154_F0
 10
0
 20
0
 30
0
 70
128
 71
4
 72
27
 73
5
 74
5
 0
VERTEX
 8
MESH_154_F0
 10
0
 20
0
 30
0
 70
128
 71
27
 72
26
 73
5
 74
5
 0
VERTEX
 8
MESH_154_F0
 10
0
 20
0
 30
0
 70
128
 71
26
 72
6
 73
5
 74
5
 0
VERTEX
 8
MESH_154_F0
 10
0
 20
0
 30
0
 70
128
 71
7
 72
6
 73
26
 74
26
 0
VERTEX
 8
MESH_154_F0
 10
0
 20
0
 30
0
 70
128
 71
8
 72
7
 73
25
 74
25
 0
VERTEX
 8
MESH_154_F0
 10
0
 20
0
 30
0
 70
128
 71
9
 72
8
 73
24
 74
24
 0
VERTEX
 8
MESH_154_F0
 10
0
 20
0
 30
0
 70
128
 71
9
 72
24
 73
10
 74
10
 0
VERTEX
 8
MESH_154_F0
 10
0
 20
0
 30
0
 70
128
 71
24
 72
23
 73
10
 74
10
 0
VERTEX
 8
MESH_154_F0
 10
0
 20
0
 30
0
 70
128
 71
23
 72
11
 73
10
 74
10
 0
VERTEX
 8
MESH_154_F0
 10
0
 20
0
 30
0
 70
128
 71
12
 72
11
 73
23
 74
23
 0
VERTEX
 8
MESH_154_F0
 10
0
 20
0
 30
0
 70
128
 71
13
 72
12
 73
22
 74
22
 0
VERTEX
 8
MESH_154_F0
 10
0
 20
0
 30
0
 70
128
 71
13
 72
22
 73
14
 74
14
 0
VERTEX
 8
MESH_154_F0
 10
0
 20
0
 30
0
 70
128
 71
22
 72
21
 73
14
 74
14
 0
VERTEX
 8
MESH_154_F0
 10
0
 20
0
 30
0
 70
128
 71
21
 72
15
 73
14
 74
14
 0
VERTEX
 8
MESH_154_F0
 10
0
 20
0
 30
0
 70
128
 71
20
 72
15
 73
21
 74
21
 0
VERTEX
 8
MESH_154_F0
 10
0
 20
0
 30
0
 70
128
 71
16
 72
15
 73
20
 74
20
 0
VERTEX
 8
MESH_154_F0
 10
0
 20
0
 30
0
 70
128
 71
16
 72
20
 73
17
 74
17
 0
VERTEX
 8
MESH_154_F0
 10
0
 20
0
 30
0
 70
128
 71
20
 72
19
 73
17
 74
17
 0
VERTEX
 8
MESH_154_F0
 10
0
 20
0
 30
0
 70
128
 71
19
 72
18
 73
17
 74
17
 0
VERTEX
 8
MESH_154_F0
 10
0
 20
0
 30
0
 70
128
 71
12
 72
23
 73
22
 74
22
 0
VERTEX
 8
MESH_154_F0
 10
0
 20
0
 30
0
 70
128
 71
8
 72
25
 73
24
 74
24
 0
VERTEX
 8
MESH_154_F0
 10
0
 20
0
 30
0
 70
128
 71
7
 72
26
 73
25
 74
25
 0
SEQEND
 0
POLYLINE
 8
MESH_153_F0
 66
1
 10
0.0
 20
0.0
 30
0.0
 70
64
 71
4
 72
2
 0
VERTEX
 8
MESH_153_F0
 10
299.5
 20
-20
 30
500.5
 70
192
 0
VERTEX
 8
MESH_153_F0
 10
299.5
 20
-24
 30
500.5
 70
192
 0
VERTEX
 8
MESH_153_F0
 10
299.5
 20
-24
 30
199.5
 70
192
 0
VERTEX
 8
MESH_153_F0
 10
299.5
 20
-20
 30
199.5
 70
192
 0
VERTEX
 8
MESH_153_F0
 10
0
 20
0
 30
0
 70
128
 71
4
 72
2
 73
1
 74
1
 0
VERTEX
 8
MESH_153_F0
 10
0
 20
0
 30
0
 70
128
 71
3
 72
2
 73
4
 74
4
 0
SEQEND
 0
POLYLINE
 8
T7825_3DPL_F0
 66
1
 10
0.0
 20
0.0
 30
0.0
 70
64
 71
12
 72
6
 0
VERTEX
 8
T7825_3DPL_F0
 10
-10
 20
10
 30
0
 70
192
 0
VERTEX
 8
T7825_3DPL_F0
 10
-10
 20
-10
 30
0
 70
192
 0
VERTEX
 8
T7825_3DPL_F0
 10
10
 20
-10
 30
0
 70
192
 0
VERTEX
 8
T7825_3DPL_F0
 10
10
 20
10
 30
0
 70
192
 0
VERTEX
 8
T7825_3DPL_F0
 10
-10
 20
0
 30
10
 70
192
 0
VERTEX
 8
T7825_3DPL_F0
 10
10
 20
0
 30
10
 70
192
 0
VERTEX
 8
T7825_3DPL_F0
 10
10
 20
0
 30
-10
 70
192
 0
VERTEX
 8
T7825_3DPL_F0
 10
-10
 20
0
 30
-10
 70
192
 0
VERTEX
 8
T7825_3DPL_F0
 10
0
 20
10
 30
10
 70
192
 0
VERTEX
 8
T7825_3DPL_F0
 10
0
 20
-10
 30
10
 70
192
 0
VERTEX
 8
T7825_3DPL_F0
 10
0
 20
-10
 30
-10
 70
192
 0
VERTEX
 8
T7825_3DPL_F0
 10
0
 20
10
 30
-10
 70
192
 0
VERTEX
 8
T7825_3DPL_F0
 10
0
 20
0
 30
0
 70
128
 71
4
 72
2
 73
1
 74
1
 0
VERTEX
 8
T7825_3DPL_F0
 10
0
 20
0
 30
0
 70
128
 71
3
 72
2
 73
4
 74
4
 0
VERTEX
 8
T7825_3DPL_F0
 10
0
 20
0
 30
0
 70
128
 71
8
 72
6
 73
5
 74
5
 0
VERTEX
 8
T7825_3DPL_F0
 10
0
 20
0
 30
0
 70
128
 71
7
 72
6
 73
8
 74
8
 0
VERTEX
 8
T7825_3DPL_F0
 10
0
 20
0
 30
0
 70
128
 71
12
 72
10
 73
9
 74
9
 0
VERTEX
 8
T7825_3DPL_F0
 10
0
 20
0
 30
0
 70
128
 71
11
 72
10
 73
12
 74
12
 0
SEQEND
 0
ENDSEC
 0
EOF
