 0
SECTION
 2
HEADER
 9
$ACADVER
 1
AC1009
 0
ENDSEC
 0
SECTION
 2
TABLES
 0
TABLE
 2
LTYPE
 70
1
 0
LTYPE
 2
CONTINUOUS
 70
64
 3
solid line
 72
65
 73
0
 40
0.0
 0
ENDTAB
 0
TABLE
 2
LAYER
 70
6
 0
LAYER
 2
0
 70
0
 62
7
 6
CONTINUOUS
 0
LAYER
 2
MESH_200_F0
 70
64
 62
7
 6
CONTINUOUS
 0
LAYER
 2
MESH_199_F0
 70
64
 62
7
 6
CONTINUOUS
 0
LAYER
 2
MESH_198_F0
 70
64
 62
7
 6
CONTINUOUS
 0
LAYER
 2
MESH_197_F0
 70
64
 62
7
 6
CONTINUOUS
 0
LAYER
 2
MESH_196_F0
 70
64
 62
7
 6
CONTINUOUS
 0
LAYER
 2
MESH_195_F0
 70
64
 62
7
 6
CONTINUOUS
 0
LAYER
 2
MESH_194_F0
 70
64
 62
7
 6
CONTINUOUS
 0
LAYER
 2
MESH_193_F0
 70
64
 62
7
 6
CONTINUOUS
 0
LAYER
 2
MESH_192_F0
 70
64
 62
7
 6
CONTINUOUS
 0
LAYER
 2
MESH_191_F0
 70
64
 62
7
 6
CONTINUOUS
 0
LAYER
 2
MESH_190_F0
 70
64
 62
7
 6
CONTINUOUS
 0
LAYER
 2
MESH_189_F0
 70
64
 62
7
 6
CONTINUOUS
 0
LAYER
 2
MESH_188_F0
 70
64
 62
7
 6
CONTINUOUS
 0
LAYER
 2
MESH_187_F0
 70
64
 62
7
 6
CONTINUOUS
 0
LAYER
 2
MESH_186_F0
 70
64
 62
7
 6
CONTINUOUS
 0
LAYER
 2
MESH_185_F0
 70
64
 62
7
 6
CONTINUOUS
 0
LAYER
 2
MESH_184_F0
 70
64
 62
7
 6
CONTINUOUS
 0
LAYER
 2
MESH_183_F0
 70
64
 62
7
 6
CONTINUOUS
 0
LAYER
 2
MESH_182_F0
 70
64
 62
7
 6
CONTINUOUS
 0
LAYER
 2
MESH_181_F0
 70
64
 62
7
 6
CONTINUOUS
 0
LAYER
 2
MESH_180_F0
 70
64
 62
7
 6
CONTINUOUS
 0
LAYER
 2
MESH_179_F0
 70
64
 62
7
 6
CONTINUOUS
 0
LAYER
 2
MESH_178_F0
 70
64
 62
7
 6
CONTINUOUS
 0
LAYER
 2
MESH_177_F0
 70
64
 62
7
 6
CONTINUOUS
 0
LAYER
 2
MESH_176_F0
 70
64
 62
7
 6
CONTINUOUS
 0
LAYER
 2
MESH_175_F0
 70
64
 62
7
 6
CONTINUOUS
 0
LAYER
 2
MESH_174_F0
 70
64
 62
7
 6
CONTINUOUS
 0
LAYER
 2
MESH_173_F0
 70
64
 62
7
 6
CONTINUOUS
 0
LAYER
 2
MESH_172_F0
 70
64
 62
7
 6
CONTINUOUS
 0
LAYER
 2
MESH_171_F0
 70
64
 62
7
 6
CONTINUOUS
 0
LAYER
 2
MESH_170_F0
 70
64
 62
7
 6
CONTINUOUS
 0
LAYER
 2
MESH_169_F0
 70
64
 62
7
 6
CONTINUOUS
 0
LAYER
 2
MESH_168_F0
 70
64
 62
7
 6
CONTINUOUS
 0
LAYER
 2
MESH_167_F0
 70
64
 62
7
 6
CONTINUOUS
 0
LAYER
 2
MESH_166_F0
 70
64
 62
7
 6
CONTINUOUS
 0
LAYER
 2
MESH_165_F0
 70
64
 62
7
 6
CONTINUOUS
 0
LAYER
 2
T7826_3DPL_F0
 70
64
 62
7
 6
CONTINUOUS
 0
ENDTAB
 0
ENDSEC
 0
SECTION
 2
BLOCKS
 0
ENDSEC
 0
SECTION
 2
ENTITIES
 0
POLYLINE
 8
MESH_200_F0
 66
1
 10
0.0
 20
0.0
 30
0.0
 70
64
 71
36
 72
34
 0
VERTEX
 8
MESH_200_F0
 10
-200.5
 20
-22
 30
0.5
 70
192
 0
VERTEX
 8
MESH_200_F0
 10
200.5
 20
-22
 30
0.5
 70
192
 0
VERTEX
 8
MESH_200_F0
 10
239.3127
 20
-22
 30
4.3227
 70
192
 0
VERTEX
 8
MESH_200_F0
 10
276.657
 20
-22
 30
15.6488
 70
192
 0
VERTEX
 8
MESH_200_F0
 10
311.058
 20
-22
 30
34.0378
 70
192
 0
VERTEX
 8
MESH_200_F0
 10
341.2141
 20
-22
 30
58.7859
 70
192
 0
VERTEX
 8
MESH_200_F0
 10
365.9622
 20
-22
 30
88.942
 70
192
 0
VERTEX
 8
MESH_200_F0
 10
384.3512
 20
-22
 30
123.343
 70
192
 0
VERTEX
 8
MESH_200_F0
 10
395.6773
 20
-22
 30
160.6873
 70
192
 0
VERTEX
 8
MESH_200_F0
 10
399.5
 20
-22
 30
199.5
 70
192
 0
VERTEX
 8
MESH_200_F0
 10
399.5
 20
-22
 30
500.5
 70
192
 0
VERTEX
 8
MESH_200_F0
 10
395.6773
 20
-22
 30
539.3127
 70
192
 0
VERTEX
 8
MESH_200_F0
 10
384.3512
 20
-22
 30
576.657
 70
192
 0
VERTEX
 8
MESH_200_F0
 10
365.9622
 20
-22
 30
611.058
 70
192
 0
VERTEX
 8
MESH_200_F0
 10
341.2141
 20
-22
 30
641.2142
 70
192
 0
VERTEX
 8
MESH_200_F0
 10
311.058
 20
-22
 30
665.9622
 70
192
 0
VERTEX
 8
MESH_200_F0
 10
276.657
 20
-22
 30
684.3512
 70
192
 0
VERTEX
 8
MESH_200_F0
 10
239.3127
 20
-22
 30
695.6772
 70
192
 0
VERTEX
 8
MESH_200_F0
 10
200.5
 20
-22
 30
699.5
 70
192
 0
VERTEX
 8
MESH_200_F0
 10
-200.5
 20
-22
 30
699.5
 70
192
 0
VERTEX
 8
MESH_200_F0
 10
-239.3127
 20
-22
 30
695.6772
 70
192
 0
VERTEX
 8
MESH_200_F0
 10
-276.657
 20
-22
 30
684.3512
 70
192
 0
VERTEX
 8
MESH_200_F0
 10
-311.058
 20
-22
 30
665.9622
 70
192
 0
VERTEX
 8
MESH_200_F0
 10
-341.2141
 20
-22
 30
641.2142
 70
192
 0
VERTEX
 8
MESH_200_F0
 10
-365.9622
 20
-22
 30
611.058
 70
192
 0
VERTEX
 8
MESH_200_F0
 10
-384.3512
 20
-22
 30
576.657
 70
192
 0
VERTEX
 8
MESH_200_F0
 10
-395.6773
 20
-22
 30
539.3127
 70
192
 0
VERTEX
 8
MESH_200_F0
 10
-399.5
 20
-22
 30
500.5
 70
192
 0
VERTEX
 8
MESH_200_F0
 10
-399.5
 20
-22
 30
199.5
 70
192
 0
VERTEX
 8
MESH_200_F0
 10
-395.6773
 20
-22
 30
160.6873
 70
192
 0
VERTEX
 8
MESH_200_F0
 10
-384.3512
 20
-22
 30
123.343
 70
192
 0
VERTEX
 8
MESH_200_F0
 10
-365.9622
 20
-22
 30
88.942
 70
192
 0
VERTEX
 8
MESH_200_F0
 10
-341.2141
 20
-22
 30
58.7859
 70
192
 0
VERTEX
 8
MESH_200_F0
 10
-311.058
 20
-22
 30
34.0378
 70
192
 0
VERTEX
 8
MESH_200_F0
 10
-276.657
 20
-22
 30
15.6488
 70
192
 0
VERTEX
 8
MESH_200_F0
 10
-239.3127
 20
-22
 30
4.3227
 70
192
 0
VERTEX
 8
MESH_200_F0
 10
0
 20
0
 30
0
 70
128
 71
29
 72
1
 73
36
 74
36
 0
VERTEX
 8
MESH_200_F0
 10
0
 20
0
 30
0
 70
128
 71
34
 72
29
 73
35
 74
35
 0
VERTEX
 8
MESH_200_F0
 10
0
 20
0
 30
0
 70
128
 71
29
 72
36
 73
35
 74
35
 0
VERTEX
 8
MESH_200_F0
 10
0
 20
0
 30
0
 70
128
 71
2
 72
4
 73
3
 74
3
 0
VERTEX
 8
MESH_200_F0
 10
0
 20
0
 30
0
 70
128
 71
5
 72
4
 73
2
 74
2
 0
VERTEX
 8
MESH_200_F0
 10
0
 20
0
 30
0
 70
128
 71
5
 72
2
 73
6
 74
6
 0
VERTEX
 8
MESH_200_F0
 10
0
 20
0
 30
0
 70
128
 71
2
 72
7
 73
6
 74
6
 0
VERTEX
 8
MESH_200_F0
 10
0
 20
0
 30
0
 70
128
 71
8
 72
7
 73
2
 74
2
 0
VERTEX
 8
MESH_200_F0
 10
0
 20
0
 30
0
 70
128
 71
8
 72
2
 73
9
 74
9
 0
VERTEX
 8
MESH_200_F0
 10
0
 20
0
 30
0
 70
128
 71
2
 72
10
 73
9
 74
9
 0
VERTEX
 8
MESH_200_F0
 10
0
 20
0
 30
0
 70
128
 71
29
 72
10
 73
2
 74
2
 0
VERTEX
 8
MESH_200_F0
 10
0
 20
0
 30
0
 70
128
 71
29
 72
2
 73
1
 74
1
 0
VERTEX
 8
MESH_200_F0
 10
0
 20
0
 30
0
 70
128
 71
28
 72
10
 73
29
 74
29
 0
VERTEX
 8
MESH_200_F0
 10
0
 20
0
 30
0
 70
128
 71
11
 72
10
 73
28
 74
28
 0
VERTEX
 8
MESH_200_F0
 10
0
 20
0
 30
0
 70
128
 71
19
 72
11
 73
20
 74
20
 0
VERTEX
 8
MESH_200_F0
 10
0
 20
0
 30
0
 70
128
 71
11
 72
28
 73
20
 74
20
 0
VERTEX
 8
MESH_200_F0
 10
0
 20
0
 30
0
 70
128
 71
28
 72
27
 73
20
 74
20
 0
VERTEX
 8
MESH_200_F0
 10
0
 20
0
 30
0
 70
128
 71
27
 72
26
 73
20
 74
20
 0
VERTEX
 8
MESH_200_F0
 10
0
 20
0
 30
0
 70
128
 71
26
 72
25
 73
20
 74
20
 0
VERTEX
 8
MESH_200_F0
 10
0
 20
0
 30
0
 70
128
 71
25
 72
24
 73
20
 74
20
 0
VERTEX
 8
MESH_200_F0
 10
0
 20
0
 30
0
 70
128
 71
24
 72
23
 73
20
 74
20
 0
VERTEX
 8
MESH_200_F0
 10
0
 20
0
 30
0
 70
128
 71
23
 72
22
 73
20
 74
20
 0
VERTEX
 8
MESH_200_F0
 10
0
 20
0
 30
0
 70
128
 71
22
 72
21
 73
20
 74
20
 0
VERTEX
 8
MESH_200_F0
 10
0
 20
0
 30
0
 70
128
 71
19
 72
12
 73
11
 74
11
 0
VERTEX
 8
MESH_200_F0
 10
0
 20
0
 30
0
 70
128
 71
13
 72
12
 73
19
 74
19
 0
VERTEX
 8
MESH_200_F0
 10
0
 20
0
 30
0
 70
128
 71
13
 72
19
 73
14
 74
14
 0
VERTEX
 8
MESH_200_F0
 10
0
 20
0
 30
0
 70
128
 71
19
 72
15
 73
14
 74
14
 0
VERTEX
 8
MESH_200_F0
 10
0
 20
0
 30
0
 70
128
 71
16
 72
15
 73
19
 74
19
 0
VERTEX
 8
MESH_200_F0
 10
0
 20
0
 30
0
 70
128
 71
16
 72
19
 73
17
 74
17
 0
VERTEX
 8
MESH_200_F0
 10
0
 20
0
 30
0
 70
128
 71
19
 72
18
 73
17
 74
17
 0
VERTEX
 8
MESH_200_F0
 10
0
 20
0
 30
0
 70
128
 71
33
 72
29
 73
34
 74
34
 0
VERTEX
 8
MESH_200_F0
 10
0
 20
0
 30
0
 70
128
 71
30
 72
29
 73
33
 74
33
 0
VERTEX
 8
MESH_200_F0
 10
0
 20
0
 30
0
 70
128
 71
30
 72
33
 73
31
 74
31
 0
VERTEX
 8
MESH_200_F0
 10
0
 20
0
 30
0
 70
128
 71
33
 72
32
 73
31
 74
31
 0
SEQEND
 0
POLYLINE
 8
MESH_199_F0
 66
1
 10
0.0
 20
0.0
 30
0.0
 70
64
 71
4
 72
2
 0
VERTEX
 8
MESH_199_F0
 10
-200.5
 20
-18
 30
699.5
 70
192
 0
VERTEX
 8
MESH_199_F0
 10
-200.5
 20
-22
 30
699.5
 70
192
 0
VERTEX
 8
MESH_199_F0
 10
200.5
 20
-22
 30
699.5
 70
192
 0
VERTEX
 8
MESH_199_F0
 10
200.5
 20
-18
 30
699.5
 70
192
 0
VERTEX
 8
MESH_199_F0
 10
0
 20
0
 30
0
 70
128
 71
4
 72
2
 73
1
 74
1
 0
VERTEX
 8
MESH_199_F0
 10
0
 20
0
 30
0
 70
128
 71
3
 72
2
 73
4
 74
4
 0
SEQEND
 0
POLYLINE
 8
MESH_198_F0
 66
1
 10
0.0
 20
0.0
 30
0.0
 70
64
 71
18
 72
16
 0
VERTEX
 8
MESH_198_F0
 10
200.5
 20
-18
 30
699.5
 70
192
 0
VERTEX
 8
MESH_198_F0
 10
200.5
 20
-22
 30
699.5
 70
192
 0
VERTEX
 8
MESH_198_F0
 10
239.3127
 20
-22
 30
695.6772
 70
192
 0
VERTEX
 8
MESH_198_F0
 10
276.657
 20
-22
 30
684.3512
 70
192
 0
VERTEX
 8
MESH_198_F0
 10
311.058
 20
-22
 30
665.9622
 70
192
 0
VERTEX
 8
MESH_198_F0
 10
341.2141
 20
-22
 30
641.2142
 70
192
 0
VERTEX
 8
MESH_198_F0
 10
365.9622
 20
-22
 30
611.058
 70
192
 0
VERTEX
 8
MESH_198_F0
 10
384.3512
 20
-22
 30
576.657
 70
192
 0
VERTEX
 8
MESH_198_F0
 10
395.6773
 20
-22
 30
539.3127
 70
192
 0
VERTEX
 8
MESH_198_F0
 10
399.5
 20
-22
 30
500.5
 70
192
 0
VERTEX
 8
MESH_198_F0
 10
399.5
 20
-18
 30
500.5
 70
192
 0
VERTEX
 8
MESH_198_F0
 10
395.6762
 20
-18
 30
539.323
 70
192
 0
VERTEX
 8
MESH_198_F0
 10
384.352
 20
-18
 30
576.654
 70
192
 0
VERTEX
 8
MESH_198_F0
 10
365.9624
 20
-18
 30
611.0585
 70
192
 0
VERTEX
 8
MESH_198_F0
 10
341.2142
 20
-18
 30
641.2142
 70
192
 0
VERTEX
 8
MESH_198_F0
 10
311.0585
 20
-18
 30
665.9625
 70
192
 0
VERTEX
 8
MESH_198_F0
 10
276.654
 20
-18
 30
684.352
 70
192
 0
VERTEX
 8
MESH_198_F0
 10
239.323
 20
-18
 30
695.6763
 70
192
 0
VERTEX
 8
MESH_198_F0
 10
0
 20
0
 30
0
 70
128
 71
1
 72
3
 73
2
 74
2
 0
VERTEX
 8
MESH_198_F0
 10
0
 20
0
 30
0
 70
128
 71
18
 72
3
 73
1
 74
1
 0
VERTEX
 8
MESH_198_F0
 10
0
 20
0
 30
0
 70
128
 71
4
 72
3
 73
18
 74
18
 0
VERTEX
 8
MESH_198_F0
 10
0
 20
0
 30
0
 70
128
 71
5
 72
4
 73
17
 74
17
 0
VERTEX
 8
MESH_198_F0
 10
0
 20
0
 30
0
 70
128
 71
6
 72
5
 73
16
 74
16
 0
VERTEX
 8
MESH_198_F0
 10
0
 20
0
 30
0
 70
128
 71
7
 72
6
 73
15
 74
15
 0
VERTEX
 8
MESH_198_F0
 10
0
 20
0
 30
0
 70
128
 71
8
 72
7
 73
14
 74
14
 0
VERTEX
 8
MESH_198_F0
 10
0
 20
0
 30
0
 70
128
 71
9
 72
8
 73
13
 74
13
 0
VERTEX
 8
MESH_198_F0
 10
0
 20
0
 30
0
 70
128
 71
11
 72
9
 73
12
 74
12
 0
VERTEX
 8
MESH_198_F0
 10
0
 20
0
 30
0
 70
128
 71
9
 72
13
 73
12
 74
12
 0
VERTEX
 8
MESH_198_F0
 10
0
 20
0
 30
0
 70
128
 71
11
 72
10
 73
9
 74
9
 0
VERTEX
 8
MESH_198_F0
 10
0
 20
0
 30
0
 70
128
 71
8
 72
14
 73
13
 74
13
 0
VERTEX
 8
MESH_198_F0
 10
0
 20
0
 30
0
 70
128
 71
7
 72
15
 73
14
 74
14
 0
VERTEX
 8
MESH_198_F0
 10
0
 20
0
 30
0
 70
128
 71
6
 72
16
 73
15
 74
15
 0
VERTEX
 8
MESH_198_F0
 10
0
 20
0
 30
0
 70
128
 71
5
 72
17
 73
16
 74
16
 0
VERTEX
 8
MESH_198_F0
 10
0
 20
0
 30
0
 70
128
 71
4
 72
18
 73
17
 74
17
 0
SEQEND
 0
POLYLINE
 8
MESH_197_F0
 66
1
 10
0.0
 20
0.0
 30
0.0
 70
64
 71
4
 72
2
 0
VERTEX
 8
MESH_197_F0
 10
399.5
 20
-18
 30
500.5
 70
192
 0
VERTEX
 8
MESH_197_F0
 10
399.5
 20
-22
 30
500.5
 70
192
 0
VERTEX
 8
MESH_197_F0
 10
399.5
 20
-22
 30
199.5
 70
192
 0
VERTEX
 8
MESH_197_F0
 10
399.5
 20
-18
 30
199.5
 70
192
 0
VERTEX
 8
MESH_197_F0
 10
0
 20
0
 30
0
 70
128
 71
4
 72
2
 73
1
 74
1
 0
VERTEX
 8
MESH_197_F0
 10
0
 20
0
 30
0
 70
128
 71
3
 72
2
 73
4
 74
4
 0
SEQEND
 0
POLYLINE
 8
MESH_196_F0
 66
1
 10
0.0
 20
0.0
 30
0.0
 70
64
 71
18
 72
16
 0
VERTEX
 8
MESH_196_F0
 10
399.5
 20
-18
 30
199.5
 70
192
 0
VERTEX
 8
MESH_196_F0
 10
399.5
 20
-22
 30
199.5
 70
192
 0
VERTEX
 8
MESH_196_F0
 10
395.6773
 20
-22
 30
160.6873
 70
192
 0
VERTEX
 8
MESH_196_F0
 10
384.3512
 20
-22
 30
123.343
 70
192
 0
VERTEX
 8
MESH_196_F0
 10
365.9622
 20
-22
 30
88.942
 70
192
 0
VERTEX
 8
MESH_196_F0
 10
341.2141
 20
-22
 30
58.7859
 70
192
 0
VERTEX
 8
MESH_196_F0
 10
311.058
 20
-22
 30
34.0378
 70
192
 0
VERTEX
 8
MESH_196_F0
 10
276.657
 20
-22
 30
15.6488
 70
192
 0
VERTEX
 8
MESH_196_F0
 10
239.3127
 20
-22
 30
4.3227
 70
192
 0
VERTEX
 8
MESH_196_F0
 10
200.5
 20
-22
 30
0.5
 70
192
 0
VERTEX
 8
MESH_196_F0
 10
200.5
 20
-18
 30
0.5
 70
192
 0
VERTEX
 8
MESH_196_F0
 10
239.323
 20
-18
 30
4.3237
 70
192
 0
VERTEX
 8
MESH_196_F0
 10
276.654
 20
-18
 30
15.648
 70
192
 0
VERTEX
 8
MESH_196_F0
 10
311.0585
 20
-18
 30
34.0375
 70
192
 0
VERTEX
 8
MESH_196_F0
 10
341.2142
 20
-18
 30
58.7858
 70
192
 0
VERTEX
 8
MESH_196_F0
 10
365.9624
 20
-18
 30
88.9415
 70
192
 0
VERTEX
 8
MESH_196_F0
 10
384.352
 20
-18
 30
123.346
 70
192
 0
VERTEX
 8
MESH_196_F0
 10
395.6762
 20
-18
 30
160.677
 70
192
 0
VERTEX
 8
MESH_196_F0
 10
0
 20
0
 30
0
 70
128
 71
1
 72
3
 73
2
 74
2
 0
VERTEX
 8
MESH_196_F0
 10
0
 20
0
 30
0
 70
128
 71
18
 72
3
 73
1
 74
1
 0
VERTEX
 8
MESH_196_F0
 10
0
 20
0
 30
0
 70
128
 71
4
 72
3
 73
18
 74
18
 0
VERTEX
 8
MESH_196_F0
 10
0
 20
0
 30
0
 70
128
 71
5
 72
4
 73
17
 74
17
 0
VERTEX
 8
MESH_196_F0
 10
0
 20
0
 30
0
 70
128
 71
6
 72
5
 73
16
 74
16
 0
VERTEX
 8
MESH_196_F0
 10
0
 20
0
 30
0
 70
128
 71
7
 72
6
 73
15
 74
15
 0
VERTEX
 8
MESH_196_F0
 10
0
 20
0
 30
0
 70
128
 71
8
 72
7
 73
14
 74
14
 0
VERTEX
 8
MESH_196_F0
 10
0
 20
0
 30
0
 70
128
 71
9
 72
8
 73
13
 74
13
 0
VERTEX
 8
MESH_196_F0
 10
0
 20
0
 30
0
 70
128
 71
10
 72
9
 73
12
 74
12
 0
VERTEX
 8
MESH_196_F0
 10
0
 20
0
 30
0
 70
128
 71
10
 72
12
 73
11
 74
11
 0
VERTEX
 8
MESH_196_F0
 10
0
 20
0
 30
0
 70
128
 71
9
 72
13
 73
12
 74
12
 0
VERTEX
 8
MESH_196_F0
 10
0
 20
0
 30
0
 70
128
 71
8
 72
14
 73
13
 74
13
 0
VERTEX
 8
MESH_196_F0
 10
0
 20
0
 30
0
 70
128
 71
7
 72
15
 73
14
 74
14
 0
VERTEX
 8
MESH_196_F0
 10
0
 20
0
 30
0
 70
128
 71
6
 72
16
 73
15
 74
15
 0
VERTEX
 8
MESH_196_F0
 10
0
 20
0
 30
0
 70
128
 71
5
 72
17
 73
16
 74
16
 0
VERTEX
 8
MESH_196_F0
 10
0
 20
0
 30
0
 70
128
 71
4
 72
18
 73
17
 74
17
 0
SEQEND
 0
POLYLINE
 8
MESH_195_F0
 66
1
 10
0.0
 20
0.0
 30
0.0
 70
64
 71
4
 72
2
 0
VERTEX
 8
MESH_195_F0
 10
200.5
 20
-18
 30
0.5
 70
192
 0
VERTEX
 8
MESH_195_F0
 10
200.5
 20
-22
 30
0.5
 70
192
 0
VERTEX
 8
MESH_195_F0
 10
-200.5
 20
-22
 30
0.5
 70
192
 0
VERTEX
 8
MESH_195_F0
 10
-200.5
 20
-18
 30
0.5
 70
192
 0
VERTEX
 8
MESH_195_F0
 10
0
 20
0
 30
0
 70
128
 71
4
 72
2
 73
1
 74
1
 0
VERTEX
 8
MESH_195_F0
 10
0
 20
0
 30
0
 70
128
 71
3
 72
2
 73
4
 74
4
 0
SEQEND
 0
POLYLINE
 8
MESH_194_F0
 66
1
 10
0.0
 20
0.0
 30
0.0
 70
64
 71
18
 72
16
 0
VERTEX
 8
MESH_194_F0
 10
-200.5
 20
-18
 30
0.5
 70
192
 0
VERTEX
 8
MESH_194_F0
 10
-200.5
 20
-22
 30
0.5
 70
192
 0
VERTEX
 8
MESH_194_F0
 10
-239.3127
 20
-22
 30
4.3227
 70
192
 0
VERTEX
 8
MESH_194_F0
 10
-276.657
 20
-22
 30
15.6488
 70
192
 0
VERTEX
 8
MESH_194_F0
 10
-311.058
 20
-22
 30
34.0378
 70
192
 0
VERTEX
 8
MESH_194_F0
 10
-341.2141
 20
-22
 30
58.7859
 70
192
 0
VERTEX
 8
MESH_194_F0
 10
-365.9622
 20
-22
 30
88.942
 70
192
 0
VERTEX
 8
MESH_194_F0
 10
-384.3512
 20
-22
 30
123.343
 70
192
 0
VERTEX
 8
MESH_194_F0
 10
-395.6773
 20
-22
 30
160.6873
 70
192
 0
VERTEX
 8
MESH_194_F0
 10
-399.5
 20
-22
 30
199.5
 70
192
 0
VERTEX
 8
MESH_194_F0
 10
-399.5
 20
-18
 30
199.5
 70
192
 0
VERTEX
 8
MESH_194_F0
 10
-395.6762
 20
-18
 30
160.677
 70
192
 0
VERTEX
 8
MESH_194_F0
 10
-384.352
 20
-18
 30
123.346
 70
192
 0
VERTEX
 8
MESH_194_F0
 10
-365.9624
 20
-18
 30
88.9415
 70
192
 0
VERTEX
 8
MESH_194_F0
 10
-341.2142
 20
-18
 30
58.7858
 70
192
 0
VERTEX
 8
MESH_194_F0
 10
-311.0585
 20
-18
 30
34.0375
 70
192
 0
VERTEX
 8
MESH_194_F0
 10
-276.654
 20
-18
 30
15.648
 70
192
 0
VERTEX
 8
MESH_194_F0
 10
-239.323
 20
-18
 30
4.3237
 70
192
 0
VERTEX
 8
MESH_194_F0
 10
0
 20
0
 30
0
 70
128
 71
1
 72
3
 73
2
 74
2
 0
VERTEX
 8
MESH_194_F0
 10
0
 20
0
 30
0
 70
128
 71
18
 72
3
 73
1
 74
1
 0
VERTEX
 8
MESH_194_F0
 10
0
 20
0
 30
0
 70
128
 71
4
 72
3
 73
18
 74
18
 0
VERTEX
 8
MESH_194_F0
 10
0
 20
0
 30
0
 70
128
 71
5
 72
4
 73
17
 74
17
 0
VERTEX
 8
MESH_194_F0
 10
0
 20
0
 30
0
 70
128
 71
6
 72
5
 73
16
 74
16
 0
VERTEX
 8
MESH_194_F0
 10
0
 20
0
 30
0
 70
128
 71
7
 72
6
 73
15
 74
15
 0
VERTEX
 8
MESH_194_F0
 10
0
 20
0
 30
0
 70
128
 71
8
 72
7
 73
14
 74
14
 0
VERTEX
 8
MESH_194_F0
 10
0
 20
0
 30
0
 70
128
 71
9
 72
8
 73
13
 74
13
 0
VERTEX
 8
MESH_194_F0
 10
0
 20
0
 30
0
 70
128
 71
10
 72
9
 73
12
 74
12
 0
VERTEX
 8
MESH_194_F0
 10
0
 20
0
 30
0
 70
128
 71
10
 72
12
 73
11
 74
11
 0
VERTEX
 8
MESH_194_F0
 10
0
 20
0
 30
0
 70
128
 71
9
 72
13
 73
12
 74
12
 0
VERTEX
 8
MESH_194_F0
 10
0
 20
0
 30
0
 70
128
 71
8
 72
14
 73
13
 74
13
 0
VERTEX
 8
MESH_194_F0
 10
0
 20
0
 30
0
 70
128
 71
7
 72
15
 73
14
 74
14
 0
VERTEX
 8
MESH_194_F0
 10
0
 20
0
 30
0
 70
128
 71
6
 72
16
 73
15
 74
15
 0
VERTEX
 8
MESH_194_F0
 10
0
 20
0
 30
0
 70
128
 71
5
 72
17
 73
16
 74
16
 0
VERTEX
 8
MESH_194_F0
 10
0
 20
0
 30
0
 70
128
 71
4
 72
18
 73
17
 74
17
 0
SEQEND
 0
POLYLINE
 8
MESH_193_F0
 66
1
 10
0.0
 20
0.0
 30
0.0
 70
64
 71
4
 72
2
 0
VERTEX
 8
MESH_193_F0
 10
-399.5
 20
-18
 30
199.5
 70
192
 0
VERTEX
 8
MESH_193_F0
 10
-399.5
 20
-22
 30
199.5
 70
192
 0
VERTEX
 8
MESH_193_F0
 10
-399.5
 20
-22
 30
500.5
 70
192
 0
VERTEX
 8
MESH_193_F0
 10
-399.5
 20
-18
 30
500.5
 70
192
 0
VERTEX
 8
MESH_193_F0
 10
0
 20
0
 30
0
 70
128
 71
1
 72
3
 73
2
 74
2
 0
VERTEX
 8
MESH_193_F0
 10
0
 20
0
 30
0
 70
128
 71
4
 72
3
 73
1
 74
1
 0
SEQEND
 0
POLYLINE
 8
MESH_192_F0
 66
1
 10
0.0
 20
0.0
 30
0.0
 70
64
 71
18
 72
16
 0
VERTEX
 8
MESH_192_F0
 10
-399.5
 20
-18
 30
500.5
 70
192
 0
VERTEX
 8
MESH_192_F0
 10
-399.5
 20
-22
 30
500.5
 70
192
 0
VERTEX
 8
MESH_192_F0
 10
-395.6773
 20
-22
 30
539.3127
 70
192
 0
VERTEX
 8
MESH_192_F0
 10
-384.3512
 20
-22
 30
576.657
 70
192
 0
VERTEX
 8
MESH_192_F0
 10
-365.9622
 20
-22
 30
611.058
 70
192
 0
VERTEX
 8
MESH_192_F0
 10
-341.2141
 20
-22
 30
641.2142
 70
192
 0
VERTEX
 8
MESH_192_F0
 10
-311.058
 20
-22
 30
665.9622
 70
192
 0
VERTEX
 8
MESH_192_F0
 10
-276.657
 20
-22
 30
684.3512
 70
192
 0
VERTEX
 8
MESH_192_F0
 10
-239.3127
 20
-22
 30
695.6772
 70
192
 0
VERTEX
 8
MESH_192_F0
 10
-200.5
 20
-22
 30
699.5
 70
192
 0
VERTEX
 8
MESH_192_F0
 10
-200.5
 20
-18
 30
699.5
 70
192
 0
VERTEX
 8
MESH_192_F0
 10
-239.323
 20
-18
 30
695.6763
 70
192
 0
VERTEX
 8
MESH_192_F0
 10
-276.654
 20
-18
 30
684.352
 70
192
 0
VERTEX
 8
MESH_192_F0
 10
-311.0585
 20
-18
 30
665.9625
 70
192
 0
VERTEX
 8
MESH_192_F0
 10
-341.2142
 20
-18
 30
641.2142
 70
192
 0
VERTEX
 8
MESH_192_F0
 10
-365.9624
 20
-18
 30
611.0585
 70
192
 0
VERTEX
 8
MESH_192_F0
 10
-384.352
 20
-18
 30
576.654
 70
192
 0
VERTEX
 8
MESH_192_F0
 10
-395.6762
 20
-18
 30
539.323
 70
192
 0
VERTEX
 8
MESH_192_F0
 10
0
 20
0
 30
0
 70
128
 71
1
 72
3
 73
2
 74
2
 0
VERTEX
 8
MESH_192_F0
 10
0
 20
0
 30
0
 70
128
 71
18
 72
3
 73
1
 74
1
 0
VERTEX
 8
MESH_192_F0
 10
0
 20
0
 30
0
 70
128
 71
4
 72
3
 73
18
 74
18
 0
VERTEX
 8
MESH_192_F0
 10
0
 20
0
 30
0
 70
128
 71
5
 72
4
 73
17
 74
17
 0
VERTEX
 8
MESH_192_F0
 10
0
 20
0
 30
0
 70
128
 71
6
 72
5
 73
16
 74
16
 0
VERTEX
 8
MESH_192_F0
 10
0
 20
0
 30
0
 70
128
 71
7
 72
6
 73
15
 74
15
 0
VERTEX
 8
MESH_192_F0
 10
0
 20
0
 30
0
 70
128
 71
8
 72
7
 73
14
 74
14
 0
VERTEX
 8
MESH_192_F0
 10
0
 20
0
 30
0
 70
128
 71
9
 72
8
 73
13
 74
13
 0
VERTEX
 8
MESH_192_F0
 10
0
 20
0
 30
0
 70
128
 71
10
 72
9
 73
12
 74
12
 0
VERTEX
 8
MESH_192_F0
 10
0
 20
0
 30
0
 70
128
 71
10
 72
12
 73
11
 74
11
 0
VERTEX
 8
MESH_192_F0
 10
0
 20
0
 30
0
 70
128
 71
9
 72
13
 73
12
 74
12
 0
VERTEX
 8
MESH_192_F0
 10
0
 20
0
 30
0
 70
128
 71
8
 72
14
 73
13
 74
13
 0
VERTEX
 8
MESH_192_F0
 10
0
 20
0
 30
0
 70
128
 71
7
 72
15
 73
14
 74
14
 0
VERTEX
 8
MESH_192_F0
 10
0
 20
0
 30
0
 70
128
 71
6
 72
16
 73
15
 74
15
 0
VERTEX
 8
MESH_192_F0
 10
0
 20
0
 30
0
 70
128
 71
5
 72
17
 73
16
 74
16
 0
VERTEX
 8
MESH_192_F0
 10
0
 20
0
 30
0
 70
128
 71
4
 72
18
 73
17
 74
17
 0
SEQEND
 0
POLYLINE
 8
MESH_191_F0
 66
1
 10
0.0
 20
0.0
 30
0.0
 70
64
 71
72
 72
72
 0
VERTEX
 8
MESH_191_F0
 10
-399.5
 20
-18
 30
500.5
 70
192
 0
VERTEX
 8
MESH_191_F0
 10
-395.6762
 20
-18
 30
539.323
 70
192
 0
VERTEX
 8
MESH_191_F0
 10
-384.352
 20
-18
 30
576.654
 70
192
 0
VERTEX
 8
MESH_191_F0
 10
-365.9624
 20
-18
 30
611.0585
 70
192
 0
VERTEX
 8
MESH_191_F0
 10
-341.2142
 20
-18
 30
641.2142
 70
192
 0
VERTEX
 8
MESH_191_F0
 10
-311.0585
 20
-18
 30
665.9625
 70
192
 0
VERTEX
 8
MESH_191_F0
 10
-276.654
 20
-18
 30
684.352
 70
192
 0
VERTEX
 8
MESH_191_F0
 10
-239.323
 20
-18
 30
695.6763
 70
192
 0
VERTEX
 8
MESH_191_F0
 10
-200.5
 20
-18
 30
699.5
 70
192
 0
VERTEX
 8
MESH_191_F0
 10
200.5
 20
-18
 30
699.5
 70
192
 0
VERTEX
 8
MESH_191_F0
 10
239.323
 20
-18
 30
695.6763
 70
192
 0
VERTEX
 8
MESH_191_F0
 10
276.654
 20
-18
 30
684.352
 70
192
 0
VERTEX
 8
MESH_191_F0
 10
311.0585
 20
-18
 30
665.9625
 70
192
 0
VERTEX
 8
MESH_191_F0
 10
341.2142
 20
-18
 30
641.2142
 70
192
 0
VERTEX
 8
MESH_191_F0
 10
365.9624
 20
-18
 30
611.0585
 70
192
 0
VERTEX
 8
MESH_191_F0
 10
384.352
 20
-18
 30
576.654
 70
192
 0
VERTEX
 8
MESH_191_F0
 10
395.6762
 20
-18
 30
539.323
 70
192
 0
VERTEX
 8
MESH_191_F0
 10
399.5
 20
-18
 30
500.5
 70
192
 0
VERTEX
 8
MESH_191_F0
 10
399.5
 20
-18
 30
199.5
 70
192
 0
VERTEX
 8
MESH_191_F0
 10
395.6762
 20
-18
 30
160.677
 70
192
 0
VERTEX
 8
MESH_191_F0
 10
384.352
 20
-18
 30
123.346
 70
192
 0
VERTEX
 8
MESH_191_F0
 10
365.9624
 20
-18
 30
88.9415
 70
192
 0
VERTEX
 8
MESH_191_F0
 10
341.2142
 20
-18
 30
58.7858
 70
192
 0
VERTEX
 8
MESH_191_F0
 10
311.0585
 20
-18
 30
34.0375
 70
192
 0
VERTEX
 8
MESH_191_F0
 10
276.654
 20
-18
 30
15.648
 70
192
 0
VERTEX
 8
MESH_191_F0
 10
239.323
 20
-18
 30
4.3237
 70
192
 0
VERTEX
 8
MESH_191_F0
 10
200.5
 20
-18
 30
0.5
 70
192
 0
VERTEX
 8
MESH_191_F0
 10
-200.5
 20
-18
 30
0.5
 70
192
 0
VERTEX
 8
MESH_191_F0
 10
-239.323
 20
-18
 30
4.3237
 70
192
 0
VERTEX
 8
MESH_191_F0
 10
-276.654
 20
-18
 30
15.648
 70
192
 0
VERTEX
 8
MESH_191_F0
 10
-311.0585
 20
-18
 30
34.0375
 70
192
 0
VERTEX
 8
MESH_191_F0
 10
-341.2142
 20
-18
 30
58.7858
 70
192
 0
VERTEX
 8
MESH_191_F0
 10
-365.9624
 20
-18
 30
88.9415
 70
192
 0
VERTEX
 8
MESH_191_F0
 10
-384.352
 20
-18
 30
123.346
 70
192
 0
VERTEX
 8
MESH_191_F0
 10
-395.6762
 20
-18
 30
160.677
 70
192
 0
VERTEX
 8
MESH_191_F0
 10
-399.5
 20
-18
 30
199.5
 70
192
 0
VERTEX
 8
MESH_191_F0
 10
-400
 20
-18
 30
500
 70
192
 0
VERTEX
 8
MESH_191_F0
 10
-400
 20
-18
 30
200
 70
192
 0
VERTEX
 8
MESH_191_F0
 10
-396.1581
 20
-18
 30
160.9923
 70
192
 0
VERTEX
 8
MESH_191_F0
 10
-384.7751
 20
-18
 30
123.4603
 70
192
 0
VERTEX
 8
MESH_191_F0
 10
-366.2936
 20
-18
 30
88.8864
 70
192
 0
VERTEX
 8
MESH_191_F0
 10
-341.4213
 20
-18
 30
58.5787
 70
192
 0
VERTEX
 8
MESH_191_F0
 10
-311.1136
 20
-18
 30
33.7064
 70
192
 0
VERTEX
 8
MESH_191_F0
 10
-276.5397
 20
-18
 30
15.2249
 70
192
 0
VERTEX
 8
MESH_191_F0
 10
-239.0077
 20
-18
 30
3.8419
 70
192
 0
VERTEX
 8
MESH_191_F0
 10
-200
 20
-18
 30
0
 70
192
 0
VERTEX
 8
MESH_191_F0
 10
200
 20
-18
 30
0
 70
192
 0
VERTEX
 8
MESH_191_F0
 10
239.0077
 20
-18
 30
3.8419
 70
192
 0
VERTEX
 8
MESH_191_F0
 10
276.5397
 20
-18
 30
15.2249
 70
192
 0
VERTEX
 8
MESH_191_F0
 10
311.1136
 20
-18
 30
33.7064
 70
192
 0
VERTEX
 8
MESH_191_F0
 10
341.4213
 20
-18
 30
58.5787
 70
192
 0
VERTEX
 8
MESH_191_F0
 10
366.2936
 20
-18
 30
88.8864
 70
192
 0
VERTEX
 8
MESH_191_F0
 10
384.7751
 20
-18
 30
123.4603
 70
192
 0
VERTEX
 8
MESH_191_F0
 10
396.1581
 20
-18
 30
160.9923
 70
192
 0
VERTEX
 8
MESH_191_F0
 10
400
 20
-18
 30
200
 70
192
 0
VERTEX
 8
MESH_191_F0
 10
400
 20
-18
 30
500
 70
192
 0
VERTEX
 8
MESH_191_F0
 10
396.1581
 20
-18
 30
539.0077
 70
192
 0
VERTEX
 8
MESH_191_F0
 10
384.7751
 20
-18
 30
576.5397
 70
192
 0
VERTEX
 8
MESH_191_F0
 10
366.2936
 20
-18
 30
611.1136
 70
192
 0
VERTEX
 8
MESH_191_F0
 10
341.4213
 20
-18
 30
641.4213
 70
192
 0
VERTEX
 8
MESH_191_F0
 10
311.1136
 20
-18
 30
666.2936
 70
192
 0
VERTEX
 8
MESH_191_F0
 10
276.5397
 20
-18
 30
684.7751
 70
192
 0
VERTEX
 8
MESH_191_F0
 10
239.0077
 20
-18
 30
696.158
 70
192
 0
VERTEX
 8
MESH_191_F0
 10
200
 20
-18
 30
700
 70
192
 0
VERTEX
 8
MESH_191_F0
 10
-200
 20
-18
 30
700
 70
192
 0
VERTEX
 8
MESH_191_F0
 10
-239.0077
 20
-18
 30
696.158
 70
192
 0
VERTEX
 8
MESH_191_F0
 10
-276.5397
 20
-18
 30
684.7751
 70
192
 0
VERTEX
 8
MESH_191_F0
 10
-311.1136
 20
-18
 30
666.2936
 70
192
 0
VERTEX
 8
MESH_191_F0
 10
-341.4213
 20
-18
 30
641.4213
 70
192
 0
VERTEX
 8
MESH_191_F0
 10
-366.2936
 20
-18
 30
611.1136
 70
192
 0
VERTEX
 8
MESH_191_F0
 10
-384.7751
 20
-18
 30
576.5397
 70
192
 0
VERTEX
 8
MESH_191_F0
 10
-396.1581
 20
-18
 30
539.0077
 70
192
 0
VERTEX
 8
MESH_191_F0
 10
0
 20
0
 30
0
 70
128
 71
2
 72
71
 73
3
 74
3
 0
VERTEX
 8
MESH_191_F0
 10
0
 20
0
 30
0
 70
128
 71
71
 72
4
 73
3
 74
3
 0
VERTEX
 8
MESH_191_F0
 10
0
 20
0
 30
0
 70
128
 71
70
 72
4
 73
71
 74
71
 0
VERTEX
 8
MESH_191_F0
 10
0
 20
0
 30
0
 70
128
 71
5
 72
4
 73
70
 74
70
 0
VERTEX
 8
MESH_191_F0
 10
0
 20
0
 30
0
 70
128
 71
6
 72
5
 73
69
 74
69
 0
VERTEX
 8
MESH_191_F0
 10
0
 20
0
 30
0
 70
128
 71
7
 72
6
 73
68
 74
68
 0
VERTEX
 8
MESH_191_F0
 10
0
 20
0
 30
0
 70
128
 71
8
 72
7
 73
67
 74
67
 0
VERTEX
 8
MESH_191_F0
 10
0
 20
0
 30
0
 70
128
 71
9
 72
8
 73
66
 74
66
 0
VERTEX
 8
MESH_191_F0
 10
0
 20
0
 30
0
 70
128
 71
10
 72
9
 73
65
 74
65
 0
VERTEX
 8
MESH_191_F0
 10
0
 20
0
 30
0
 70
128
 71
63
 72
10
 73
64
 74
64
 0
VERTEX
 8
MESH_191_F0
 10
0
 20
0
 30
0
 70
128
 71
10
 72
65
 73
64
 74
64
 0
VERTEX
 8
MESH_191_F0
 10
0
 20
0
 30
0
 70
128
 71
63
 72
11
 73
10
 74
10
 0
VERTEX
 8
MESH_191_F0
 10
0
 20
0
 30
0
 70
128
 71
62
 72
11
 73
63
 74
63
 0
VERTEX
 8
MESH_191_F0
 10
0
 20
0
 30
0
 70
128
 71
12
 72
11
 73
62
 74
62
 0
VERTEX
 8
MESH_191_F0
 10
0
 20
0
 30
0
 70
128
 71
13
 72
12
 73
61
 74
61
 0
VERTEX
 8
MESH_191_F0
 10
0
 20
0
 30
0
 70
128
 71
14
 72
13
 73
60
 74
60
 0
VERTEX
 8
MESH_191_F0
 10
0
 20
0
 30
0
 70
128
 71
15
 72
14
 73
59
 74
59
 0
VERTEX
 8
MESH_191_F0
 10
0
 20
0
 30
0
 70
128
 71
16
 72
15
 73
58
 74
58
 0
VERTEX
 8
MESH_191_F0
 10
0
 20
0
 30
0
 70
128
 71
16
 72
58
 73
17
 74
17
 0
VERTEX
 8
MESH_191_F0
 10
0
 20
0
 30
0
 70
128
 71
58
 72
57
 73
17
 74
17
 0
VERTEX
 8
MESH_191_F0
 10
0
 20
0
 30
0
 70
128
 71
57
 72
18
 73
17
 74
17
 0
VERTEX
 8
MESH_191_F0
 10
0
 20
0
 30
0
 70
128
 71
56
 72
18
 73
57
 74
57
 0
VERTEX
 8
MESH_191_F0
 10
0
 20
0
 30
0
 70
128
 71
19
 72
18
 73
56
 74
56
 0
VERTEX
 8
MESH_191_F0
 10
0
 20
0
 30
0
 70
128
 71
54
 72
19
 73
55
 74
55
 0
VERTEX
 8
MESH_191_F0
 10
0
 20
0
 30
0
 70
128
 71
19
 72
56
 73
55
 74
55
 0
VERTEX
 8
MESH_191_F0
 10
0
 20
0
 30
0
 70
128
 71
54
 72
20
 73
19
 74
19
 0
VERTEX
 8
MESH_191_F0
 10
0
 20
0
 30
0
 70
128
 71
53
 72
20
 73
54
 74
54
 0
VERTEX
 8
MESH_191_F0
 10
0
 20
0
 30
0
 70
128
 71
21
 72
20
 73
53
 74
53
 0
VERTEX
 8
MESH_191_F0
 10
0
 20
0
 30
0
 70
128
 71
22
 72
21
 73
52
 74
52
 0
VERTEX
 8
MESH_191_F0
 10
0
 20
0
 30
0
 70
128
 71
22
 72
52
 73
23
 74
23
 0
VERTEX
 8
MESH_191_F0
 10
0
 20
0
 30
0
 70
128
 71
52
 72
51
 73
23
 74
23
 0
VERTEX
 8
MESH_191_F0
 10
0
 20
0
 30
0
 70
128
 71
51
 72
24
 73
23
 74
23
 0
VERTEX
 8
MESH_191_F0
 10
0
 20
0
 30
0
 70
128
 71
50
 72
24
 73
51
 74
51
 0
VERTEX
 8
MESH_191_F0
 10
0
 20
0
 30
0
 70
128
 71
25
 72
24
 73
50
 74
50
 0
VERTEX
 8
MESH_191_F0
 10
0
 20
0
 30
0
 70
128
 71
26
 72
25
 73
49
 74
49
 0
VERTEX
 8
MESH_191_F0
 10
0
 20
0
 30
0
 70
128
 71
27
 72
26
 73
48
 74
48
 0
VERTEX
 8
MESH_191_F0
 10
0
 20
0
 30
0
 70
128
 71
28
 72
27
 73
47
 74
47
 0
VERTEX
 8
MESH_191_F0
 10
0
 20
0
 30
0
 70
128
 71
45
 72
28
 73
46
 74
46
 0
VERTEX
 8
MESH_191_F0
 10
0
 20
0
 30
0
 70
128
 71
28
 72
47
 73
46
 74
46
 0
VERTEX
 8
MESH_191_F0
 10
0
 20
0
 30
0
 70
128
 71
45
 72
29
 73
28
 74
28
 0
VERTEX
 8
MESH_191_F0
 10
0
 20
0
 30
0
 70
128
 71
44
 72
29
 73
45
 74
45
 0
VERTEX
 8
MESH_191_F0
 10
0
 20
0
 30
0
 70
128
 71
30
 72
29
 73
44
 74
44
 0
VERTEX
 8
MESH_191_F0
 10
0
 20
0
 30
0
 70
128
 71
31
 72
30
 73
43
 74
43
 0
VERTEX
 8
MESH_191_F0
 10
0
 20
0
 30
0
 70
128
 71
32
 72
31
 73
42
 74
42
 0
VERTEX
 8
MESH_191_F0
 10
0
 20
0
 30
0
 70
128
 71
33
 72
32
 73
41
 74
41
 0
VERTEX
 8
MESH_191_F0
 10
0
 20
0
 30
0
 70
128
 71
33
 72
41
 73
34
 74
34
 0
VERTEX
 8
MESH_191_F0
 10
0
 20
0
 30
0
 70
128
 71
41
 72
40
 73
34
 74
34
 0
VERTEX
 8
MESH_191_F0
 10
0
 20
0
 30
0
 70
128
 71
40
 72
35
 73
34
 74
34
 0
VERTEX
 8
MESH_191_F0
 10
0
 20
0
 30
0
 70
128
 71
39
 72
35
 73
40
 74
40
 0
VERTEX
 8
MESH_191_F0
 10
0
 20
0
 30
0
 70
128
 71
36
 72
35
 73
39
 74
39
 0
VERTEX
 8
MESH_191_F0
 10
0
 20
0
 30
0
 70
128
 71
37
 72
36
 73
38
 74
38
 0
VERTEX
 8
MESH_191_F0
 10
0
 20
0
 30
0
 70
128
 71
36
 72
39
 73
38
 74
38
 0
VERTEX
 8
MESH_191_F0
 10
0
 20
0
 30
0
 70
128
 71
37
 72
1
 73
36
 74
36
 0
VERTEX
 8
MESH_191_F0
 10
0
 20
0
 30
0
 70
128
 71
72
 72
1
 73
37
 74
37
 0
VERTEX
 8
MESH_191_F0
 10
0
 20
0
 30
0
 70
128
 71
2
 72
1
 73
72
 74
72
 0
VERTEX
 8
MESH_191_F0
 10
0
 20
0
 30
0
 70
128
 71
2
 72
72
 73
71
 74
71
 0
VERTEX
 8
MESH_191_F0
 10
0
 20
0
 30
0
 70
128
 71
32
 72
42
 73
41
 74
41
 0
VERTEX
 8
MESH_191_F0
 10
0
 20
0
 30
0
 70
128
 71
31
 72
43
 73
42
 74
42
 0
VERTEX
 8
MESH_191_F0
 10
0
 20
0
 30
0
 70
128
 71
30
 72
44
 73
43
 74
43
 0
VERTEX
 8
MESH_191_F0
 10
0
 20
0
 30
0
 70
128
 71
27
 72
48
 73
47
 74
47
 0
VERTEX
 8
MESH_191_F0
 10
0
 20
0
 30
0
 70
128
 71
26
 72
49
 73
48
 74
48
 0
VERTEX
 8
MESH_191_F0
 10
0
 20
0
 30
0
 70
128
 71
25
 72
50
 73
49
 74
49
 0
VERTEX
 8
MESH_191_F0
 10
0
 20
0
 30
0
 70
128
 71
21
 72
53
 73
52
 74
52
 0
VERTEX
 8
MESH_191_F0
 10
0
 20
0
 30
0
 70
128
 71
15
 72
59
 73
58
 74
58
 0
VERTEX
 8
MESH_191_F0
 10
0
 20
0
 30
0
 70
128
 71
14
 72
60
 73
59
 74
59
 0
VERTEX
 8
MESH_191_F0
 10
0
 20
0
 30
0
 70
128
 71
13
 72
61
 73
60
 74
60
 0
VERTEX
 8
MESH_191_F0
 10
0
 20
0
 30
0
 70
128
 71
12
 72
62
 73
61
 74
61
 0
VERTEX
 8
MESH_191_F0
 10
0
 20
0
 30
0
 70
128
 71
9
 72
66
 73
65
 74
65
 0
VERTEX
 8
MESH_191_F0
 10
0
 20
0
 30
0
 70
128
 71
8
 72
67
 73
66
 74
66
 0
VERTEX
 8
MESH_191_F0
 10
0
 20
0
 30
0
 70
128
 71
7
 72
68
 73
67
 74
67
 0
VERTEX
 8
MESH_191_F0
 10
0
 20
0
 30
0
 70
128
 71
6
 72
69
 73
68
 74
68
 0
VERTEX
 8
MESH_191_F0
 10
0
 20
0
 30
0
 70
128
 71
5
 72
70
 73
69
 74
69
 0
SEQEND
 0
POLYLINE
 8
MESH_190_F0
 66
1
 10
0.0
 20
0.0
 30
0.0
 70
64
 71
18
 72
16
 0
VERTEX
 8
MESH_190_F0
 10
200
 20
0
 30
700
 70
192
 0
VERTEX
 8
MESH_190_F0
 10
200
 20
-18
 30
700
 70
192
 0
VERTEX
 8
MESH_190_F0
 10
239.0077
 20
-18
 30
696.158
 70
192
 0
VERTEX
 8
MESH_190_F0
 10
276.5397
 20
-18
 30
684.7751
 70
192
 0
VERTEX
 8
MESH_190_F0
 10
311.1136
 20
-18
 30
666.2936
 70
192
 0
VERTEX
 8
MESH_190_F0
 10
341.4213
 20
-18
 30
641.4213
 70
192
 0
VERTEX
 8
MESH_190_F0
 10
366.2936
 20
-18
 30
611.1136
 70
192
 0
VERTEX
 8
MESH_190_F0
 10
384.7751
 20
-18
 30
576.5397
 70
192
 0
VERTEX
 8
MESH_190_F0
 10
396.1581
 20
-18
 30
539.0077
 70
192
 0
VERTEX
 8
MESH_190_F0
 10
400
 20
-18
 30
500
 70
192
 0
VERTEX
 8
MESH_190_F0
 10
400
 20
0
 30
500
 70
192
 0
VERTEX
 8
MESH_190_F0
 10
396.1581
 20
0
 30
539.0077
 70
192
 0
VERTEX
 8
MESH_190_F0
 10
384.7751
 20
0
 30
576.5397
 70
192
 0
VERTEX
 8
MESH_190_F0
 10
366.2936
 20
0
 30
611.1136
 70
192
 0
VERTEX
 8
MESH_190_F0
 10
341.4213
 20
0
 30
641.4213
 70
192
 0
VERTEX
 8
MESH_190_F0
 10
311.1136
 20
0
 30
666.2936
 70
192
 0
VERTEX
 8
MESH_190_F0
 10
276.5397
 20
0
 30
684.7751
 70
192
 0
VERTEX
 8
MESH_190_F0
 10
239.0077
 20
0
 30
696.158
 70
192
 0
VERTEX
 8
MESH_190_F0
 10
0
 20
0
 30
0
 70
128
 71
1
 72
3
 73
2
 74
2
 0
VERTEX
 8
MESH_190_F0
 10
0
 20
0
 30
0
 70
128
 71
18
 72
3
 73
1
 74
1
 0
VERTEX
 8
MESH_190_F0
 10
0
 20
0
 30
0
 70
128
 71
4
 72
3
 73
18
 74
18
 0
VERTEX
 8
MESH_190_F0
 10
0
 20
0
 30
0
 70
128
 71
5
 72
4
 73
17
 74
17
 0
VERTEX
 8
MESH_190_F0
 10
0
 20
0
 30
0
 70
128
 71
6
 72
5
 73
16
 74
16
 0
VERTEX
 8
MESH_190_F0
 10
0
 20
0
 30
0
 70
128
 71
7
 72
6
 73
15
 74
15
 0
VERTEX
 8
MESH_190_F0
 10
0
 20
0
 30
0
 70
128
 71
8
 72
7
 73
14
 74
14
 0
VERTEX
 8
MESH_190_F0
 10
0
 20
0
 30
0
 70
128
 71
9
 72
8
 73
13
 74
13
 0
VERTEX
 8
MESH_190_F0
 10
0
 20
0
 30
0
 70
128
 71
11
 72
9
 73
12
 74
12
 0
VERTEX
 8
MESH_190_F0
 10
0
 20
0
 30
0
 70
128
 71
9
 72
13
 73
12
 74
12
 0
VERTEX
 8
MESH_190_F0
 10
0
 20
0
 30
0
 70
128
 71
11
 72
10
 73
9
 74
9
 0
VERTEX
 8
MESH_190_F0
 10
0
 20
0
 30
0
 70
128
 71
8
 72
14
 73
13
 74
13
 0
VERTEX
 8
MESH_190_F0
 10
0
 20
0
 30
0
 70
128
 71
7
 72
15
 73
14
 74
14
 0
VERTEX
 8
MESH_190_F0
 10
0
 20
0
 30
0
 70
128
 71
6
 72
16
 73
15
 74
15
 0
VERTEX
 8
MESH_190_F0
 10
0
 20
0
 30
0
 70
128
 71
5
 72
17
 73
16
 74
16
 0
VERTEX
 8
MESH_190_F0
 10
0
 20
0
 30
0
 70
128
 71
4
 72
18
 73
17
 74
17
 0
SEQEND
 0
POLYLINE
 8
MESH_189_F0
 66
1
 10
0.0
 20
0.0
 30
0.0
 70
64
 71
4
 72
2
 0
VERTEX
 8
MESH_189_F0
 10
400
 20
0
 30
500
 70
192
 0
VERTEX
 8
MESH_189_F0
 10
400
 20
-18
 30
500
 70
192
 0
VERTEX
 8
MESH_189_F0
 10
400
 20
-18
 30
200
 70
192
 0
VERTEX
 8
MESH_189_F0
 10
400
 20
0
 30
200
 70
192
 0
VERTEX
 8
MESH_189_F0
 10
0
 20
0
 30
0
 70
128
 71
4
 72
2
 73
1
 74
1
 0
VERTEX
 8
MESH_189_F0
 10
0
 20
0
 30
0
 70
128
 71
3
 72
2
 73
4
 74
4
 0
SEQEND
 0
POLYLINE
 8
MESH_188_F0
 66
1
 10
0.0
 20
0.0
 30
0.0
 70
64
 71
18
 72
16
 0
VERTEX
 8
MESH_188_F0
 10
400
 20
0
 30
200
 70
192
 0
VERTEX
 8
MESH_188_F0
 10
400
 20
-18
 30
200
 70
192
 0
VERTEX
 8
MESH_188_F0
 10
396.1581
 20
-18
 30
160.9923
 70
192
 0
VERTEX
 8
MESH_188_F0
 10
384.7751
 20
-18
 30
123.4603
 70
192
 0
VERTEX
 8
MESH_188_F0
 10
366.2936
 20
-18
 30
88.8864
 70
192
 0
VERTEX
 8
MESH_188_F0
 10
341.4213
 20
-18
 30
58.5787
 70
192
 0
VERTEX
 8
MESH_188_F0
 10
311.1136
 20
-18
 30
33.7064
 70
192
 0
VERTEX
 8
MESH_188_F0
 10
276.5397
 20
-18
 30
15.2249
 70
192
 0
VERTEX
 8
MESH_188_F0
 10
239.0077
 20
-18
 30
3.8419
 70
192
 0
VERTEX
 8
MESH_188_F0
 10
200
 20
-18
 30
0
 70
192
 0
VERTEX
 8
MESH_188_F0
 10
200
 20
0
 30
0
 70
192
 0
VERTEX
 8
MESH_188_F0
 10
239.0077
 20
0
 30
3.8419
 70
192
 0
VERTEX
 8
MESH_188_F0
 10
276.5397
 20
0
 30
15.2249
 70
192
 0
VERTEX
 8
MESH_188_F0
 10
311.1136
 20
0
 30
33.7064
 70
192
 0
VERTEX
 8
MESH_188_F0
 10
341.4213
 20
0
 30
58.5787
 70
192
 0
VERTEX
 8
MESH_188_F0
 10
366.2936
 20
0
 30
88.8864
 70
192
 0
VERTEX
 8
MESH_188_F0
 10
384.7751
 20
0
 30
123.4603
 70
192
 0
VERTEX
 8
MESH_188_F0
 10
396.1581
 20
0
 30
160.9923
 70
192
 0
VERTEX
 8
MESH_188_F0
 10
0
 20
0
 30
0
 70
128
 71
18
 72
2
 73
1
 74
1
 0
VERTEX
 8
MESH_188_F0
 10
0
 20
0
 30
0
 70
128
 71
3
 72
2
 73
18
 74
18
 0
VERTEX
 8
MESH_188_F0
 10
0
 20
0
 30
0
 70
128
 71
3
 72
18
 73
4
 74
4
 0
VERTEX
 8
MESH_188_F0
 10
0
 20
0
 30
0
 70
128
 71
18
 72
17
 73
4
 74
4
 0
VERTEX
 8
MESH_188_F0
 10
0
 20
0
 30
0
 70
128
 71
17
 72
5
 73
4
 74
4
 0
VERTEX
 8
MESH_188_F0
 10
0
 20
0
 30
0
 70
128
 71
16
 72
5
 73
17
 74
17
 0
VERTEX
 8
MESH_188_F0
 10
0
 20
0
 30
0
 70
128
 71
6
 72
5
 73
16
 74
16
 0
VERTEX
 8
MESH_188_F0
 10
0
 20
0
 30
0
 70
128
 71
7
 72
6
 73
15
 74
15
 0
VERTEX
 8
MESH_188_F0
 10
0
 20
0
 30
0
 70
128
 71
8
 72
7
 73
14
 74
14
 0
VERTEX
 8
MESH_188_F0
 10
0
 20
0
 30
0
 70
128
 71
9
 72
8
 73
13
 74
13
 0
VERTEX
 8
MESH_188_F0
 10
0
 20
0
 30
0
 70
128
 71
10
 72
9
 73
12
 74
12
 0
VERTEX
 8
MESH_188_F0
 10
0
 20
0
 30
0
 70
128
 71
10
 72
12
 73
11
 74
11
 0
VERTEX
 8
MESH_188_F0
 10
0
 20
0
 30
0
 70
128
 71
9
 72
13
 73
12
 74
12
 0
VERTEX
 8
MESH_188_F0
 10
0
 20
0
 30
0
 70
128
 71
8
 72
14
 73
13
 74
13
 0
VERTEX
 8
MESH_188_F0
 10
0
 20
0
 30
0
 70
128
 71
7
 72
15
 73
14
 74
14
 0
VERTEX
 8
MESH_188_F0
 10
0
 20
0
 30
0
 70
128
 71
6
 72
16
 73
15
 74
15
 0
SEQEND
 0
POLYLINE
 8
MESH_187_F0
 66
1
 10
0.0
 20
0.0
 30
0.0
 70
64
 71
4
 72
2
 0
VERTEX
 8
MESH_187_F0
 10
200
 20
0
 30
0
 70
192
 0
VERTEX
 8
MESH_187_F0
 10
200
 20
-18
 30
0
 70
192
 0
VERTEX
 8
MESH_187_F0
 10
-200
 20
-18
 30
0
 70
192
 0
VERTEX
 8
MESH_187_F0
 10
-200
 20
0
 30
0
 70
192
 0
VERTEX
 8
MESH_187_F0
 10
0
 20
0
 30
0
 70
128
 71
4
 72
2
 73
1
 74
1
 0
VERTEX
 8
MESH_187_F0
 10
0
 20
0
 30
0
 70
128
 71
3
 72
2
 73
4
 74
4
 0
SEQEND
 0
POLYLINE
 8
MESH_186_F0
 66
1
 10
0.0
 20
0.0
 30
0.0
 70
64
 71
18
 72
16
 0
VERTEX
 8
MESH_186_F0
 10
-200
 20
0
 30
0
 70
192
 0
VERTEX
 8
MESH_186_F0
 10
-200
 20
-18
 30
0
 70
192
 0
VERTEX
 8
MESH_186_F0
 10
-239.0077
 20
-18
 30
3.8419
 70
192
 0
VERTEX
 8
MESH_186_F0
 10
-276.5397
 20
-18
 30
15.2249
 70
192
 0
VERTEX
 8
MESH_186_F0
 10
-311.1136
 20
-18
 30
33.7064
 70
192
 0
VERTEX
 8
MESH_186_F0
 10
-341.4213
 20
-18
 30
58.5787
 70
192
 0
VERTEX
 8
MESH_186_F0
 10
-366.2936
 20
-18
 30
88.8864
 70
192
 0
VERTEX
 8
MESH_186_F0
 10
-384.7751
 20
-18
 30
123.4603
 70
192
 0
VERTEX
 8
MESH_186_F0
 10
-396.1581
 20
-18
 30
160.9923
 70
192
 0
VERTEX
 8
MESH_186_F0
 10
-400
 20
-18
 30
200
 70
192
 0
VERTEX
 8
MESH_186_F0
 10
-400
 20
0
 30
200
 70
192
 0
VERTEX
 8
MESH_186_F0
 10
-396.1581
 20
0
 30
160.9923
 70
192
 0
VERTEX
 8
MESH_186_F0
 10
-384.7751
 20
0
 30
123.4603
 70
192
 0
VERTEX
 8
MESH_186_F0
 10
-366.2936
 20
0
 30
88.8864
 70
192
 0
VERTEX
 8
MESH_186_F0
 10
-341.4213
 20
0
 30
58.5787
 70
192
 0
VERTEX
 8
MESH_186_F0
 10
-311.1136
 20
0
 30
33.7064
 70
192
 0
VERTEX
 8
MESH_186_F0
 10
-276.5397
 20
0
 30
15.2249
 70
192
 0
VERTEX
 8
MESH_186_F0
 10
-239.0077
 20
0
 30
3.8419
 70
192
 0
VERTEX
 8
MESH_186_F0
 10
0
 20
0
 30
0
 70
128
 71
1
 72
3
 73
2
 74
2
 0
VERTEX
 8
MESH_186_F0
 10
0
 20
0
 30
0
 70
128
 71
18
 72
3
 73
1
 74
1
 0
VERTEX
 8
MESH_186_F0
 10
0
 20
0
 30
0
 70
128
 71
4
 72
3
 73
18
 74
18
 0
VERTEX
 8
MESH_186_F0
 10
0
 20
0
 30
0
 70
128
 71
5
 72
4
 73
17
 74
17
 0
VERTEX
 8
MESH_186_F0
 10
0
 20
0
 30
0
 70
128
 71
6
 72
5
 73
16
 74
16
 0
VERTEX
 8
MESH_186_F0
 10
0
 20
0
 30
0
 70
128
 71
7
 72
6
 73
15
 74
15
 0
VERTEX
 8
MESH_186_F0
 10
0
 20
0
 30
0
 70
128
 71
8
 72
7
 73
14
 74
14
 0
VERTEX
 8
MESH_186_F0
 10
0
 20
0
 30
0
 70
128
 71
9
 72
8
 73
13
 74
13
 0
VERTEX
 8
MESH_186_F0
 10
0
 20
0
 30
0
 70
128
 71
10
 72
9
 73
12
 74
12
 0
VERTEX
 8
MESH_186_F0
 10
0
 20
0
 30
0
 70
128
 71
10
 72
12
 73
11
 74
11
 0
VERTEX
 8
MESH_186_F0
 10
0
 20
0
 30
0
 70
128
 71
9
 72
13
 73
12
 74
12
 0
VERTEX
 8
MESH_186_F0
 10
0
 20
0
 30
0
 70
128
 71
8
 72
14
 73
13
 74
13
 0
VERTEX
 8
MESH_186_F0
 10
0
 20
0
 30
0
 70
128
 71
7
 72
15
 73
14
 74
14
 0
VERTEX
 8
MESH_186_F0
 10
0
 20
0
 30
0
 70
128
 71
6
 72
16
 73
15
 74
15
 0
VERTEX
 8
MESH_186_F0
 10
0
 20
0
 30
0
 70
128
 71
5
 72
17
 73
16
 74
16
 0
VERTEX
 8
MESH_186_F0
 10
0
 20
0
 30
0
 70
128
 71
4
 72
18
 73
17
 74
17
 0
SEQEND
 0
POLYLINE
 8
MESH_185_F0
 66
1
 10
0.0
 20
0.0
 30
0.0
 70
64
 71
4
 72
2
 0
VERTEX
 8
MESH_185_F0
 10
-400
 20
0
 30
200
 70
192
 0
VERTEX
 8
MESH_185_F0
 10
-400
 20
-18
 30
200
 70
192
 0
VERTEX
 8
MESH_185_F0
 10
-400
 20
-18
 30
500
 70
192
 0
VERTEX
 8
MESH_185_F0
 10
-400
 20
0
 30
500
 70
192
 0
VERTEX
 8
MESH_185_F0
 10
0
 20
0
 30
0
 70
128
 71
4
 72
2
 73
1
 74
1
 0
VERTEX
 8
MESH_185_F0
 10
0
 20
0
 30
0
 70
128
 71
3
 72
2
 73
4
 74
4
 0
SEQEND
 0
POLYLINE
 8
MESH_184_F0
 66
1
 10
0.0
 20
0.0
 30
0.0
 70
64
 71
18
 72
16
 0
VERTEX
 8
MESH_184_F0
 10
-400
 20
0
 30
500
 70
192
 0
VERTEX
 8
MESH_184_F0
 10
-400
 20
-18
 30
500
 70
192
 0
VERTEX
 8
MESH_184_F0
 10
-396.1581
 20
-18
 30
539.0077
 70
192
 0
VERTEX
 8
MESH_184_F0
 10
-384.7751
 20
-18
 30
576.5397
 70
192
 0
VERTEX
 8
MESH_184_F0
 10
-366.2936
 20
-18
 30
611.1136
 70
192
 0
VERTEX
 8
MESH_184_F0
 10
-341.4213
 20
-18
 30
641.4213
 70
192
 0
VERTEX
 8
MESH_184_F0
 10
-311.1136
 20
-18
 30
666.2936
 70
192
 0
VERTEX
 8
MESH_184_F0
 10
-276.5397
 20
-18
 30
684.7751
 70
192
 0
VERTEX
 8
MESH_184_F0
 10
-239.0077
 20
-18
 30
696.158
 70
192
 0
VERTEX
 8
MESH_184_F0
 10
-200
 20
-18
 30
700
 70
192
 0
VERTEX
 8
MESH_184_F0
 10
-200
 20
0
 30
700
 70
192
 0
VERTEX
 8
MESH_184_F0
 10
-239.0077
 20
0
 30
696.158
 70
192
 0
VERTEX
 8
MESH_184_F0
 10
-276.5397
 20
0
 30
684.7751
 70
192
 0
VERTEX
 8
MESH_184_F0
 10
-311.1136
 20
0
 30
666.2936
 70
192
 0
VERTEX
 8
MESH_184_F0
 10
-341.4213
 20
0
 30
641.4213
 70
192
 0
VERTEX
 8
MESH_184_F0
 10
-366.2936
 20
0
 30
611.1136
 70
192
 0
VERTEX
 8
MESH_184_F0
 10
-384.7751
 20
0
 30
576.5397
 70
192
 0
VERTEX
 8
MESH_184_F0
 10
-396.1581
 20
0
 30
539.0077
 70
192
 0
VERTEX
 8
MESH_184_F0
 10
0
 20
0
 30
0
 70
128
 71
1
 72
3
 73
2
 74
2
 0
VERTEX
 8
MESH_184_F0
 10
0
 20
0
 30
0
 70
128
 71
18
 72
3
 73
1
 74
1
 0
VERTEX
 8
MESH_184_F0
 10
0
 20
0
 30
0
 70
128
 71
4
 72
3
 73
18
 74
18
 0
VERTEX
 8
MESH_184_F0
 10
0
 20
0
 30
0
 70
128
 71
5
 72
4
 73
17
 74
17
 0
VERTEX
 8
MESH_184_F0
 10
0
 20
0
 30
0
 70
128
 71
6
 72
5
 73
16
 74
16
 0
VERTEX
 8
MESH_184_F0
 10
0
 20
0
 30
0
 70
128
 71
7
 72
6
 73
15
 74
15
 0
VERTEX
 8
MESH_184_F0
 10
0
 20
0
 30
0
 70
128
 71
8
 72
7
 73
14
 74
14
 0
VERTEX
 8
MESH_184_F0
 10
0
 20
0
 30
0
 70
128
 71
9
 72
8
 73
13
 74
13
 0
VERTEX
 8
MESH_184_F0
 10
0
 20
0
 30
0
 70
128
 71
10
 72
9
 73
12
 74
12
 0
VERTEX
 8
MESH_184_F0
 10
0
 20
0
 30
0
 70
128
 71
10
 72
12
 73
11
 74
11
 0
VERTEX
 8
MESH_184_F0
 10
0
 20
0
 30
0
 70
128
 71
9
 72
13
 73
12
 74
12
 0
VERTEX
 8
MESH_184_F0
 10
0
 20
0
 30
0
 70
128
 71
8
 72
14
 73
13
 74
13
 0
VERTEX
 8
MESH_184_F0
 10
0
 20
0
 30
0
 70
128
 71
7
 72
15
 73
14
 74
14
 0
VERTEX
 8
MESH_184_F0
 10
0
 20
0
 30
0
 70
128
 71
6
 72
16
 73
15
 74
15
 0
VERTEX
 8
MESH_184_F0
 10
0
 20
0
 30
0
 70
128
 71
5
 72
17
 73
16
 74
16
 0
VERTEX
 8
MESH_184_F0
 10
0
 20
0
 30
0
 70
128
 71
4
 72
18
 73
17
 74
17
 0
SEQEND
 0
POLYLINE
 8
MESH_183_F0
 66
1
 10
0.0
 20
0.0
 30
0.0
 70
64
 71
4
 72
2
 0
VERTEX
 8
MESH_183_F0
 10
-200
 20
0
 30
700
 70
192
 0
VERTEX
 8
MESH_183_F0
 10
-200
 20
-18
 30
700
 70
192
 0
VERTEX
 8
MESH_183_F0
 10
200
 20
-18
 30
700
 70
192
 0
VERTEX
 8
MESH_183_F0
 10
200
 20
0
 30
700
 70
192
 0
VERTEX
 8
MESH_183_F0
 10
0
 20
0
 30
0
 70
128
 71
4
 72
2
 73
1
 74
1
 0
VERTEX
 8
MESH_183_F0
 10
0
 20
0
 30
0
 70
128
 71
3
 72
2
 73
4
 74
4
 0
SEQEND
 0
POLYLINE
 8
MESH_182_F0
 66
1
 10
0.0
 20
0.0
 30
0.0
 70
64
 71
10
 72
8
 0
VERTEX
 8
MESH_182_F0
 10
280
 20
-18
 30
200
 70
192
 0
VERTEX
 8
MESH_182_F0
 10
277.274
 20
-18
 30
179.2945
 70
192
 0
VERTEX
 8
MESH_182_F0
 10
269.282
 20
-18
 30
160
 70
192
 0
VERTEX
 8
MESH_182_F0
 10
256.5685
 20
-18
 30
143.4315
 70
192
 0
VERTEX
 8
MESH_182_F0
 10
240
 20
-18
 30
130.718
 70
192
 0
VERTEX
 8
MESH_182_F0
 10
240
 20
-18
 30
569.282
 70
192
 0
VERTEX
 8
MESH_182_F0
 10
256.5685
 20
-18
 30
556.5685
 70
192
 0
VERTEX
 8
MESH_182_F0
 10
269.282
 20
-18
 30
540
 70
192
 0
VERTEX
 8
MESH_182_F0
 10
277.274
 20
-18
 30
520.7055
 70
192
 0
VERTEX
 8
MESH_182_F0
 10
280
 20
-18
 30
500
 70
192
 0
VERTEX
 8
MESH_182_F0
 10
0
 20
0
 30
0
 70
128
 71
1
 72
3
 73
2
 74
2
 0
VERTEX
 8
MESH_182_F0
 10
0
 20
0
 30
0
 70
128
 71
8
 72
3
 73
1
 74
1
 0
VERTEX
 8
MESH_182_F0
 10
0
 20
0
 30
0
 70
128
 71
9
 72
8
 73
10
 74
10
 0
VERTEX
 8
MESH_182_F0
 10
0
 20
0
 30
0
 70
128
 71
8
 72
1
 73
10
 74
10
 0
VERTEX
 8
MESH_182_F0
 10
0
 20
0
 30
0
 70
128
 71
7
 72
3
 73
8
 74
8
 0
VERTEX
 8
MESH_182_F0
 10
0
 20
0
 30
0
 70
128
 71
4
 72
3
 73
7
 74
7
 0
VERTEX
 8
MESH_182_F0
 10
0
 20
0
 30
0
 70
128
 71
4
 72
7
 73
5
 74
5
 0
VERTEX
 8
MESH_182_F0
 10
0
 20
0
 30
0
 70
128
 71
7
 72
6
 73
5
 74
5
 0
SEQEND
 0
POLYLINE
 8
MESH_181_F0
 66
1
 10
0.0
 20
0.0
 30
0.0
 70
64
 71
4
 72
2
 0
VERTEX
 8
MESH_181_F0
 10
-200
 20
-18
 30
580
 70
192
 0
VERTEX
 8
MESH_181_F0
 10
-200
 20
0
 30
580
 70
192
 0
VERTEX
 8
MESH_181_F0
 10
200
 20
0
 30
580
 70
192
 0
VERTEX
 8
MESH_181_F0
 10
200
 20
-18
 30
580
 70
192
 0
VERTEX
 8
MESH_181_F0
 10
0
 20
0
 30
0
 70
128
 71
4
 72
2
 73
1
 74
1
 0
VERTEX
 8
MESH_181_F0
 10
0
 20
0
 30
0
 70
128
 71
3
 72
2
 73
4
 74
4
 0
SEQEND
 0
POLYLINE
 8
MESH_180_F0
 66
1
 10
0.0
 20
0.0
 30
0.0
 70
64
 71
4
 72
2
 0
VERTEX
 8
MESH_180_F0
 10
-280
 20
-18
 30
200
 70
192
 0
VERTEX
 8
MESH_180_F0
 10
-280
 20
0
 30
200
 70
192
 0
VERTEX
 8
MESH_180_F0
 10
-280
 20
0
 30
500
 70
192
 0
VERTEX
 8
MESH_180_F0
 10
-280
 20
-18
 30
500
 70
192
 0
VERTEX
 8
MESH_180_F0
 10
0
 20
0
 30
0
 70
128
 71
4
 72
2
 73
1
 74
1
 0
VERTEX
 8
MESH_180_F0
 10
0
 20
0
 30
0
 70
128
 71
3
 72
2
 73
4
 74
4
 0
SEQEND
 0
POLYLINE
 8
MESH_179_F0
 66
1
 10
0.0
 20
0.0
 30
0.0
 70
64
 71
10
 72
8
 0
VERTEX
 8
MESH_179_F0
 10
-280
 20
-18
 30
500
 70
192
 0
VERTEX
 8
MESH_179_F0
 10
-277.274
 20
-18
 30
520.7055
 70
192
 0
VERTEX
 8
MESH_179_F0
 10
-269.282
 20
-18
 30
540
 70
192
 0
VERTEX
 8
MESH_179_F0
 10
-256.5685
 20
-18
 30
556.5685
 70
192
 0
VERTEX
 8
MESH_179_F0
 10
-240
 20
-18
 30
569.282
 70
192
 0
VERTEX
 8
MESH_179_F0
 10
-240
 20
-18
 30
130.718
 70
192
 0
VERTEX
 8
MESH_179_F0
 10
-256.5685
 20
-18
 30
143.4315
 70
192
 0
VERTEX
 8
MESH_179_F0
 10
-269.282
 20
-18
 30
160
 70
192
 0
VERTEX
 8
MESH_179_F0
 10
-277.274
 20
-18
 30
179.2945
 70
192
 0
VERTEX
 8
MESH_179_F0
 10
-280
 20
-18
 30
200
 70
192
 0
VERTEX
 8
MESH_179_F0
 10
0
 20
0
 30
0
 70
128
 71
1
 72
3
 73
2
 74
2
 0
VERTEX
 8
MESH_179_F0
 10
0
 20
0
 30
0
 70
128
 71
10
 72
3
 73
1
 74
1
 0
VERTEX
 8
MESH_179_F0
 10
0
 20
0
 30
0
 70
128
 71
8
 72
3
 73
10
 74
10
 0
VERTEX
 8
MESH_179_F0
 10
0
 20
0
 30
0
 70
128
 71
8
 72
10
 73
9
 74
9
 0
VERTEX
 8
MESH_179_F0
 10
0
 20
0
 30
0
 70
128
 71
8
 72
4
 73
3
 74
3
 0
VERTEX
 8
MESH_179_F0
 10
0
 20
0
 30
0
 70
128
 71
7
 72
4
 73
8
 74
8
 0
VERTEX
 8
MESH_179_F0
 10
0
 20
0
 30
0
 70
128
 71
6
 72
4
 73
7
 74
7
 0
VERTEX
 8
MESH_179_F0
 10
0
 20
0
 30
0
 70
128
 71
5
 72
4
 73
6
 74
6
 0
SEQEND
 0
POLYLINE
 8
MESH_178_F0
 66
1
 10
0.0
 20
0.0
 30
0.0
 70
64
 71
4
 72
2
 0
VERTEX
 8
MESH_178_F0
 10
-240
 20
-17.8
 30
569.282
 70
192
 0
VERTEX
 8
MESH_178_F0
 10
-240
 20
-17.8
 30
130.718
 70
192
 0
VERTEX
 8
MESH_178_F0
 10
-240
 20
-18
 30
130.718
 70
192
 0
VERTEX
 8
MESH_178_F0
 10
-240
 20
-18
 30
569.282
 70
192
 0
VERTEX
 8
MESH_178_F0
 10
0
 20
0
 30
0
 70
128
 71
1
 72
3
 73
2
 74
2
 0
VERTEX
 8
MESH_178_F0
 10
0
 20
0
 30
0
 70
128
 71
4
 72
3
 73
1
 74
1
 0
SEQEND
 0
POLYLINE
 8
MESH_177_F0
 66
1
 10
0.0
 20
0.0
 30
0.0
 70
64
 71
25
 72
23
 0
VERTEX
 8
MESH_177_F0
 10
-240
 20
-17.8
 30
569.282
 70
192
 0
VERTEX
 8
MESH_177_F0
 10
-240
 20
-18
 30
569.282
 70
192
 0
VERTEX
 8
MESH_177_F0
 10
-256.5685
 20
-18
 30
556.5685
 70
192
 0
VERTEX
 8
MESH_177_F0
 10
-269.282
 20
-18
 30
540
 70
192
 0
VERTEX
 8
MESH_177_F0
 10
-277.274
 20
-18
 30
520.7055
 70
192
 0
VERTEX
 8
MESH_177_F0
 10
-280
 20
-18
 30
500
 70
192
 0
VERTEX
 8
MESH_177_F0
 10
-280
 20
0
 30
500
 70
192
 0
VERTEX
 8
MESH_177_F0
 10
-278.6971
 20
0
 30
514.3792
 70
192
 0
VERTEX
 8
MESH_177_F0
 10
-274.8309
 20
0
 30
528.29
 70
192
 0
VERTEX
 8
MESH_177_F0
 10
-268.5274
 20
0
 30
541.2794
 70
192
 0
VERTEX
 8
MESH_177_F0
 10
-259.9919
 20
0
 30
552.9243
 70
192
 0
VERTEX
 8
MESH_177_F0
 10
-257.7349
 20
0
 30
555.3776
 70
192
 0
VERTEX
 8
MESH_177_F0
 10
-255.3777
 20
0
 30
557.7349
 70
192
 0
VERTEX
 8
MESH_177_F0
 10
-252.9242
 20
0
 30
559.9919
 70
192
 0
VERTEX
 8
MESH_177_F0
 10
-241.2794
 20
0
 30
568.5274
 70
192
 0
VERTEX
 8
MESH_177_F0
 10
-228.29
 20
0
 30
574.8309
 70
192
 0
VERTEX
 8
MESH_177_F0
 10
-214.3792
 20
0
 30
578.6971
 70
192
 0
VERTEX
 8
MESH_177_F0
 10
-200
 20
0
 30
580
 70
192
 0
VERTEX
 8
MESH_177_F0
 10
-200
 20
-18
 30
580
 70
192
 0
VERTEX
 8
MESH_177_F0
 10
-213.4126
 20
-18
 30
578.8676
 70
192
 0
VERTEX
 8
MESH_177_F0
 10
-226.4456
 20
-18
 30
575.5025
 70
192
 0
VERTEX
 8
MESH_177_F0
 10
-238.7298
 20
-18
 30
570
 70
192
 0
VERTEX
 8
MESH_177_F0
 10
-238.7298
 20
-17.8
 30
570
 70
192
 0
VERTEX
 8
MESH_177_F0
 10
-239.1547
 20
-17.8
 30
569.7632
 70
192
 0
VERTEX
 8
MESH_177_F0
 10
-239.5781
 20
-17.8
 30
569.5239
 70
192
 0
VERTEX
 8
MESH_177_F0
 10
0
 20
0
 30
0
 70
128
 71
1
 72
3
 73
2
 74
2
 0
VERTEX
 8
MESH_177_F0
 10
0
 20
0
 30
0
 70
128
 71
14
 72
3
 73
1
 74
1
 0
VERTEX
 8
MESH_177_F0
 10
0
 20
0
 30
0
 70
128
 71
14
 72
1
 73
15
 74
15
 0
VERTEX
 8
MESH_177_F0
 10
0
 20
0
 30
0
 70
128
 71
1
 72
25
 73
15
 74
15
 0
VERTEX
 8
MESH_177_F0
 10
0
 20
0
 30
0
 70
128
 71
25
 72
24
 73
15
 74
15
 0
VERTEX
 8
MESH_177_F0
 10
0
 20
0
 30
0
 70
128
 71
24
 72
23
 73
15
 74
15
 0
VERTEX
 8
MESH_177_F0
 10
0
 20
0
 30
0
 70
128
 71
23
 72
16
 73
15
 74
15
 0
VERTEX
 8
MESH_177_F0
 10
0
 20
0
 30
0
 70
128
 71
21
 72
16
 73
23
 74
23
 0
VERTEX
 8
MESH_177_F0
 10
0
 20
0
 30
0
 70
128
 71
21
 72
23
 73
22
 74
22
 0
VERTEX
 8
MESH_177_F0
 10
0
 20
0
 30
0
 70
128
 71
4
 72
10
 73
9
 74
9
 0
VERTEX
 8
MESH_177_F0
 10
0
 20
0
 30
0
 70
128
 71
4
 72
9
 73
5
 74
5
 0
VERTEX
 8
MESH_177_F0
 10
0
 20
0
 30
0
 70
128
 71
9
 72
8
 73
5
 74
5
 0
VERTEX
 8
MESH_177_F0
 10
0
 20
0
 30
0
 70
128
 71
8
 72
6
 73
5
 74
5
 0
VERTEX
 8
MESH_177_F0
 10
0
 20
0
 30
0
 70
128
 71
7
 72
6
 73
8
 74
8
 0
VERTEX
 8
MESH_177_F0
 10
0
 20
0
 30
0
 70
128
 71
4
 72
11
 73
10
 74
10
 0
VERTEX
 8
MESH_177_F0
 10
0
 20
0
 30
0
 70
128
 71
3
 72
11
 73
4
 74
4
 0
VERTEX
 8
MESH_177_F0
 10
0
 20
0
 30
0
 70
128
 71
12
 72
11
 73
3
 74
3
 0
VERTEX
 8
MESH_177_F0
 10
0
 20
0
 30
0
 70
128
 71
12
 72
3
 73
13
 74
13
 0
VERTEX
 8
MESH_177_F0
 10
0
 20
0
 30
0
 70
128
 71
3
 72
14
 73
13
 74
13
 0
VERTEX
 8
MESH_177_F0
 10
0
 20
0
 30
0
 70
128
 71
21
 72
17
 73
16
 74
16
 0
VERTEX
 8
MESH_177_F0
 10
0
 20
0
 30
0
 70
128
 71
20
 72
17
 73
21
 74
21
 0
VERTEX
 8
MESH_177_F0
 10
0
 20
0
 30
0
 70
128
 71
19
 72
17
 73
20
 74
20
 0
VERTEX
 8
MESH_177_F0
 10
0
 20
0
 30
0
 70
128
 71
18
 72
17
 73
19
 74
19
 0
SEQEND
 0
POLYLINE
 8
MESH_176_F0
 66
1
 10
0.0
 20
0.0
 30
0.0
 70
64
 71
8
 72
6
 0
VERTEX
 8
MESH_176_F0
 10
200
 20
-18
 30
580
 70
192
 0
VERTEX
 8
MESH_176_F0
 10
213.4126
 20
-18
 30
578.8676
 70
192
 0
VERTEX
 8
MESH_176_F0
 10
226.4456
 20
-18
 30
575.5025
 70
192
 0
VERTEX
 8
MESH_176_F0
 10
238.7298
 20
-18
 30
570
 70
192
 0
VERTEX
 8
MESH_176_F0
 10
-238.7298
 20
-18
 30
570
 70
192
 0
VERTEX
 8
MESH_176_F0
 10
-226.4456
 20
-18
 30
575.5025
 70
192
 0
VERTEX
 8
MESH_176_F0
 10
-213.4126
 20
-18
 30
578.8676
 70
192
 0
VERTEX
 8
MESH_176_F0
 10
-200
 20
-18
 30
580
 70
192
 0
VERTEX
 8
MESH_176_F0
 10
0
 20
0
 30
0
 70
128
 71
7
 72
1
 73
8
 74
8
 0
VERTEX
 8
MESH_176_F0
 10
0
 20
0
 30
0
 70
128
 71
2
 72
1
 73
7
 74
7
 0
VERTEX
 8
MESH_176_F0
 10
0
 20
0
 30
0
 70
128
 71
3
 72
2
 73
6
 74
6
 0
VERTEX
 8
MESH_176_F0
 10
0
 20
0
 30
0
 70
128
 71
4
 72
3
 73
5
 74
5
 0
VERTEX
 8
MESH_176_F0
 10
0
 20
0
 30
0
 70
128
 71
3
 72
6
 73
5
 74
5
 0
VERTEX
 8
MESH_176_F0
 10
0
 20
0
 30
0
 70
128
 71
2
 72
7
 73
6
 74
6
 0
SEQEND
 0
POLYLINE
 8
MESH_175_F0
 66
1
 10
0.0
 20
0.0
 30
0.0
 70
64
 71
4
 72
2
 0
VERTEX
 8
MESH_175_F0
 10
-238.7298
 20
-18
 30
570
 70
192
 0
VERTEX
 8
MESH_175_F0
 10
238.7298
 20
-18
 30
570
 70
192
 0
VERTEX
 8
MESH_175_F0
 10
238.7298
 20
-17.8
 30
570
 70
192
 0
VERTEX
 8
MESH_175_F0
 10
-238.7298
 20
-17.8
 30
570
 70
192
 0
VERTEX
 8
MESH_175_F0
 10
0
 20
0
 30
0
 70
128
 71
1
 72
3
 73
2
 74
2
 0
VERTEX
 8
MESH_175_F0
 10
0
 20
0
 30
0
 70
128
 71
4
 72
3
 73
1
 74
1
 0
SEQEND
 0
POLYLINE
 8
MESH_174_F0
 66
1
 10
0.0
 20
0.0
 30
0.0
 70
64
 71
25
 72
23
 0
VERTEX
 8
MESH_174_F0
 10
238.7298
 20
-17.8
 30
570
 70
192
 0
VERTEX
 8
MESH_174_F0
 10
238.7298
 20
-18
 30
570
 70
192
 0
VERTEX
 8
MESH_174_F0
 10
226.4456
 20
-18
 30
575.5025
 70
192
 0
VERTEX
 8
MESH_174_F0
 10
213.4126
 20
-18
 30
578.8676
 70
192
 0
VERTEX
 8
MESH_174_F0
 10
200
 20
-18
 30
580
 70
192
 0
VERTEX
 8
MESH_174_F0
 10
200
 20
0
 30
580
 70
192
 0
VERTEX
 8
MESH_174_F0
 10
214.3792
 20
0
 30
578.6971
 70
192
 0
VERTEX
 8
MESH_174_F0
 10
228.29
 20
0
 30
574.8309
 70
192
 0
VERTEX
 8
MESH_174_F0
 10
241.2794
 20
0
 30
568.5274
 70
192
 0
VERTEX
 8
MESH_174_F0
 10
252.9242
 20
0
 30
559.9919
 70
192
 0
VERTEX
 8
MESH_174_F0
 10
255.3777
 20
0
 30
557.7349
 70
192
 0
VERTEX
 8
MESH_174_F0
 10
257.7349
 20
0
 30
555.3776
 70
192
 0
VERTEX
 8
MESH_174_F0
 10
259.9919
 20
0
 30
552.9243
 70
192
 0
VERTEX
 8
MESH_174_F0
 10
268.5274
 20
0
 30
541.2794
 70
192
 0
VERTEX
 8
MESH_174_F0
 10
274.8309
 20
0
 30
528.29
 70
192
 0
VERTEX
 8
MESH_174_F0
 10
278.6971
 20
0
 30
514.3792
 70
192
 0
VERTEX
 8
MESH_174_F0
 10
280
 20
0
 30
500
 70
192
 0
VERTEX
 8
MESH_174_F0
 10
280
 20
-18
 30
500
 70
192
 0
VERTEX
 8
MESH_174_F0
 10
277.274
 20
-18
 30
520.7055
 70
192
 0
VERTEX
 8
MESH_174_F0
 10
269.282
 20
-18
 30
540
 70
192
 0
VERTEX
 8
MESH_174_F0
 10
256.5685
 20
-18
 30
556.5685
 70
192
 0
VERTEX
 8
MESH_174_F0
 10
240
 20
-18
 30
569.282
 70
192
 0
VERTEX
 8
MESH_174_F0
 10
240
 20
-17.8
 30
569.282
 70
192
 0
VERTEX
 8
MESH_174_F0
 10
239.5781
 20
-17.8
 30
569.5239
 70
192
 0
VERTEX
 8
MESH_174_F0
 10
239.1547
 20
-17.8
 30
569.7632
 70
192
 0
VERTEX
 8
MESH_174_F0
 10
0
 20
0
 30
0
 70
128
 71
1
 72
3
 73
2
 74
2
 0
VERTEX
 8
MESH_174_F0
 10
0
 20
0
 30
0
 70
128
 71
8
 72
3
 73
1
 74
1
 0
VERTEX
 8
MESH_174_F0
 10
0
 20
0
 30
0
 70
128
 71
8
 72
1
 73
9
 74
9
 0
VERTEX
 8
MESH_174_F0
 10
0
 20
0
 30
0
 70
128
 71
1
 72
25
 73
9
 74
9
 0
VERTEX
 8
MESH_174_F0
 10
0
 20
0
 30
0
 70
128
 71
25
 72
24
 73
9
 74
9
 0
VERTEX
 8
MESH_174_F0
 10
0
 20
0
 30
0
 70
128
 71
24
 72
23
 73
9
 74
9
 0
VERTEX
 8
MESH_174_F0
 10
0
 20
0
 30
0
 70
128
 71
23
 72
10
 73
9
 74
9
 0
VERTEX
 8
MESH_174_F0
 10
0
 20
0
 30
0
 70
128
 71
21
 72
10
 73
23
 74
23
 0
VERTEX
 8
MESH_174_F0
 10
0
 20
0
 30
0
 70
128
 71
21
 72
23
 73
22
 74
22
 0
VERTEX
 8
MESH_174_F0
 10
0
 20
0
 30
0
 70
128
 71
7
 72
3
 73
8
 74
8
 0
VERTEX
 8
MESH_174_F0
 10
0
 20
0
 30
0
 70
128
 71
4
 72
3
 73
7
 74
7
 0
VERTEX
 8
MESH_174_F0
 10
0
 20
0
 30
0
 70
128
 71
5
 72
4
 73
6
 74
6
 0
VERTEX
 8
MESH_174_F0
 10
0
 20
0
 30
0
 70
128
 71
4
 72
7
 73
6
 74
6
 0
VERTEX
 8
MESH_174_F0
 10
0
 20
0
 30
0
 70
128
 71
21
 72
11
 73
10
 74
10
 0
VERTEX
 8
MESH_174_F0
 10
0
 20
0
 30
0
 70
128
 71
12
 72
11
 73
21
 74
21
 0
VERTEX
 8
MESH_174_F0
 10
0
 20
0
 30
0
 70
128
 71
12
 72
21
 73
13
 74
13
 0
VERTEX
 8
MESH_174_F0
 10
0
 20
0
 30
0
 70
128
 71
21
 72
20
 73
13
 74
13
 0
VERTEX
 8
MESH_174_F0
 10
0
 20
0
 30
0
 70
128
 71
20
 72
14
 73
13
 74
13
 0
VERTEX
 8
MESH_174_F0
 10
0
 20
0
 30
0
 70
128
 71
15
 72
14
 73
20
 74
20
 0
VERTEX
 8
MESH_174_F0
 10
0
 20
0
 30
0
 70
128
 71
16
 72
15
 73
19
 74
19
 0
VERTEX
 8
MESH_174_F0
 10
0
 20
0
 30
0
 70
128
 71
17
 72
16
 73
18
 74
18
 0
VERTEX
 8
MESH_174_F0
 10
0
 20
0
 30
0
 70
128
 71
16
 72
19
 73
18
 74
18
 0
VERTEX
 8
MESH_174_F0
 10
0
 20
0
 30
0
 70
128
 71
15
 72
20
 73
19
 74
19
 0
SEQEND
 0
POLYLINE
 8
MESH_173_F0
 66
1
 10
0.0
 20
0.0
 30
0.0
 70
64
 71
4
 72
2
 0
VERTEX
 8
MESH_173_F0
 10
280
 20
-18
 30
500
 70
192
 0
VERTEX
 8
MESH_173_F0
 10
280
 20
0
 30
500
 70
192
 0
VERTEX
 8
MESH_173_F0
 10
280
 20
0
 30
200
 70
192
 0
VERTEX
 8
MESH_173_F0
 10
280
 20
-18
 30
200
 70
192
 0
VERTEX
 8
MESH_173_F0
 10
0
 20
0
 30
0
 70
128
 71
4
 72
2
 73
1
 74
1
 0
VERTEX
 8
MESH_173_F0
 10
0
 20
0
 30
0
 70
128
 71
3
 72
2
 73
4
 74
4
 0
SEQEND
 0
POLYLINE
 8
MESH_172_F0
 66
1
 10
0.0
 20
0.0
 30
0.0
 70
64
 71
81
 72
81
 0
VERTEX
 8
MESH_172_F0
 10
-200
 20
0
 30
120
 70
192
 0
VERTEX
 8
MESH_172_F0
 10
200
 20
0
 30
120
 70
192
 0
VERTEX
 8
MESH_172_F0
 10
215.6074
 20
0
 30
121.5372
 70
192
 0
VERTEX
 8
MESH_172_F0
 10
230.6147
 20
0
 30
126.0897
 70
192
 0
VERTEX
 8
MESH_172_F0
 10
244.4456
 20
0
 30
133.4826
 70
192
 0
VERTEX
 8
MESH_172_F0
 10
256.5685
 20
0
 30
143.4315
 70
192
 0
VERTEX
 8
MESH_172_F0
 10
266.5174
 20
0
 30
155.5544
 70
192
 0
VERTEX
 8
MESH_172_F0
 10
273.9103
 20
0
 30
169.3853
 70
192
 0
VERTEX
 8
MESH_172_F0
 10
278.4628
 20
0
 30
184.3926
 70
192
 0
VERTEX
 8
MESH_172_F0
 10
280
 20
0
 30
200
 70
192
 0
VERTEX
 8
MESH_172_F0
 10
280
 20
0
 30
500
 70
192
 0
VERTEX
 8
MESH_172_F0
 10
278.6971
 20
0
 30
514.3792
 70
192
 0
VERTEX
 8
MESH_172_F0
 10
274.8309
 20
0
 30
528.29
 70
192
 0
VERTEX
 8
MESH_172_F0
 10
268.5274
 20
0
 30
541.2794
 70
192
 0
VERTEX
 8
MESH_172_F0
 10
259.9919
 20
0
 30
552.9243
 70
192
 0
VERTEX
 8
MESH_172_F0
 10
257.7349
 20
0
 30
555.3776
 70
192
 0
VERTEX
 8
MESH_172_F0
 10
255.3777
 20
0
 30
557.7349
 70
192
 0
VERTEX
 8
MESH_172_F0
 10
252.9242
 20
0
 30
559.9919
 70
192
 0
VERTEX
 8
MESH_172_F0
 10
241.2794
 20
0
 30
568.5274
 70
192
 0
VERTEX
 8
MESH_172_F0
 10
228.29
 20
0
 30
574.8309
 70
192
 0
VERTEX
 8
MESH_172_F0
 10
214.3792
 20
0
 30
578.6971
 70
192
 0
VERTEX
 8
MESH_172_F0
 10
200
 20
0
 30
580
 70
192
 0
VERTEX
 8
MESH_172_F0
 10
-200
 20
0
 30
580
 70
192
 0
VERTEX
 8
MESH_172_F0
 10
-214.3792
 20
0
 30
578.6971
 70
192
 0
VERTEX
 8
MESH_172_F0
 10
-228.29
 20
0
 30
574.8309
 70
192
 0
VERTEX
 8
MESH_172_F0
 10
-241.2794
 20
0
 30
568.5274
 70
192
 0
VERTEX
 8
MESH_172_F0
 10
-252.9242
 20
0
 30
559.9919
 70
192
 0
VERTEX
 8
MESH_172_F0
 10
-255.3777
 20
0
 30
557.7349
 70
192
 0
VERTEX
 8
MESH_172_F0
 10
-257.7349
 20
0
 30
555.3776
 70
192
 0
VERTEX
 8
MESH_172_F0
 10
-259.9919
 20
0
 30
552.9243
 70
192
 0
VERTEX
 8
MESH_172_F0
 10
-268.5274
 20
0
 30
541.2794
 70
192
 0
VERTEX
 8
MESH_172_F0
 10
-274.8309
 20
0
 30
528.29
 70
192
 0
VERTEX
 8
MESH_172_F0
 10
-278.6971
 20
0
 30
514.3792
 70
192
 0
VERTEX
 8
MESH_172_F0
 10
-280
 20
0
 30
500
 70
192
 0
VERTEX
 8
MESH_172_F0
 10
-280
 20
0
 30
200
 70
192
 0
VERTEX
 8
MESH_172_F0
 10
-278.6971
 20
0
 30
185.6208
 70
192
 0
VERTEX
 8
MESH_172_F0
 10
-274.8309
 20
0
 30
171.71
 70
192
 0
VERTEX
 8
MESH_172_F0
 10
-268.5274
 20
0
 30
158.7206
 70
192
 0
VERTEX
 8
MESH_172_F0
 10
-259.9919
 20
0
 30
147.0757
 70
192
 0
VERTEX
 8
MESH_172_F0
 10
-257.7349
 20
0
 30
144.6223
 70
192
 0
VERTEX
 8
MESH_172_F0
 10
-255.3777
 20
0
 30
142.2651
 70
192
 0
VERTEX
 8
MESH_172_F0
 10
-252.9242
 20
0
 30
140.0081
 70
192
 0
VERTEX
 8
MESH_172_F0
 10
-241.2794
 20
0
 30
131.4726
 70
192
 0
VERTEX
 8
MESH_172_F0
 10
-228.29
 20
0
 30
125.1691
 70
192
 0
VERTEX
 8
MESH_172_F0
 10
-214.3792
 20
0
 30
121.3029
 70
192
 0
VERTEX
 8
MESH_172_F0
 10
-200
 20
0
 30
700
 70
192
 0
VERTEX
 8
MESH_172_F0
 10
200
 20
0
 30
700
 70
192
 0
VERTEX
 8
MESH_172_F0
 10
239.0077
 20
0
 30
696.158
 70
192
 0
VERTEX
 8
MESH_172_F0
 10
276.5397
 20
0
 30
684.7751
 70
192
 0
VERTEX
 8
MESH_172_F0
 10
311.1136
 20
0
 30
666.2936
 70
192
 0
VERTEX
 8
MESH_172_F0
 10
341.4213
 20
0
 30
641.4213
 70
192
 0
VERTEX
 8
MESH_172_F0
 10
366.2936
 20
0
 30
611.1136
 70
192
 0
VERTEX
 8
MESH_172_F0
 10
384.7751
 20
0
 30
576.5397
 70
192
 0
VERTEX
 8
MESH_172_F0
 10
396.1581
 20
0
 30
539.0077
 70
192
 0
VERTEX
 8
MESH_172_F0
 10
400
 20
0
 30
500
 70
192
 0
VERTEX
 8
MESH_172_F0
 10
400
 20
0
 30
200
 70
192
 0
VERTEX
 8
MESH_172_F0
 10
396.1581
 20
0
 30
160.9923
 70
192
 0
VERTEX
 8
MESH_172_F0
 10
384.7751
 20
0
 30
123.4603
 70
192
 0
VERTEX
 8
MESH_172_F0
 10
366.2936
 20
0
 30
88.8864
 70
192
 0
VERTEX
 8
MESH_172_F0
 10
341.4213
 20
0
 30
58.5787
 70
192
 0
VERTEX
 8
MESH_172_F0
 10
311.1136
 20
0
 30
33.7064
 70
192
 0
VERTEX
 8
MESH_172_F0
 10
276.5397
 20
0
 30
15.2249
 70
192
 0
VERTEX
 8
MESH_172_F0
 10
239.0077
 20
0
 30
3.8419
 70
192
 0
VERTEX
 8
MESH_172_F0
 10
200
 20
0
 30
0
 70
192
 0
VERTEX
 8
MESH_172_F0
 10
-200
 20
0
 30
0
 70
192
 0
VERTEX
 8
MESH_172_F0
 10
-239.0077
 20
0
 30
3.8419
 70
192
 0
VERTEX
 8
MESH_172_F0
 10
-276.5397
 20
0
 30
15.2249
 70
192
 0
VERTEX
 8
MESH_172_F0
 10
-311.1136
 20
0
 30
33.7064
 70
192
 0
VERTEX
 8
MESH_172_F0
 10
-341.4213
 20
0
 30
58.5787
 70
192
 0
VERTEX
 8
MESH_172_F0
 10
-366.2936
 20
0
 30
88.8864
 70
192
 0
VERTEX
 8
MESH_172_F0
 10
-384.7751
 20
0
 30
123.4603
 70
192
 0
VERTEX
 8
MESH_172_F0
 10
-396.1581
 20
0
 30
160.9923
 70
192
 0
VERTEX
 8
MESH_172_F0
 10
-400
 20
0
 30
200
 70
192
 0
VERTEX
 8
MESH_172_F0
 10
-400
 20
0
 30
500
 70
192
 0
VERTEX
 8
MESH_172_F0
 10
-396.1581
 20
0
 30
539.0077
 70
192
 0
VERTEX
 8
MESH_172_F0
 10
-384.7751
 20
0
 30
576.5397
 70
192
 0
VERTEX
 8
MESH_172_F0
 10
-366.2936
 20
0
 30
611.1136
 70
192
 0
VERTEX
 8
MESH_172_F0
 10
-341.4213
 20
0
 30
641.4213
 70
192
 0
VERTEX
 8
MESH_172_F0
 10
-311.1136
 20
0
 30
666.2936
 70
192
 0
VERTEX
 8
MESH_172_F0
 10
-276.5397
 20
0
 30
684.7751
 70
192
 0
VERTEX
 8
MESH_172_F0
 10
-239.0077
 20
0
 30
696.158
 70
192
 0
VERTEX
 8
MESH_172_F0
 10
0
 20
0
 30
0
 70
128
 71
2
 72
64
 73
63
 74
63
 0
VERTEX
 8
MESH_172_F0
 10
0
 20
0
 30
0
 70
128
 71
2
 72
63
 73
3
 74
3
 0
VERTEX
 8
MESH_172_F0
 10
0
 20
0
 30
0
 70
128
 71
63
 72
62
 73
3
 74
3
 0
VERTEX
 8
MESH_172_F0
 10
0
 20
0
 30
0
 70
128
 71
62
 72
4
 73
3
 74
3
 0
VERTEX
 8
MESH_172_F0
 10
0
 20
0
 30
0
 70
128
 71
61
 72
4
 73
62
 74
62
 0
VERTEX
 8
MESH_172_F0
 10
0
 20
0
 30
0
 70
128
 71
5
 72
4
 73
61
 74
61
 0
VERTEX
 8
MESH_172_F0
 10
0
 20
0
 30
0
 70
128
 71
6
 72
5
 73
60
 74
60
 0
VERTEX
 8
MESH_172_F0
 10
0
 20
0
 30
0
 70
128
 71
7
 72
6
 73
59
 74
59
 0
VERTEX
 8
MESH_172_F0
 10
0
 20
0
 30
0
 70
128
 71
8
 72
7
 73
58
 74
58
 0
VERTEX
 8
MESH_172_F0
 10
0
 20
0
 30
0
 70
128
 71
9
 72
8
 73
57
 74
57
 0
VERTEX
 8
MESH_172_F0
 10
0
 20
0
 30
0
 70
128
 71
10
 72
9
 73
56
 74
56
 0
VERTEX
 8
MESH_172_F0
 10
0
 20
0
 30
0
 70
128
 71
11
 72
10
 73
55
 74
55
 0
VERTEX
 8
MESH_172_F0
 10
0
 20
0
 30
0
 70
128
 71
11
 72
55
 73
12
 74
12
 0
VERTEX
 8
MESH_172_F0
 10
0
 20
0
 30
0
 70
128
 71
55
 72
54
 73
12
 74
12
 0
VERTEX
 8
MESH_172_F0
 10
0
 20
0
 30
0
 70
128
 71
54
 72
13
 73
12
 74
12
 0
VERTEX
 8
MESH_172_F0
 10
0
 20
0
 30
0
 70
128
 71
53
 72
13
 73
54
 74
54
 0
VERTEX
 8
MESH_172_F0
 10
0
 20
0
 30
0
 70
128
 71
14
 72
13
 73
53
 74
53
 0
VERTEX
 8
MESH_172_F0
 10
0
 20
0
 30
0
 70
128
 71
14
 72
53
 73
15
 74
15
 0
VERTEX
 8
MESH_172_F0
 10
0
 20
0
 30
0
 70
128
 71
53
 72
52
 73
15
 74
15
 0
VERTEX
 8
MESH_172_F0
 10
0
 20
0
 30
0
 70
128
 71
52
 72
16
 73
15
 74
15
 0
VERTEX
 8
MESH_172_F0
 10
0
 20
0
 30
0
 70
128
 71
17
 72
16
 73
52
 74
52
 0
VERTEX
 8
MESH_172_F0
 10
0
 20
0
 30
0
 70
128
 71
17
 72
52
 73
18
 74
18
 0
VERTEX
 8
MESH_172_F0
 10
0
 20
0
 30
0
 70
128
 71
52
 72
51
 73
18
 74
18
 0
VERTEX
 8
MESH_172_F0
 10
0
 20
0
 30
0
 70
128
 71
51
 72
19
 73
18
 74
18
 0
VERTEX
 8
MESH_172_F0
 10
0
 20
0
 30
0
 70
128
 71
50
 72
19
 73
51
 74
51
 0
VERTEX
 8
MESH_172_F0
 10
0
 20
0
 30
0
 70
128
 71
20
 72
19
 73
50
 74
50
 0
VERTEX
 8
MESH_172_F0
 10
0
 20
0
 30
0
 70
128
 71
21
 72
20
 73
49
 74
49
 0
VERTEX
 8
MESH_172_F0
 10
0
 20
0
 30
0
 70
128
 71
22
 72
21
 73
48
 74
48
 0
VERTEX
 8
MESH_172_F0
 10
0
 20
0
 30
0
 70
128
 71
23
 72
22
 73
47
 74
47
 0
VERTEX
 8
MESH_172_F0
 10
0
 20
0
 30
0
 70
128
 71
81
 72
23
 73
46
 74
46
 0
VERTEX
 8
MESH_172_F0
 10
0
 20
0
 30
0
 70
128
 71
23
 72
47
 73
46
 74
46
 0
VERTEX
 8
MESH_172_F0
 10
0
 20
0
 30
0
 70
128
 71
81
 72
24
 73
23
 74
23
 0
VERTEX
 8
MESH_172_F0
 10
0
 20
0
 30
0
 70
128
 71
80
 72
24
 73
81
 74
81
 0
VERTEX
 8
MESH_172_F0
 10
0
 20
0
 30
0
 70
128
 71
25
 72
24
 73
80
 74
80
 0
VERTEX
 8
MESH_172_F0
 10
0
 20
0
 30
0
 70
128
 71
26
 72
25
 73
79
 74
79
 0
VERTEX
 8
MESH_172_F0
 10
0
 20
0
 30
0
 70
128
 71
27
 72
26
 73
78
 74
78
 0
VERTEX
 8
MESH_172_F0
 10
0
 20
0
 30
0
 70
128
 71
28
 72
27
 73
77
 74
77
 0
VERTEX
 8
MESH_172_F0
 10
0
 20
0
 30
0
 70
128
 71
28
 72
77
 73
29
 74
29
 0
VERTEX
 8
MESH_172_F0
 10
0
 20
0
 30
0
 70
128
 71
77
 72
30
 73
29
 74
29
 0
VERTEX
 8
MESH_172_F0
 10
0
 20
0
 30
0
 70
128
 71
76
 72
30
 73
77
 74
77
 0
VERTEX
 8
MESH_172_F0
 10
0
 20
0
 30
0
 70
128
 71
31
 72
30
 73
76
 74
76
 0
VERTEX
 8
MESH_172_F0
 10
0
 20
0
 30
0
 70
128
 71
31
 72
76
 73
32
 74
32
 0
VERTEX
 8
MESH_172_F0
 10
0
 20
0
 30
0
 70
128
 71
76
 72
75
 73
32
 74
32
 0
VERTEX
 8
MESH_172_F0
 10
0
 20
0
 30
0
 70
128
 71
75
 72
33
 73
32
 74
32
 0
VERTEX
 8
MESH_172_F0
 10
0
 20
0
 30
0
 70
128
 71
74
 72
33
 73
75
 74
75
 0
VERTEX
 8
MESH_172_F0
 10
0
 20
0
 30
0
 70
128
 71
34
 72
33
 73
74
 74
74
 0
VERTEX
 8
MESH_172_F0
 10
0
 20
0
 30
0
 70
128
 71
35
 72
34
 73
73
 74
73
 0
VERTEX
 8
MESH_172_F0
 10
0
 20
0
 30
0
 70
128
 71
36
 72
35
 73
72
 74
72
 0
VERTEX
 8
MESH_172_F0
 10
0
 20
0
 30
0
 70
128
 71
36
 72
72
 73
37
 74
37
 0
VERTEX
 8
MESH_172_F0
 10
0
 20
0
 30
0
 70
128
 71
72
 72
71
 73
37
 74
37
 0
VERTEX
 8
MESH_172_F0
 10
0
 20
0
 30
0
 70
128
 71
71
 72
38
 73
37
 74
37
 0
VERTEX
 8
MESH_172_F0
 10
0
 20
0
 30
0
 70
128
 71
39
 72
38
 73
71
 74
71
 0
VERTEX
 8
MESH_172_F0
 10
0
 20
0
 30
0
 70
128
 71
40
 72
39
 73
70
 74
70
 0
VERTEX
 8
MESH_172_F0
 10
0
 20
0
 30
0
 70
128
 71
40
 72
70
 73
41
 74
41
 0
VERTEX
 8
MESH_172_F0
 10
0
 20
0
 30
0
 70
128
 71
70
 72
42
 73
41
 74
41
 0
VERTEX
 8
MESH_172_F0
 10
0
 20
0
 30
0
 70
128
 71
69
 72
42
 73
70
 74
70
 0
VERTEX
 8
MESH_172_F0
 10
0
 20
0
 30
0
 70
128
 71
43
 72
42
 73
69
 74
69
 0
VERTEX
 8
MESH_172_F0
 10
0
 20
0
 30
0
 70
128
 71
44
 72
43
 73
68
 74
68
 0
VERTEX
 8
MESH_172_F0
 10
0
 20
0
 30
0
 70
128
 71
45
 72
44
 73
67
 74
67
 0
VERTEX
 8
MESH_172_F0
 10
0
 20
0
 30
0
 70
128
 71
1
 72
45
 73
66
 74
66
 0
VERTEX
 8
MESH_172_F0
 10
0
 20
0
 30
0
 70
128
 71
2
 72
1
 73
65
 74
65
 0
VERTEX
 8
MESH_172_F0
 10
0
 20
0
 30
0
 70
128
 71
2
 72
65
 73
64
 74
64
 0
VERTEX
 8
MESH_172_F0
 10
0
 20
0
 30
0
 70
128
 71
22
 72
48
 73
47
 74
47
 0
VERTEX
 8
MESH_172_F0
 10
0
 20
0
 30
0
 70
128
 71
21
 72
49
 73
48
 74
48
 0
VERTEX
 8
MESH_172_F0
 10
0
 20
0
 30
0
 70
128
 71
20
 72
50
 73
49
 74
49
 0
VERTEX
 8
MESH_172_F0
 10
0
 20
0
 30
0
 70
128
 71
10
 72
56
 73
55
 74
55
 0
VERTEX
 8
MESH_172_F0
 10
0
 20
0
 30
0
 70
128
 71
9
 72
57
 73
56
 74
56
 0
VERTEX
 8
MESH_172_F0
 10
0
 20
0
 30
0
 70
128
 71
8
 72
58
 73
57
 74
57
 0
VERTEX
 8
MESH_172_F0
 10
0
 20
0
 30
0
 70
128
 71
7
 72
59
 73
58
 74
58
 0
VERTEX
 8
MESH_172_F0
 10
0
 20
0
 30
0
 70
128
 71
6
 72
60
 73
59
 74
59
 0
VERTEX
 8
MESH_172_F0
 10
0
 20
0
 30
0
 70
128
 71
5
 72
61
 73
60
 74
60
 0
VERTEX
 8
MESH_172_F0
 10
0
 20
0
 30
0
 70
128
 71
1
 72
66
 73
65
 74
65
 0
VERTEX
 8
MESH_172_F0
 10
0
 20
0
 30
0
 70
128
 71
45
 72
67
 73
66
 74
66
 0
VERTEX
 8
MESH_172_F0
 10
0
 20
0
 30
0
 70
128
 71
44
 72
68
 73
67
 74
67
 0
VERTEX
 8
MESH_172_F0
 10
0
 20
0
 30
0
 70
128
 71
43
 72
69
 73
68
 74
68
 0
VERTEX
 8
MESH_172_F0
 10
0
 20
0
 30
0
 70
128
 71
39
 72
71
 73
70
 74
70
 0
VERTEX
 8
MESH_172_F0
 10
0
 20
0
 30
0
 70
128
 71
35
 72
73
 73
72
 74
72
 0
VERTEX
 8
MESH_172_F0
 10
0
 20
0
 30
0
 70
128
 71
34
 72
74
 73
73
 74
73
 0
VERTEX
 8
MESH_172_F0
 10
0
 20
0
 30
0
 70
128
 71
27
 72
78
 73
77
 74
77
 0
VERTEX
 8
MESH_172_F0
 10
0
 20
0
 30
0
 70
128
 71
26
 72
79
 73
78
 74
78
 0
VERTEX
 8
MESH_172_F0
 10
0
 20
0
 30
0
 70
128
 71
25
 72
80
 73
79
 74
79
 0
SEQEND
 0
POLYLINE
 8
MESH_171_F0
 66
1
 10
0.0
 20
0.0
 30
0.0
 70
64
 71
25
 72
23
 0
VERTEX
 8
MESH_171_F0
 10
-238.7298
 20
-17.8
 30
130
 70
192
 0
VERTEX
 8
MESH_171_F0
 10
-238.7298
 20
-18
 30
130
 70
192
 0
VERTEX
 8
MESH_171_F0
 10
-226.4456
 20
-18
 30
124.4975
 70
192
 0
VERTEX
 8
MESH_171_F0
 10
-213.4126
 20
-18
 30
121.1324
 70
192
 0
VERTEX
 8
MESH_171_F0
 10
-200
 20
-18
 30
120
 70
192
 0
VERTEX
 8
MESH_171_F0
 10
-200
 20
0
 30
120
 70
192
 0
VERTEX
 8
MESH_171_F0
 10
-214.3792
 20
0
 30
121.3029
 70
192
 0
VERTEX
 8
MESH_171_F0
 10
-228.29
 20
0
 30
125.1691
 70
192
 0
VERTEX
 8
MESH_171_F0
 10
-241.2794
 20
0
 30
131.4726
 70
192
 0
VERTEX
 8
MESH_171_F0
 10
-252.9242
 20
0
 30
140.0081
 70
192
 0
VERTEX
 8
MESH_171_F0
 10
-255.3777
 20
0
 30
142.2651
 70
192
 0
VERTEX
 8
MESH_171_F0
 10
-257.7349
 20
0
 30
144.6223
 70
192
 0
VERTEX
 8
MESH_171_F0
 10
-259.9919
 20
0
 30
147.0757
 70
192
 0
VERTEX
 8
MESH_171_F0
 10
-268.5274
 20
0
 30
158.7206
 70
192
 0
VERTEX
 8
MESH_171_F0
 10
-274.8309
 20
0
 30
171.71
 70
192
 0
VERTEX
 8
MESH_171_F0
 10
-278.6971
 20
0
 30
185.6208
 70
192
 0
VERTEX
 8
MESH_171_F0
 10
-280
 20
0
 30
200
 70
192
 0
VERTEX
 8
MESH_171_F0
 10
-280
 20
-18
 30
200
 70
192
 0
VERTEX
 8
MESH_171_F0
 10
-277.274
 20
-18
 30
179.2945
 70
192
 0
VERTEX
 8
MESH_171_F0
 10
-269.282
 20
-18
 30
160
 70
192
 0
VERTEX
 8
MESH_171_F0
 10
-256.5685
 20
-18
 30
143.4315
 70
192
 0
VERTEX
 8
MESH_171_F0
 10
-240
 20
-18
 30
130.718
 70
192
 0
VERTEX
 8
MESH_171_F0
 10
-240
 20
-17.8
 30
130.718
 70
192
 0
VERTEX
 8
MESH_171_F0
 10
-239.5781
 20
-17.8
 30
130.4761
 70
192
 0
VERTEX
 8
MESH_171_F0
 10
-239.1547
 20
-17.8
 30
130.2367
 70
192
 0
VERTEX
 8
MESH_171_F0
 10
0
 20
0
 30
0
 70
128
 71
1
 72
3
 73
2
 74
2
 0
VERTEX
 8
MESH_171_F0
 10
0
 20
0
 30
0
 70
128
 71
8
 72
3
 73
1
 74
1
 0
VERTEX
 8
MESH_171_F0
 10
0
 20
0
 30
0
 70
128
 71
8
 72
1
 73
9
 74
9
 0
VERTEX
 8
MESH_171_F0
 10
0
 20
0
 30
0
 70
128
 71
1
 72
25
 73
9
 74
9
 0
VERTEX
 8
MESH_171_F0
 10
0
 20
0
 30
0
 70
128
 71
25
 72
24
 73
9
 74
9
 0
VERTEX
 8
MESH_171_F0
 10
0
 20
0
 30
0
 70
128
 71
24
 72
23
 73
9
 74
9
 0
VERTEX
 8
MESH_171_F0
 10
0
 20
0
 30
0
 70
128
 71
23
 72
10
 73
9
 74
9
 0
VERTEX
 8
MESH_171_F0
 10
0
 20
0
 30
0
 70
128
 71
21
 72
10
 73
23
 74
23
 0
VERTEX
 8
MESH_171_F0
 10
0
 20
0
 30
0
 70
128
 71
21
 72
23
 73
22
 74
22
 0
VERTEX
 8
MESH_171_F0
 10
0
 20
0
 30
0
 70
128
 71
7
 72
3
 73
8
 74
8
 0
VERTEX
 8
MESH_171_F0
 10
0
 20
0
 30
0
 70
128
 71
4
 72
3
 73
7
 74
7
 0
VERTEX
 8
MESH_171_F0
 10
0
 20
0
 30
0
 70
128
 71
5
 72
4
 73
6
 74
6
 0
VERTEX
 8
MESH_171_F0
 10
0
 20
0
 30
0
 70
128
 71
4
 72
7
 73
6
 74
6
 0
VERTEX
 8
MESH_171_F0
 10
0
 20
0
 30
0
 70
128
 71
21
 72
11
 73
10
 74
10
 0
VERTEX
 8
MESH_171_F0
 10
0
 20
0
 30
0
 70
128
 71
12
 72
11
 73
21
 74
21
 0
VERTEX
 8
MESH_171_F0
 10
0
 20
0
 30
0
 70
128
 71
12
 72
21
 73
13
 74
13
 0
VERTEX
 8
MESH_171_F0
 10
0
 20
0
 30
0
 70
128
 71
21
 72
20
 73
13
 74
13
 0
VERTEX
 8
MESH_171_F0
 10
0
 20
0
 30
0
 70
128
 71
20
 72
14
 73
13
 74
13
 0
VERTEX
 8
MESH_171_F0
 10
0
 20
0
 30
0
 70
128
 71
15
 72
14
 73
20
 74
20
 0
VERTEX
 8
MESH_171_F0
 10
0
 20
0
 30
0
 70
128
 71
16
 72
15
 73
19
 74
19
 0
VERTEX
 8
MESH_171_F0
 10
0
 20
0
 30
0
 70
128
 71
17
 72
16
 73
18
 74
18
 0
VERTEX
 8
MESH_171_F0
 10
0
 20
0
 30
0
 70
128
 71
16
 72
19
 73
18
 74
18
 0
VERTEX
 8
MESH_171_F0
 10
0
 20
0
 30
0
 70
128
 71
15
 72
20
 73
19
 74
19
 0
SEQEND
 0
POLYLINE
 8
MESH_170_F0
 66
1
 10
0.0
 20
0.0
 30
0.0
 70
64
 71
4
 72
2
 0
VERTEX
 8
MESH_170_F0
 10
238.7298
 20
-18
 30
130
 70
192
 0
VERTEX
 8
MESH_170_F0
 10
-238.7298
 20
-18
 30
130
 70
192
 0
VERTEX
 8
MESH_170_F0
 10
-238.7298
 20
-17.8
 30
130
 70
192
 0
VERTEX
 8
MESH_170_F0
 10
238.7298
 20
-17.8
 30
130
 70
192
 0
VERTEX
 8
MESH_170_F0
 10
0
 20
0
 30
0
 70
128
 71
1
 72
3
 73
2
 74
2
 0
VERTEX
 8
MESH_170_F0
 10
0
 20
0
 30
0
 70
128
 71
4
 72
3
 73
1
 74
1
 0
SEQEND
 0
POLYLINE
 8
MESH_169_F0
 66
1
 10
0.0
 20
0.0
 30
0.0
 70
64
 71
16
 72
14
 0
VERTEX
 8
MESH_169_F0
 10
238.7298
 20
-17.8
 30
130
 70
192
 0
VERTEX
 8
MESH_169_F0
 10
-238.7298
 20
-17.8
 30
130
 70
192
 0
VERTEX
 8
MESH_169_F0
 10
-239.1547
 20
-17.8
 30
130.2367
 70
192
 0
VERTEX
 8
MESH_169_F0
 10
-239.5781
 20
-17.8
 30
130.4761
 70
192
 0
VERTEX
 8
MESH_169_F0
 10
-240
 20
-17.8
 30
130.718
 70
192
 0
VERTEX
 8
MESH_169_F0
 10
-240
 20
-17.8
 30
569.282
 70
192
 0
VERTEX
 8
MESH_169_F0
 10
-239.5781
 20
-17.8
 30
569.5239
 70
192
 0
VERTEX
 8
MESH_169_F0
 10
-239.1547
 20
-17.8
 30
569.7632
 70
192
 0
VERTEX
 8
MESH_169_F0
 10
-238.7298
 20
-17.8
 30
570
 70
192
 0
VERTEX
 8
MESH_169_F0
 10
238.7298
 20
-17.8
 30
570
 70
192
 0
VERTEX
 8
MESH_169_F0
 10
239.1547
 20
-17.8
 30
569.7632
 70
192
 0
VERTEX
 8
MESH_169_F0
 10
239.5781
 20
-17.8
 30
569.5239
 70
192
 0
VERTEX
 8
MESH_169_F0
 10
240
 20
-17.8
 30
569.282
 70
192
 0
VERTEX
 8
MESH_169_F0
 10
240
 20
-17.8
 30
130.718
 70
192
 0
VERTEX
 8
MESH_169_F0
 10
239.5781
 20
-17.8
 30
130.4761
 70
192
 0
VERTEX
 8
MESH_169_F0
 10
239.1547
 20
-17.8
 30
130.2367
 70
192
 0
VERTEX
 8
MESH_169_F0
 10
0
 20
0
 30
0
 70
128
 71
4
 72
6
 73
5
 74
5
 0
VERTEX
 8
MESH_169_F0
 10
0
 20
0
 30
0
 70
128
 71
7
 72
6
 73
4
 74
4
 0
VERTEX
 8
MESH_169_F0
 10
0
 20
0
 30
0
 70
128
 71
8
 72
7
 73
3
 74
3
 0
VERTEX
 8
MESH_169_F0
 10
0
 20
0
 30
0
 70
128
 71
9
 72
8
 73
2
 74
2
 0
VERTEX
 8
MESH_169_F0
 10
0
 20
0
 30
0
 70
128
 71
10
 72
9
 73
1
 74
1
 0
VERTEX
 8
MESH_169_F0
 10
0
 20
0
 30
0
 70
128
 71
11
 72
10
 73
16
 74
16
 0
VERTEX
 8
MESH_169_F0
 10
0
 20
0
 30
0
 70
128
 71
12
 72
11
 73
15
 74
15
 0
VERTEX
 8
MESH_169_F0
 10
0
 20
0
 30
0
 70
128
 71
13
 72
12
 73
14
 74
14
 0
VERTEX
 8
MESH_169_F0
 10
0
 20
0
 30
0
 70
128
 71
12
 72
15
 73
14
 74
14
 0
VERTEX
 8
MESH_169_F0
 10
0
 20
0
 30
0
 70
128
 71
8
 72
3
 73
2
 74
2
 0
VERTEX
 8
MESH_169_F0
 10
0
 20
0
 30
0
 70
128
 71
7
 72
4
 73
3
 74
3
 0
VERTEX
 8
MESH_169_F0
 10
0
 20
0
 30
0
 70
128
 71
11
 72
16
 73
15
 74
15
 0
VERTEX
 8
MESH_169_F0
 10
0
 20
0
 30
0
 70
128
 71
10
 72
1
 73
16
 74
16
 0
VERTEX
 8
MESH_169_F0
 10
0
 20
0
 30
0
 70
128
 71
1
 72
9
 73
2
 74
2
 0
SEQEND
 0
POLYLINE
 8
MESH_168_F0
 66
1
 10
0.0
 20
0.0
 30
0.0
 70
64
 71
4
 72
2
 0
VERTEX
 8
MESH_168_F0
 10
240
 20
-17.8
 30
130.718
 70
192
 0
VERTEX
 8
MESH_168_F0
 10
240
 20
-17.8
 30
569.282
 70
192
 0
VERTEX
 8
MESH_168_F0
 10
240
 20
-18
 30
569.282
 70
192
 0
VERTEX
 8
MESH_168_F0
 10
240
 20
-18
 30
130.718
 70
192
 0
VERTEX
 8
MESH_168_F0
 10
0
 20
0
 30
0
 70
128
 71
1
 72
3
 73
2
 74
2
 0
VERTEX
 8
MESH_168_F0
 10
0
 20
0
 30
0
 70
128
 71
4
 72
3
 73
1
 74
1
 0
SEQEND
 0
POLYLINE
 8
MESH_167_F0
 66
1
 10
0.0
 20
0.0
 30
0.0
 70
64
 71
22
 72
20
 0
VERTEX
 8
MESH_167_F0
 10
240
 20
-17.8
 30
130.718
 70
192
 0
VERTEX
 8
MESH_167_F0
 10
240
 20
-18
 30
130.718
 70
192
 0
VERTEX
 8
MESH_167_F0
 10
256.5685
 20
-18
 30
143.4315
 70
192
 0
VERTEX
 8
MESH_167_F0
 10
269.282
 20
-18
 30
160
 70
192
 0
VERTEX
 8
MESH_167_F0
 10
277.274
 20
-18
 30
179.2945
 70
192
 0
VERTEX
 8
MESH_167_F0
 10
280
 20
-18
 30
200
 70
192
 0
VERTEX
 8
MESH_167_F0
 10
280
 20
0
 30
200
 70
192
 0
VERTEX
 8
MESH_167_F0
 10
278.4628
 20
0
 30
184.3926
 70
192
 0
VERTEX
 8
MESH_167_F0
 10
273.9103
 20
0
 30
169.3853
 70
192
 0
VERTEX
 8
MESH_167_F0
 10
266.5174
 20
0
 30
155.5544
 70
192
 0
VERTEX
 8
MESH_167_F0
 10
256.5685
 20
0
 30
143.4315
 70
192
 0
VERTEX
 8
MESH_167_F0
 10
244.4456
 20
0
 30
133.4826
 70
192
 0
VERTEX
 8
MESH_167_F0
 10
230.6147
 20
0
 30
126.0897
 70
192
 0
VERTEX
 8
MESH_167_F0
 10
215.6074
 20
0
 30
121.5372
 70
192
 0
VERTEX
 8
MESH_167_F0
 10
200
 20
0
 30
120
 70
192
 0
VERTEX
 8
MESH_167_F0
 10
200
 20
-18
 30
120
 70
192
 0
VERTEX
 8
MESH_167_F0
 10
213.4126
 20
-18
 30
121.1324
 70
192
 0
VERTEX
 8
MESH_167_F0
 10
226.4456
 20
-18
 30
124.4975
 70
192
 0
VERTEX
 8
MESH_167_F0
 10
238.7298
 20
-18
 30
130
 70
192
 0
VERTEX
 8
MESH_167_F0
 10
238.7298
 20
-17.8
 30
130
 70
192
 0
VERTEX
 8
MESH_167_F0
 10
239.1547
 20
-17.8
 30
130.2367
 70
192
 0
VERTEX
 8
MESH_167_F0
 10
239.5781
 20
-17.8
 30
130.4761
 70
192
 0
VERTEX
 8
MESH_167_F0
 10
0
 20
0
 30
0
 70
128
 71
1
 72
3
 73
2
 74
2
 0
VERTEX
 8
MESH_167_F0
 10
0
 20
0
 30
0
 70
128
 71
12
 72
3
 73
1
 74
1
 0
VERTEX
 8
MESH_167_F0
 10
0
 20
0
 30
0
 70
128
 71
21
 72
12
 73
22
 74
22
 0
VERTEX
 8
MESH_167_F0
 10
0
 20
0
 30
0
 70
128
 71
12
 72
1
 73
22
 74
22
 0
VERTEX
 8
MESH_167_F0
 10
0
 20
0
 30
0
 70
128
 71
5
 72
8
 73
6
 74
6
 0
VERTEX
 8
MESH_167_F0
 10
0
 20
0
 30
0
 70
128
 71
8
 72
7
 73
6
 74
6
 0
VERTEX
 8
MESH_167_F0
 10
0
 20
0
 30
0
 70
128
 71
4
 72
9
 73
5
 74
5
 0
VERTEX
 8
MESH_167_F0
 10
0
 20
0
 30
0
 70
128
 71
9
 72
8
 73
5
 74
5
 0
VERTEX
 8
MESH_167_F0
 10
0
 20
0
 30
0
 70
128
 71
4
 72
10
 73
9
 74
9
 0
VERTEX
 8
MESH_167_F0
 10
0
 20
0
 30
0
 70
128
 71
3
 72
10
 73
4
 74
4
 0
VERTEX
 8
MESH_167_F0
 10
0
 20
0
 30
0
 70
128
 71
11
 72
10
 73
3
 74
3
 0
VERTEX
 8
MESH_167_F0
 10
0
 20
0
 30
0
 70
128
 71
11
 72
3
 73
12
 74
12
 0
VERTEX
 8
MESH_167_F0
 10
0
 20
0
 30
0
 70
128
 71
20
 72
12
 73
21
 74
21
 0
VERTEX
 8
MESH_167_F0
 10
0
 20
0
 30
0
 70
128
 71
13
 72
12
 73
20
 74
20
 0
VERTEX
 8
MESH_167_F0
 10
0
 20
0
 30
0
 70
128
 71
14
 72
13
 73
18
 74
18
 0
VERTEX
 8
MESH_167_F0
 10
0
 20
0
 30
0
 70
128
 71
16
 72
14
 73
17
 74
17
 0
VERTEX
 8
MESH_167_F0
 10
0
 20
0
 30
0
 70
128
 71
14
 72
18
 73
17
 74
17
 0
VERTEX
 8
MESH_167_F0
 10
0
 20
0
 30
0
 70
128
 71
16
 72
15
 73
14
 74
14
 0
VERTEX
 8
MESH_167_F0
 10
0
 20
0
 30
0
 70
128
 71
18
 72
20
 73
19
 74
19
 0
VERTEX
 8
MESH_167_F0
 10
0
 20
0
 30
0
 70
128
 71
13
 72
20
 73
18
 74
18
 0
SEQEND
 0
POLYLINE
 8
MESH_166_F0
 66
1
 10
0.0
 20
0.0
 30
0.0
 70
64
 71
4
 72
2
 0
VERTEX
 8
MESH_166_F0
 10
200
 20
-18
 30
120
 70
192
 0
VERTEX
 8
MESH_166_F0
 10
200
 20
0
 30
120
 70
192
 0
VERTEX
 8
MESH_166_F0
 10
-200
 20
0
 30
120
 70
192
 0
VERTEX
 8
MESH_166_F0
 10
-200
 20
-18
 30
120
 70
192
 0
VERTEX
 8
MESH_166_F0
 10
0
 20
0
 30
0
 70
128
 71
4
 72
2
 73
1
 74
1
 0
VERTEX
 8
MESH_166_F0
 10
0
 20
0
 30
0
 70
128
 71
3
 72
2
 73
4
 74
4
 0
SEQEND
 0
POLYLINE
 8
MESH_165_F0
 66
1
 10
0.0
 20
0.0
 30
0.0
 70
64
 71
8
 72
6
 0
VERTEX
 8
MESH_165_F0
 10
200
 20
-18
 30
120
 70
192
 0
VERTEX
 8
MESH_165_F0
 10
-200
 20
-18
 30
120
 70
192
 0
VERTEX
 8
MESH_165_F0
 10
-213.4126
 20
-18
 30
121.1324
 70
192
 0
VERTEX
 8
MESH_165_F0
 10
-226.4456
 20
-18
 30
124.4975
 70
192
 0
VERTEX
 8
MESH_165_F0
 10
-238.7298
 20
-18
 30
130
 70
192
 0
VERTEX
 8
MESH_165_F0
 10
238.7298
 20
-18
 30
130
 70
192
 0
VERTEX
 8
MESH_165_F0
 10
226.4456
 20
-18
 30
124.4975
 70
192
 0
VERTEX
 8
MESH_165_F0
 10
213.4126
 20
-18
 30
121.1324
 70
192
 0
VERTEX
 8
MESH_165_F0
 10
0
 20
0
 30
0
 70
128
 71
8
 72
2
 73
1
 74
1
 0
VERTEX
 8
MESH_165_F0
 10
0
 20
0
 30
0
 70
128
 71
3
 72
2
 73
8
 74
8
 0
VERTEX
 8
MESH_165_F0
 10
0
 20
0
 30
0
 70
128
 71
4
 72
3
 73
7
 74
7
 0
VERTEX
 8
MESH_165_F0
 10
0
 20
0
 30
0
 70
128
 71
5
 72
4
 73
6
 74
6
 0
VERTEX
 8
MESH_165_F0
 10
0
 20
0
 30
0
 70
128
 71
4
 72
7
 73
6
 74
6
 0
VERTEX
 8
MESH_165_F0
 10
0
 20
0
 30
0
 70
128
 71
3
 72
8
 73
7
 74
7
 0
SEQEND
 0
POLYLINE
 8
T7826_3DPL_F0
 66
1
 10
0.0
 20
0.0
 30
0.0
 70
64
 71
12
 72
6
 0
VERTEX
 8
T7826_3DPL_F0
 10
-10
 20
0
 30
10
 70
192
 0
VERTEX
 8
T7826_3DPL_F0
 10
10
 20
0
 30
10
 70
192
 0
VERTEX
 8
T7826_3DPL_F0
 10
10
 20
0
 30
-10
 70
192
 0
VERTEX
 8
T7826_3DPL_F0
 10
-10
 20
0
 30
-10
 70
192
 0
VERTEX
 8
T7826_3DPL_F0
 10
0
 20
10
 30
10
 70
192
 0
VERTEX
 8
T7826_3DPL_F0
 10
0
 20
-10
 30
10
 70
192
 0
VERTEX
 8
T7826_3DPL_F0
 10
0
 20
-10
 30
-10
 70
192
 0
VERTEX
 8
T7826_3DPL_F0
 10
0
 20
10
 30
-10
 70
192
 0
VERTEX
 8
T7826_3DPL_F0
 10
-10
 20
10
 30
0
 70
192
 0
VERTEX
 8
T7826_3DPL_F0
 10
-10
 20
-10
 30
0
 70
192
 0
VERTEX
 8
T7826_3DPL_F0
 10
10
 20
-10
 30
0
 70
192
 0
VERTEX
 8
T7826_3DPL_F0
 10
10
 20
10
 30
0
 70
192
 0
VERTEX
 8
T7826_3DPL_F0
 10
0
 20
0
 30
0
 70
128
 71
4
 72
2
 73
1
 74
1
 0
VERTEX
 8
T7826_3DPL_F0
 10
0
 20
0
 30
0
 70
128
 71
3
 72
2
 73
4
 74
4
 0
VERTEX
 8
T7826_3DPL_F0
 10
0
 20
0
 30
0
 70
128
 71
8
 72
6
 73
5
 74
5
 0
VERTEX
 8
T7826_3DPL_F0
 10
0
 20
0
 30
0
 70
128
 71
7
 72
6
 73
8
 74
8
 0
VERTEX
 8
T7826_3DPL_F0
 10
0
 20
0
 30
0
 70
128
 71
12
 72
10
 73
9
 74
9
 0
VERTEX
 8
T7826_3DPL_F0
 10
0
 20
0
 30
0
 70
128
 71
11
 72
10
 73
12
 74
12
 0
SEQEND
 0
ENDSEC
 0
EOF
