 0
SECTION
 2
HEADER
 9
$ACADVER
 1
AC1009
 0
ENDSEC
 0
SECTION
 2
TABLES
 0
TABLE
 2
LTYPE
 70
1
 0
LTYPE
 2
CONTINUOUS
 70
64
 3
solid line
 72
65
 73
0
 40
0.0
 0
ENDTAB
 0
TABLE
 2
LAYER
 70
6
 0
LAYER
 2
0
 70
0
 62
7
 6
CONTINUOUS
 0
LAYER
 2
114
 70
64
 62
7
 6
CONTINUOUS
 0
LAYER
 2
113
 70
64
 62
7
 6
CONTINUOUS
 0
LAYER
 2
112
 70
64
 62
7
 6
CONTINUOUS
 0
LAYER
 2
111
 70
64
 62
7
 6
CONTINUOUS
 0
LAYER
 2
110
 70
64
 62
7
 6
CONTINUOUS
 0
LAYER
 2
109
 70
64
 62
7
 6
CONTINUOUS
 0
LAYER
 2
108
 70
64
 62
7
 6
CONTINUOUS
 0
LAYER
 2
107
 70
64
 62
7
 6
CONTINUOUS
 0
LAYER
 2
106
 70
64
 62
7
 6
CONTINUOUS
 0
LAYER
 2
105
 70
64
 62
7
 6
CONTINUOUS
 0
LAYER
 2
104
 70
64
 62
7
 6
CONTINUOUS
 0
LAYER
 2
103
 70
64
 62
7
 6
CONTINUOUS
 0
LAYER
 2
102
 70
64
 62
7
 6
CONTINUOUS
 0
LAYER
 2
101
 70
64
 62
7
 6
CONTINUOUS
 0
LAYER
 2
100
 70
64
 62
7
 6
CONTINUOUS
 0
LAYER
 2
99
 70
64
 62
7
 6
CONTINUOUS
 0
LAYER
 2
98
 70
64
 62
7
 6
CONTINUOUS
 0
LAYER
 2
97
 70
64
 62
7
 6
CONTINUOUS
 0
LAYER
 2
96
 70
64
 62
7
 6
CONTINUOUS
 0
LAYER
 2
95
 70
64
 62
7
 6
CONTINUOUS
 0
LAYER
 2
94
 70
64
 62
7
 6
CONTINUOUS
 0
LAYER
 2
93
 70
64
 62
7
 6
CONTINUOUS
 0
LAYER
 2
92
 70
64
 62
7
 6
CONTINUOUS
 0
LAYER
 2
91
 70
64
 62
7
 6
CONTINUOUS
 0
LAYER
 2
90
 70
64
 62
7
 6
CONTINUOUS
 0
LAYER
 2
89
 70
64
 62
7
 6
CONTINUOUS
 0
LAYER
 2
88
 70
64
 62
7
 6
CONTINUOUS
 0
LAYER
 2
87
 70
64
 62
7
 6
CONTINUOUS
 0
LAYER
 2
86
 70
64
 62
7
 6
CONTINUOUS
 0
LAYER
 2
85
 70
64
 62
7
 6
CONTINUOUS
 0
LAYER
 2
84
 70
64
 62
7
 6
CONTINUOUS
 0
LAYER
 2
83
 70
64
 62
7
 6
CONTINUOUS
 0
LAYER
 2
82
 70
64
 62
7
 6
CONTINUOUS
 0
LAYER
 2
81
 70
64
 62
7
 6
CONTINUOUS
 0
LAYER
 2
80
 70
64
 62
7
 6
CONTINUOUS
 0
LAYER
 2
79
 70
64
 62
7
 6
CONTINUOUS
 0
LAYER
 2
78
 70
64
 62
7
 6
CONTINUOUS
 0
LAYER
 2
77
 70
64
 62
7
 6
CONTINUOUS
 0
LAYER
 2
76
 70
64
 62
7
 6
CONTINUOUS
 0
LAYER
 2
75
 70
64
 62
7
 6
CONTINUOUS
 0
LAYER
 2
74
 70
64
 62
7
 6
CONTINUOUS
 0
LAYER
 2
73
 70
64
 62
7
 6
CONTINUOUS
 0
LAYER
 2
72
 70
64
 62
7
 6
CONTINUOUS
 0
LAYER
 2
71
 70
64
 62
7
 6
CONTINUOUS
 0
LAYER
 2
70
 70
64
 62
7
 6
CONTINUOUS
 0
LAYER
 2
69
 70
64
 62
7
 6
CONTINUOUS
 0
LAYER
 2
68
 70
64
 62
7
 6
CONTINUOUS
 0
LAYER
 2
67
 70
64
 62
7
 6
CONTINUOUS
 0
LAYER
 2
66
 70
64
 62
7
 6
CONTINUOUS
 0
LAYER
 2
65
 70
64
 62
7
 6
CONTINUOUS
 0
LAYER
 2
64
 70
64
 62
7
 6
CONTINUOUS
 0
LAYER
 2
63
 70
64
 62
7
 6
CONTINUOUS
 0
LAYER
 2
62
 70
64
 62
7
 6
CONTINUOUS
 0
LAYER
 2
61
 70
64
 62
7
 6
CONTINUOUS
 0
LAYER
 2
60
 70
64
 62
7
 6
CONTINUOUS
 0
LAYER
 2
59
 70
64
 62
7
 6
CONTINUOUS
 0
LAYER
 2
58
 70
64
 62
7
 6
CONTINUOUS
 0
LAYER
 2
57
 70
64
 62
7
 6
CONTINUOUS
 0
LAYER
 2
56
 70
64
 62
7
 6
CONTINUOUS
 0
LAYER
 2
55
 70
64
 62
7
 6
CONTINUOUS
 0
LAYER
 2
54
 70
64
 62
7
 6
CONTINUOUS
 0
LAYER
 2
53
 70
64
 62
7
 6
CONTINUOUS
 0
LAYER
 2
52
 70
64
 62
7
 6
CONTINUOUS
 0
LAYER
 2
51
 70
64
 62
7
 6
CONTINUOUS
 0
LAYER
 2
50
 70
64
 62
7
 6
CONTINUOUS
 0
LAYER
 2
49
 70
64
 62
7
 6
CONTINUOUS
 0
LAYER
 2
48
 70
64
 62
7
 6
CONTINUOUS
 0
LAYER
 2
47
 70
64
 62
7
 6
CONTINUOUS
 0
LAYER
 2
46
 70
64
 62
7
 6
CONTINUOUS
 0
LAYER
 2
45
 70
64
 62
7
 6
CONTINUOUS
 0
LAYER
 2
44
 70
64
 62
7
 6
CONTINUOUS
 0
LAYER
 2
43
 70
64
 62
7
 6
CONTINUOUS
 0
LAYER
 2
42
 70
64
 62
7
 6
CONTINUOUS
 0
LAYER
 2
41
 70
64
 62
7
 6
CONTINUOUS
 0
LAYER
 2
40
 70
64
 62
7
 6
CONTINUOUS
 0
LAYER
 2
39
 70
64
 62
7
 6
CONTINUOUS
 0
LAYER
 2
38
 70
64
 62
7
 6
CONTINUOUS
 0
LAYER
 2
37
 70
64
 62
7
 6
CONTINUOUS
 0
LAYER
 2
36
 70
64
 62
7
 6
CONTINUOUS
 0
LAYER
 2
35
 70
64
 62
7
 6
CONTINUOUS
 0
LAYER
 2
34
 70
64
 62
7
 6
CONTINUOUS
 0
LAYER
 2
33
 70
64
 62
7
 6
CONTINUOUS
 0
LAYER
 2
32
 70
64
 62
7
 6
CONTINUOUS
 0
LAYER
 2
31
 70
64
 62
7
 6
CONTINUOUS
 0
LAYER
 2
30
 70
64
 62
7
 6
CONTINUOUS
 0
LAYER
 2
29
 70
64
 62
7
 6
CONTINUOUS
 0
LAYER
 2
28
 70
64
 62
7
 6
CONTINUOUS
 0
LAYER
 2
27
 70
64
 62
7
 6
CONTINUOUS
 0
LAYER
 2
26
 70
64
 62
7
 6
CONTINUOUS
 0
LAYER
 2
25
 70
64
 62
7
 6
CONTINUOUS
 0
LAYER
 2
24
 70
64
 62
7
 6
CONTINUOUS
 0
LAYER
 2
23
 70
64
 62
7
 6
CONTINUOUS
 0
LAYER
 2
22
 70
64
 62
7
 6
CONTINUOUS
 0
LAYER
 2
21
 70
64
 62
7
 6
CONTINUOUS
 0
LAYER
 2
20
 70
64
 62
7
 6
CONTINUOUS
 0
LAYER
 2
19
 70
64
 62
7
 6
CONTINUOUS
 0
LAYER
 2
18
 70
64
 62
7
 6
CONTINUOUS
 0
LAYER
 2
17
 70
64
 62
7
 6
CONTINUOUS
 0
LAYER
 2
16
 70
64
 62
7
 6
CONTINUOUS
 0
LAYER
 2
15
 70
64
 62
7
 6
CONTINUOUS
 0
LAYER
 2
14
 70
64
 62
7
 6
CONTINUOUS
 0
LAYER
 2
13
 70
64
 62
7
 6
CONTINUOUS
 0
LAYER
 2
12
 70
64
 62
7
 6
CONTINUOUS
 0
LAYER
 2
11
 70
64
 62
7
 6
CONTINUOUS
 0
LAYER
 2
10
 70
64
 62
7
 6
CONTINUOUS
 0
LAYER
 2
9
 70
64
 62
7
 6
CONTINUOUS
 0
LAYER
 2
8
 70
64
 62
7
 6
CONTINUOUS
 0
LAYER
 2
7
 70
64
 62
7
 6
CONTINUOUS
 0
LAYER
 2
6
 70
64
 62
7
 6
CONTINUOUS
 0
LAYER
 2
5
 70
64
 62
7
 6
CONTINUOUS
 0
LAYER
 2
4
 70
64
 62
7
 6
CONTINUOUS
 0
LAYER
 2
3
 70
64
 62
7
 6
CONTINUOUS
 0
LAYER
 2
2
 70
64
 62
7
 6
CONTINUOUS
 0
LAYER
 2
1
 70
64
 62
7
 6
CONTINUOUS
 0
ENDTAB
 0
ENDSEC
 0
SECTION
 2
BLOCKS
 0
ENDSEC
 0
SECTION
 2
ENTITIES
 0
POLYLINE
 8
114
 66
1
 10
0.0
 20
0.0
 30
0.0
 70
64
 71
43
 72
29
 0
VERTEX
 8
114
 10
208.7269
 20
-1
 30
-176.1427
 70
192
 0
VERTEX
 8
114
 10
209.5619
 20
-0.2356
 30
-175.9954
 70
192
 0
VERTEX
 8
114
 10
209.1345
 20
0.4139
 30
-176.0708
 70
192
 0
VERTEX
 8
114
 10
208.4949
 20
0.8479
 30
-176.1836
 70
192
 0
VERTEX
 8
114
 10
10.0246
 20
0
 30
-0.2679
 70
192
 0
VERTEX
 8
114
 10
10.0246
 20
0
 30
-1
 70
192
 0
VERTEX
 8
114
 10
10.0246
 20
0
 30
-1
 70
192
 0
VERTEX
 8
114
 10
27.4598
 20
0
 30
-1.7615
 70
192
 0
VERTEX
 8
114
 10
206.9861
 20
0
 30
-166.2704
 70
192
 0
VERTEX
 8
114
 10
206.9861
 20
0
 30
-166.2704
 70
192
 0
VERTEX
 8
114
 10
207.3613
 20
0
 30
-166.2048
 70
192
 0
VERTEX
 8
114
 10
207.3613
 20
0
 30
-166.2048
 70
192
 0
VERTEX
 8
114
 10
207.7325
 20
0
 30
-166.1294
 70
192
 0
VERTEX
 8
114
 10
207.7325
 20
0
 30
-166.1294
 70
192
 0
VERTEX
 8
114
 10
207.7325
 20
0
 30
-166.1294
 70
192
 0
VERTEX
 8
114
 10
207.7325
 20
0
 30
-166.1294
 70
192
 0
VERTEX
 8
114
 10
207.8382
 20
0
 30
-166.1201
 70
192
 0
VERTEX
 8
114
 10
10.0246
 20
-12.0001
 30
-1
 70
192
 0
VERTEX
 8
114
 10
10.0246
 20
-1
 30
-1
 70
192
 0
VERTEX
 8
114
 10
10.0246
 20
-1
 30
-1
 70
192
 0
VERTEX
 8
114
 10
207.9038
 20
-0.4824
 30
-166.1086
 70
192
 0
VERTEX
 8
114
 10
207.9038
 20
-0.4824
 30
-166.1086
 70
192
 0
VERTEX
 8
114
 10
206.9861
 20
-1
 30
-166.2704
 70
192
 0
VERTEX
 8
114
 10
206.9861
 20
-1
 30
-166.2704
 70
192
 0
VERTEX
 8
114
 10
10.0246
 20
1
 30
-15
 70
192
 0
VERTEX
 8
114
 10
10.0246
 20
1
 30
-2
 70
192
 0
VERTEX
 8
114
 10
193.1988
 20
0
 30
-168.7014
 70
192
 0
VERTEX
 8
114
 10
193.1988
 20
1
 30
-168.7014
 70
192
 0
VERTEX
 8
114
 10
10.0246
 20
0
 30
-2
 70
192
 0
VERTEX
 8
114
 10
10.0246
 20
-0.134
 30
-1.5008
 70
192
 0
VERTEX
 8
114
 10
10.0246
 20
-0.5008
 30
-1.134
 70
192
 0
VERTEX
 8
114
 10
10.0246
 20
0.5321
 30
-0.7144
 70
192
 0
VERTEX
 8
114
 10
10.0246
 20
0.8794
 30
-1.316
 70
192
 0
VERTEX
 8
114
 10
10.0246
 20
0
 30
-15
 70
192
 0
VERTEX
 8
114
 10
207.2674
 20
0.5321
 30
-166.2208
 70
192
 0
VERTEX
 8
114
 10
207.2674
 20
0.5321
 30
-166.2208
 70
192
 0
VERTEX
 8
114
 10
206.675
 20
0.8794
 30
-166.3252
 70
192
 0
VERTEX
 8
114
 10
206.675
 20
0.8794
 30
-166.3252
 70
192
 0
VERTEX
 8
114
 10
206.0013
 20
1
 30
-166.444
 70
192
 0
VERTEX
 8
114
 10
206.0013
 20
0
 30
-166.444
 70
192
 0
VERTEX
 8
114
 10
206.4929
 20
-0.134
 30
-166.3573
 70
192
 0
VERTEX
 8
114
 10
206.8542
 20
-0.5008
 30
-166.2936
 70
192
 0
VERTEX
 8
114
 10
206.8542
 20
-0.5008
 30
-166.2936
 70
192
 0
VERTEX
 8
114
 10
0
 20
0
 30
0
 70
128
 71
23
 72
1
 73
42
 74
42
 0
VERTEX
 8
114
 10
0
 20
0
 30
0
 70
128
 71
3
 72
2
 73
15
 74
15
 0
VERTEX
 8
114
 10
0
 20
0
 30
0
 70
128
 71
15
 72
2
 73
22
 74
22
 0
VERTEX
 8
114
 10
0
 20
0
 30
0
 70
128
 71
4
 72
3
 73
35
 74
35
 0
VERTEX
 8
114
 10
0
 20
0
 30
0
 70
128
 71
3
 72
15
 73
35
 74
35
 0
VERTEX
 8
114
 10
0
 20
0
 30
0
 70
128
 71
4
 72
35
 73
37
 74
37
 0
VERTEX
 8
114
 10
0
 20
0
 30
0
 70
128
 71
7
 72
5
 73
32
 74
32
 0
VERTEX
 8
114
 10
0
 20
0
 30
0
 70
128
 71
8
 72
6
 73
19
 74
19
 0
VERTEX
 8
114
 10
0
 20
0
 30
0
 70
128
 71
20
 72
7
 73
31
 74
31
 0
VERTEX
 8
114
 10
0
 20
0
 30
0
 70
128
 71
31
 72
7
 73
33
 74
33
 0
VERTEX
 8
114
 10
0
 20
0
 30
0
 70
128
 71
7
 72
32
 73
33
 74
33
 0
VERTEX
 8
114
 10
0
 20
0
 30
0
 70
128
 71
18
 72
8
 73
19
 74
19
 0
VERTEX
 8
114
 10
0
 20
0
 30
0
 70
128
 71
9
 72
11
 73
13
 74
13
 0
VERTEX
 8
114
 10
0
 20
0
 30
0
 70
128
 71
12
 72
10
 73
36
 74
36
 0
VERTEX
 8
114
 10
0
 20
0
 30
0
 70
128
 71
10
 72
24
 73
38
 74
38
 0
VERTEX
 8
114
 10
0
 20
0
 30
0
 70
128
 71
36
 72
10
 73
38
 74
38
 0
VERTEX
 8
114
 10
0
 20
0
 30
0
 70
128
 71
16
 72
12
 73
36
 74
36
 0
VERTEX
 8
114
 10
0
 20
0
 30
0
 70
128
 71
17
 72
14
 73
21
 74
21
 0
VERTEX
 8
114
 10
0
 20
0
 30
0
 70
128
 71
38
 72
24
 73
43
 74
43
 0
VERTEX
 8
114
 10
0
 20
0
 30
0
 70
128
 71
26
 72
25
 73
34
 74
34
 0
VERTEX
 8
114
 10
0
 20
0
 30
0
 70
128
 71
26
 72
29
 73
33
 74
33
 0
VERTEX
 8
114
 10
0
 20
0
 30
0
 70
128
 71
29
 72
26
 73
34
 74
34
 0
VERTEX
 8
114
 10
0
 20
0
 30
0
 70
128
 71
27
 72
28
 73
40
 74
40
 0
VERTEX
 8
114
 10
0
 20
0
 30
0
 70
128
 71
28
 72
39
 73
40
 74
40
 0
VERTEX
 8
114
 10
0
 20
0
 30
0
 70
128
 71
29
 72
30
 73
33
 74
33
 0
VERTEX
 8
114
 10
0
 20
0
 30
0
 70
128
 71
30
 72
31
 73
33
 74
33
 0
VERTEX
 8
114
 10
0
 20
0
 30
0
 70
128
 71
39
 72
38
 73
41
 74
41
 0
VERTEX
 8
114
 10
0
 20
0
 30
0
 70
128
 71
41
 72
38
 73
43
 74
43
 0
VERTEX
 8
114
 10
0
 20
0
 30
0
 70
128
 71
40
 72
39
 73
41
 74
41
 0
SEQEND
 0
POLYLINE
 8
113
 66
1
 10
0.0
 20
0.0
 30
0.0
 70
64
 71
3
 72
1
 0
VERTEX
 8
113
 10
208.7269
 20
-1
 30
-176.1427
 70
192
 0
VERTEX
 8
113
 10
209.7117
 20
-43
 30
-175.969
 70
192
 0
VERTEX
 8
113
 10
209.7117
 20
-1
 30
-175.969
 70
192
 0
VERTEX
 8
113
 10
0
 20
0
 30
0
 70
128
 71
1
 72
2
 73
3
 74
3
 0
SEQEND
 0
POLYLINE
 8
112
 66
1
 10
0.0
 20
0.0
 30
0.0
 70
64
 71
3
 72
1
 0
VERTEX
 8
112
 10
208.5949
 20
-0.5008
 30
-176.1659
 70
192
 0
VERTEX
 8
112
 10
206.4929
 20
-0.134
 30
-166.3573
 70
192
 0
VERTEX
 8
112
 10
206.8542
 20
-0.5008
 30
-166.2936
 70
192
 0
VERTEX
 8
112
 10
0
 20
0
 30
0
 70
128
 71
1
 72
2
 73
3
 74
3
 0
SEQEND
 0
POLYLINE
 8
111
 66
1
 10
0.0
 20
0.0
 30
0.0
 70
64
 71
3
 72
1
 0
VERTEX
 8
111
 10
208.5949
 20
-0.5008
 30
-176.1659
 70
192
 0
VERTEX
 8
111
 10
209.7117
 20
-1
 30
-175.969
 70
192
 0
VERTEX
 8
111
 10
209.5619
 20
-0.2356
 30
-175.9954
 70
192
 0
VERTEX
 8
111
 10
0
 20
0
 30
0
 70
128
 71
1
 72
2
 73
3
 74
3
 0
SEQEND
 0
POLYLINE
 8
110
 66
1
 10
0.0
 20
0.0
 30
0.0
 70
64
 71
3
 72
1
 0
VERTEX
 8
110
 10
208.5949
 20
-0.5008
 30
-176.1659
 70
192
 0
VERTEX
 8
110
 10
208.7269
 20
-1
 30
-176.1427
 70
192
 0
VERTEX
 8
110
 10
206.8542
 20
-0.5008
 30
-166.2936
 70
192
 0
VERTEX
 8
110
 10
0
 20
0
 30
0
 70
128
 71
2
 72
1
 73
3
 74
3
 0
SEQEND
 0
POLYLINE
 8
109
 66
1
 10
0.0
 20
0.0
 30
0.0
 70
64
 71
3
 72
1
 0
VERTEX
 8
109
 10
208.5949
 20
-0.5008
 30
-176.1659
 70
192
 0
VERTEX
 8
109
 10
208.7269
 20
-1
 30
-176.1427
 70
192
 0
VERTEX
 8
109
 10
209.7117
 20
-1
 30
-175.969
 70
192
 0
VERTEX
 8
109
 10
0
 20
0
 30
0
 70
128
 71
1
 72
2
 73
3
 74
3
 0
SEQEND
 0
POLYLINE
 8
108
 66
1
 10
0.0
 20
0.0
 30
0.0
 70
64
 71
4
 72
2
 0
VERTEX
 8
108
 10
208.2337
 20
-0.134
 30
-176.2296
 70
192
 0
VERTEX
 8
108
 10
208.5949
 20
-0.5008
 30
-176.1659
 70
192
 0
VERTEX
 8
108
 10
206.0013
 20
0
 30
-166.444
 70
192
 0
VERTEX
 8
108
 10
206.4929
 20
-0.134
 30
-166.3573
 70
192
 0
VERTEX
 8
108
 10
0
 20
0
 30
0
 70
128
 71
2
 72
1
 73
4
 74
4
 0
VERTEX
 8
108
 10
0
 20
0
 30
0
 70
128
 71
1
 72
3
 73
4
 74
4
 0
SEQEND
 0
POLYLINE
 8
107
 66
1
 10
0.0
 20
0.0
 30
0.0
 70
64
 71
5
 72
2
 0
VERTEX
 8
107
 10
207.7421
 20
0
 30
-176.3163
 70
192
 0
VERTEX
 8
107
 10
208.2337
 20
-0.134
 30
-176.2296
 70
192
 0
VERTEX
 8
107
 10
208.5949
 20
-0.5008
 30
-176.1659
 70
192
 0
VERTEX
 8
107
 10
209.5619
 20
-0.2356
 30
-175.9954
 70
192
 0
VERTEX
 8
107
 10
209.1345
 20
0.4139
 30
-176.0708
 70
192
 0
VERTEX
 8
107
 10
0
 20
0
 30
0
 70
128
 71
1
 72
4
 73
5
 74
5
 0
VERTEX
 8
107
 10
0
 20
0
 30
0
 70
128
 71
2
 72
3
 73
4
 74
4
 0
SEQEND
 0
POLYLINE
 8
106
 66
1
 10
0.0
 20
0.0
 30
0.0
 70
64
 71
3
 72
1
 0
VERTEX
 8
106
 10
207.7421
 20
0
 30
-176.3163
 70
192
 0
VERTEX
 8
106
 10
208.2337
 20
-0.134
 30
-176.2296
 70
192
 0
VERTEX
 8
106
 10
206.0013
 20
0
 30
-166.444
 70
192
 0
VERTEX
 8
106
 10
0
 20
0
 30
0
 70
128
 71
2
 72
1
 73
3
 74
3
 0
SEQEND
 0
POLYLINE
 8
105
 66
1
 10
0.0
 20
0.0
 30
0.0
 70
64
 71
3
 72
1
 0
VERTEX
 8
105
 10
207.7421
 20
0
 30
-176.3163
 70
192
 0
VERTEX
 8
105
 10
208.2337
 20
-0.134
 30
-176.2296
 70
192
 0
VERTEX
 8
105
 10
209.5619
 20
-0.2356
 30
-175.9954
 70
192
 0
VERTEX
 8
105
 10
0
 20
0
 30
0
 70
128
 71
1
 72
2
 73
3
 74
3
 0
SEQEND
 0
POLYLINE
 8
104
 66
1
 10
0.0
 20
0.0
 30
0.0
 70
64
 71
10
 72
4
 0
VERTEX
 8
104
 10
194.9396
 20
1
 30
-178.5737
 70
192
 0
VERTEX
 8
104
 10
194.9396
 20
1
 30
-178.5737
 70
192
 0
VERTEX
 8
104
 10
194.9396
 20
0
 30
-178.5737
 70
192
 0
VERTEX
 8
104
 10
207.7421
 20
0
 30
-176.3163
 70
192
 0
VERTEX
 8
104
 10
193.1988
 20
0
 30
-168.7014
 70
192
 0
VERTEX
 8
104
 10
193.1988
 20
0
 30
-168.7014
 70
192
 0
VERTEX
 8
104
 10
193.1988
 20
1
 30
-168.7014
 70
192
 0
VERTEX
 8
104
 10
193.1988
 20
1
 30
-168.7014
 70
192
 0
VERTEX
 8
104
 10
206.0013
 20
1
 30
-166.444
 70
192
 0
VERTEX
 8
104
 10
206.0013
 20
0
 30
-166.444
 70
192
 0
VERTEX
 8
104
 10
0
 20
0
 30
0
 70
128
 71
5
 72
1
 73
7
 74
7
 0
VERTEX
 8
104
 10
0
 20
0
 30
0
 70
128
 71
8
 72
2
 73
9
 74
9
 0
VERTEX
 8
104
 10
0
 20
0
 30
0
 70
128
 71
4
 72
3
 73
10
 74
10
 0
VERTEX
 8
104
 10
0
 20
0
 30
0
 70
128
 71
3
 72
6
 73
10
 74
10
 0
SEQEND
 0
POLYLINE
 8
103
 66
1
 10
0.0
 20
0.0
 30
0.0
 70
64
 71
4
 72
2
 0
VERTEX
 8
103
 10
194.9396
 20
1
 30
-178.5737
 70
192
 0
VERTEX
 8
103
 10
207.7421
 20
0
 30
-176.3163
 70
192
 0
VERTEX
 8
103
 10
209.1345
 20
0.4139
 30
-176.0708
 70
192
 0
VERTEX
 8
103
 10
208.4949
 20
0.8479
 30
-176.1836
 70
192
 0
VERTEX
 8
103
 10
0
 20
0
 30
0
 70
128
 71
1
 72
2
 73
3
 74
3
 0
VERTEX
 8
103
 10
0
 20
0
 30
0
 70
128
 71
1
 72
3
 73
4
 74
4
 0
SEQEND
 0
POLYLINE
 8
102
 66
1
 10
0.0
 20
0.0
 30
0.0
 70
64
 71
3
 72
1
 0
VERTEX
 8
102
 10
194.9396
 20
1
 30
-178.5737
 70
192
 0
VERTEX
 8
102
 10
194.9396
 20
0
 30
-178.5737
 70
192
 0
VERTEX
 8
102
 10
193.1988
 20
0
 30
-168.7014
 70
192
 0
VERTEX
 8
102
 10
0
 20
0
 30
0
 70
128
 71
2
 72
1
 73
3
 74
3
 0
SEQEND
 0
POLYLINE
 8
101
 66
1
 10
0.0
 20
0.0
 30
0.0
 70
64
 71
3
 72
1
 0
VERTEX
 8
101
 10
194.9396
 20
1
 30
-178.5737
 70
192
 0
VERTEX
 8
101
 10
194.9396
 20
0
 30
-178.5737
 70
192
 0
VERTEX
 8
101
 10
207.7421
 20
0
 30
-176.3163
 70
192
 0
VERTEX
 8
101
 10
0
 20
0
 30
0
 70
128
 71
1
 72
2
 73
3
 74
3
 0
SEQEND
 0
POLYLINE
 8
100
 66
1
 10
0.0
 20
0.0
 30
0.0
 70
64
 71
7
 72
3
 0
VERTEX
 8
100
 10
207.7421
 20
1
 30
-176.3163
 70
192
 0
VERTEX
 8
100
 10
207.7421
 20
1
 30
-176.3163
 70
192
 0
VERTEX
 8
100
 10
194.9396
 20
1
 30
-178.5737
 70
192
 0
VERTEX
 8
100
 10
208.4949
 20
0.8479
 30
-176.1836
 70
192
 0
VERTEX
 8
100
 10
206.675
 20
0.8794
 30
-166.3252
 70
192
 0
VERTEX
 8
100
 10
206.0013
 20
1
 30
-166.444
 70
192
 0
VERTEX
 8
100
 10
206.0013
 20
1
 30
-166.444
 70
192
 0
VERTEX
 8
100
 10
0
 20
0
 30
0
 70
128
 71
3
 72
2
 73
7
 74
7
 0
VERTEX
 8
100
 10
0
 20
0
 30
0
 70
128
 71
1
 72
4
 73
5
 74
5
 0
VERTEX
 8
100
 10
0
 20
0
 30
0
 70
128
 71
1
 72
5
 73
6
 74
6
 0
SEQEND
 0
POLYLINE
 8
99
 66
1
 10
0.0
 20
0.0
 30
0.0
 70
64
 71
3
 72
1
 0
VERTEX
 8
99
 10
207.7421
 20
1
 30
-176.3163
 70
192
 0
VERTEX
 8
99
 10
194.9396
 20
1
 30
-178.5737
 70
192
 0
VERTEX
 8
99
 10
208.4949
 20
0.8479
 30
-176.1836
 70
192
 0
VERTEX
 8
99
 10
0
 20
0
 30
0
 70
128
 71
1
 72
2
 73
3
 74
3
 0
SEQEND
 0
POLYLINE
 8
98
 66
1
 10
0.0
 20
0.0
 30
0.0
 70
64
 71
20
 72
12
 0
VERTEX
 8
98
 10
0
 20
0
 30
-15
 70
192
 0
VERTEX
 8
98
 10
0
 20
0
 30
-15
 70
192
 0
VERTEX
 8
98
 10
0
 20
1
 30
-15
 70
192
 0
VERTEX
 8
98
 10
0
 20
1
 30
-2
 70
192
 0
VERTEX
 8
98
 10
0
 20
1
 30
-2
 70
192
 0
VERTEX
 8
98
 10
0
 20
0.8479
 30
-1.2356
 70
192
 0
VERTEX
 8
98
 10
0
 20
0.4139
 30
-0.5861
 70
192
 0
VERTEX
 8
98
 10
0
 20
-0.2356
 30
-0.1521
 70
192
 0
VERTEX
 8
98
 10
0
 20
-1
 30
0
 70
192
 0
VERTEX
 8
98
 10
10.0246
 20
0
 30
-0.2679
 70
192
 0
VERTEX
 8
98
 10
10.0246
 20
-0.4824
 30
-0.0682
 70
192
 0
VERTEX
 8
98
 10
10.0246
 20
1
 30
-15
 70
192
 0
VERTEX
 8
98
 10
10.0246
 20
1
 30
-15
 70
192
 0
VERTEX
 8
98
 10
10.0246
 20
1
 30
-2
 70
192
 0
VERTEX
 8
98
 10
10.0246
 20
1
 30
-2
 70
192
 0
VERTEX
 8
98
 10
10.0246
 20
0
 30
-2
 70
192
 0
VERTEX
 8
98
 10
10.0246
 20
0.5321
 30
-0.7144
 70
192
 0
VERTEX
 8
98
 10
10.0246
 20
0.8794
 30
-1.316
 70
192
 0
VERTEX
 8
98
 10
10.0246
 20
0
 30
-15
 70
192
 0
VERTEX
 8
98
 10
10.0246
 20
0
 30
-15
 70
192
 0
VERTEX
 8
98
 10
0
 20
0
 30
0
 70
128
 71
13
 72
1
 73
19
 74
19
 0
VERTEX
 8
98
 10
0
 20
0
 30
0
 70
128
 71
2
 72
16
 73
20
 74
20
 0
VERTEX
 8
98
 10
0
 20
0
 30
0
 70
128
 71
4
 72
3
 73
12
 74
12
 0
VERTEX
 8
98
 10
0
 20
0
 30
0
 70
128
 71
6
 72
5
 73
15
 74
15
 0
VERTEX
 8
98
 10
0
 20
0
 30
0
 70
128
 71
4
 72
12
 73
14
 74
14
 0
VERTEX
 8
98
 10
0
 20
0
 30
0
 70
128
 71
7
 72
6
 73
17
 74
17
 0
VERTEX
 8
98
 10
0
 20
0
 30
0
 70
128
 71
6
 72
15
 73
18
 74
18
 0
VERTEX
 8
98
 10
0
 20
0
 30
0
 70
128
 71
17
 72
6
 73
18
 74
18
 0
VERTEX
 8
98
 10
0
 20
0
 30
0
 70
128
 71
8
 72
7
 73
10
 74
10
 0
VERTEX
 8
98
 10
0
 20
0
 30
0
 70
128
 71
10
 72
7
 73
17
 74
17
 0
VERTEX
 8
98
 10
0
 20
0
 30
0
 70
128
 71
9
 72
8
 73
11
 74
11
 0
VERTEX
 8
98
 10
0
 20
0
 30
0
 70
128
 71
8
 72
10
 73
11
 74
11
 0
SEQEND
 0
POLYLINE
 8
97
 66
1
 10
0.0
 20
0.0
 30
0.0
 70
64
 71
4
 72
2
 0
VERTEX
 8
97
 10
0
 20
0
 30
-15
 70
192
 0
VERTEX
 8
97
 10
0
 20
1
 30
-2
 70
192
 0
VERTEX
 8
97
 10
0
 20
0.8479
 30
-1.2356
 70
192
 0
VERTEX
 8
97
 10
0
 20
0.4139
 30
-0.5861
 70
192
 0
VERTEX
 8
97
 10
0
 20
0
 30
0
 70
128
 71
1
 72
2
 73
3
 74
3
 0
VERTEX
 8
97
 10
0
 20
0
 30
0
 70
128
 71
1
 72
3
 73
4
 74
4
 0
SEQEND
 0
POLYLINE
 8
96
 66
1
 10
0.0
 20
0.0
 30
0.0
 70
64
 71
3
 72
1
 0
VERTEX
 8
96
 10
0
 20
0
 30
-15
 70
192
 0
VERTEX
 8
96
 10
0
 20
1
 30
-15
 70
192
 0
VERTEX
 8
96
 10
10.0246
 20
1
 30
-15
 70
192
 0
VERTEX
 8
96
 10
0
 20
0
 30
0
 70
128
 71
2
 72
1
 73
3
 74
3
 0
SEQEND
 0
POLYLINE
 8
95
 66
1
 10
0.0
 20
0.0
 30
0.0
 70
64
 71
3
 72
1
 0
VERTEX
 8
95
 10
0
 20
0
 30
-15
 70
192
 0
VERTEX
 8
95
 10
0
 20
1
 30
-15
 70
192
 0
VERTEX
 8
95
 10
0
 20
1
 30
-2
 70
192
 0
VERTEX
 8
95
 10
0
 20
0
 30
0
 70
128
 71
1
 72
2
 73
3
 74
3
 0
SEQEND
 0
POLYLINE
 8
94
 66
1
 10
0.0
 20
0.0
 30
0.0
 70
64
 71
6
 72
2
 0
VERTEX
 8
94
 10
0
 20
0
 30
-2
 70
192
 0
VERTEX
 8
94
 10
0
 20
0
 30
-2
 70
192
 0
VERTEX
 8
94
 10
0
 20
0
 30
-15
 70
192
 0
VERTEX
 8
94
 10
10.0246
 20
0
 30
-2
 70
192
 0
VERTEX
 8
94
 10
10.0246
 20
0
 30
-2
 70
192
 0
VERTEX
 8
94
 10
10.0246
 20
-0.134
 30
-1.5008
 70
192
 0
VERTEX
 8
94
 10
0
 20
0
 30
0
 70
128
 71
3
 72
2
 73
5
 74
5
 0
VERTEX
 8
94
 10
0
 20
0
 30
0
 70
128
 71
4
 72
1
 73
6
 74
6
 0
SEQEND
 0
POLYLINE
 8
93
 66
1
 10
0.0
 20
0.0
 30
0.0
 70
64
 71
3
 72
1
 0
VERTEX
 8
93
 10
0
 20
0
 30
-2
 70
192
 0
VERTEX
 8
93
 10
0
 20
0
 30
-15
 70
192
 0
VERTEX
 8
93
 10
0
 20
0.4139
 30
-0.5861
 70
192
 0
VERTEX
 8
93
 10
0
 20
0
 30
0
 70
128
 71
1
 72
2
 73
3
 74
3
 0
SEQEND
 0
POLYLINE
 8
92
 66
1
 10
0.0
 20
0.0
 30
0.0
 70
64
 71
3
 72
1
 0
VERTEX
 8
92
 10
0
 20
-0.134
 30
-1.5008
 70
192
 0
VERTEX
 8
92
 10
10.0246
 20
-0.134
 30
-1.5008
 70
192
 0
VERTEX
 8
92
 10
10.0246
 20
-0.5008
 30
-1.134
 70
192
 0
VERTEX
 8
92
 10
0
 20
0
 30
0
 70
128
 71
2
 72
1
 73
3
 74
3
 0
SEQEND
 0
POLYLINE
 8
91
 66
1
 10
0.0
 20
0.0
 30
0.0
 70
64
 71
3
 72
1
 0
VERTEX
 8
91
 10
0
 20
-0.134
 30
-1.5008
 70
192
 0
VERTEX
 8
91
 10
0
 20
0.4139
 30
-0.5861
 70
192
 0
VERTEX
 8
91
 10
0
 20
-0.2356
 30
-0.1521
 70
192
 0
VERTEX
 8
91
 10
0
 20
0
 30
0
 70
128
 71
1
 72
2
 73
3
 74
3
 0
SEQEND
 0
POLYLINE
 8
90
 66
1
 10
0.0
 20
0.0
 30
0.0
 70
64
 71
3
 72
1
 0
VERTEX
 8
90
 10
0
 20
-0.134
 30
-1.5008
 70
192
 0
VERTEX
 8
90
 10
0
 20
0
 30
-2
 70
192
 0
VERTEX
 8
90
 10
10.0246
 20
-0.134
 30
-1.5008
 70
192
 0
VERTEX
 8
90
 10
0
 20
0
 30
0
 70
128
 71
2
 72
1
 73
3
 74
3
 0
SEQEND
 0
POLYLINE
 8
89
 66
1
 10
0.0
 20
0.0
 30
0.0
 70
64
 71
3
 72
1
 0
VERTEX
 8
89
 10
0
 20
-0.134
 30
-1.5008
 70
192
 0
VERTEX
 8
89
 10
0
 20
0
 30
-2
 70
192
 0
VERTEX
 8
89
 10
0
 20
0.4139
 30
-0.5861
 70
192
 0
VERTEX
 8
89
 10
0
 20
0
 30
0
 70
128
 71
1
 72
2
 73
3
 74
3
 0
SEQEND
 0
POLYLINE
 8
88
 66
1
 10
0.0
 20
0.0
 30
0.0
 70
64
 71
4
 72
2
 0
VERTEX
 8
88
 10
0
 20
-0.5008
 30
-1.134
 70
192
 0
VERTEX
 8
88
 10
0
 20
-0.134
 30
-1.5008
 70
192
 0
VERTEX
 8
88
 10
10.0246
 20
-1
 30
-1
 70
192
 0
VERTEX
 8
88
 10
10.0246
 20
-0.5008
 30
-1.134
 70
192
 0
VERTEX
 8
88
 10
0
 20
0
 30
0
 70
128
 71
2
 72
1
 73
4
 74
4
 0
VERTEX
 8
88
 10
0
 20
0
 30
0
 70
128
 71
1
 72
3
 73
4
 74
4
 0
SEQEND
 0
POLYLINE
 8
87
 66
1
 10
0.0
 20
0.0
 30
0.0
 70
64
 71
3
 72
1
 0
VERTEX
 8
87
 10
0
 20
-0.5008
 30
-1.134
 70
192
 0
VERTEX
 8
87
 10
0
 20
-0.134
 30
-1.5008
 70
192
 0
VERTEX
 8
87
 10
0
 20
-0.2356
 30
-0.1521
 70
192
 0
VERTEX
 8
87
 10
0
 20
0
 30
0
 70
128
 71
1
 72
2
 73
3
 74
3
 0
SEQEND
 0
POLYLINE
 8
86
 66
1
 10
0.0
 20
0.0
 30
0.0
 70
64
 71
3
 72
1
 0
VERTEX
 8
86
 10
0
 20
-1
 30
-1
 70
192
 0
VERTEX
 8
86
 10
10.0246
 20
-12.0001
 30
-1
 70
192
 0
VERTEX
 8
86
 10
10.0246
 20
-1
 30
-1
 70
192
 0
VERTEX
 8
86
 10
0
 20
0
 30
0
 70
128
 71
1
 72
2
 73
3
 74
3
 0
SEQEND
 0
POLYLINE
 8
85
 66
1
 10
0.0
 20
0.0
 30
0.0
 70
64
 71
3
 72
1
 0
VERTEX
 8
85
 10
0
 20
-1
 30
-1
 70
192
 0
VERTEX
 8
85
 10
0
 20
-0.2356
 30
-0.1521
 70
192
 0
VERTEX
 8
85
 10
0
 20
-1
 30
0
 70
192
 0
VERTEX
 8
85
 10
0
 20
0
 30
0
 70
128
 71
1
 72
2
 73
3
 74
3
 0
SEQEND
 0
POLYLINE
 8
84
 66
1
 10
0.0
 20
0.0
 30
0.0
 70
64
 71
3
 72
1
 0
VERTEX
 8
84
 10
0
 20
-1
 30
-1
 70
192
 0
VERTEX
 8
84
 10
0
 20
-0.5008
 30
-1.134
 70
192
 0
VERTEX
 8
84
 10
10.0246
 20
-1
 30
-1
 70
192
 0
VERTEX
 8
84
 10
0
 20
0
 30
0
 70
128
 71
2
 72
1
 73
3
 74
3
 0
SEQEND
 0
POLYLINE
 8
83
 66
1
 10
0.0
 20
0.0
 30
0.0
 70
64
 71
3
 72
1
 0
VERTEX
 8
83
 10
0
 20
-1
 30
-1
 70
192
 0
VERTEX
 8
83
 10
0
 20
-0.5008
 30
-1.134
 70
192
 0
VERTEX
 8
83
 10
0
 20
-0.2356
 30
-0.1521
 70
192
 0
VERTEX
 8
83
 10
0
 20
0
 30
0
 70
128
 71
1
 72
2
 73
3
 74
3
 0
SEQEND
 0
POLYLINE
 8
82
 66
1
 10
0.0
 20
0.0
 30
0.0
 70
64
 71
24
 72
20
 0
VERTEX
 8
82
 10
0.3405
 20
-45.5865
 30
-1
 70
192
 0
VERTEX
 8
82
 10
1.3395
 20
-47.9986
 30
-1
 70
192
 0
VERTEX
 8
82
 10
2.9294
 20
-50.0706
 30
-1
 70
192
 0
VERTEX
 8
82
 10
5.0015
 20
-51.6605
 30
-1
 70
192
 0
VERTEX
 8
82
 10
7.4121
 20
-52.6595
 30
-1
 70
192
 0
VERTEX
 8
82
 10
10.0249
 20
-53
 30
-1
 70
192
 0
VERTEX
 8
82
 10
207.4395
 20
-52.6595
 30
-168.8417
 70
192
 0
VERTEX
 8
82
 10
207.8584
 20
-51.6606
 30
-171.2172
 70
192
 0
VERTEX
 8
82
 10
208.2182
 20
-50.0707
 30
-173.2578
 70
192
 0
VERTEX
 8
82
 10
208.4943
 20
-47.9986
 30
-174.8236
 70
192
 0
VERTEX
 8
82
 10
208.6678
 20
-45.5865
 30
-175.8074
 70
192
 0
VERTEX
 8
82
 10
208.7269
 20
-43
 30
-176.1427
 70
192
 0
VERTEX
 8
82
 10
0
 20
-43
 30
0
 70
192
 0
VERTEX
 8
82
 10
209.7117
 20
-43
 30
-175.969
 70
192
 0
VERTEX
 8
82
 10
7.4313
 20
-52.6641
 30
0
 70
192
 0
VERTEX
 8
82
 10
5.0143
 20
-51.668
 30
0
 70
192
 0
VERTEX
 8
82
 10
2.9372
 20
-50.0785
 30
0
 70
192
 0
VERTEX
 8
82
 10
1.3432
 20
-48.005
 30
0
 70
192
 0
VERTEX
 8
82
 10
0.3414
 20
-45.5901
 30
0
 70
192
 0
VERTEX
 8
82
 10
209.6524
 20
-45.5901
 30
-175.6328
 70
192
 0
VERTEX
 8
82
 10
209.4785
 20
-48.005
 30
-174.6462
 70
192
 0
VERTEX
 8
82
 10
209.2017
 20
-50.0785
 30
-173.0764
 70
192
 0
VERTEX
 8
82
 10
208.841
 20
-51.668
 30
-171.0309
 70
192
 0
VERTEX
 8
82
 10
208.4213
 20
-52.6641
 30
-168.6506
 70
192
 0
VERTEX
 8
82
 10
0
 20
0
 30
0
 70
128
 71
2
 72
1
 73
19
 74
19
 0
VERTEX
 8
82
 10
0
 20
0
 30
0
 70
128
 71
1
 72
13
 73
19
 74
19
 0
VERTEX
 8
82
 10
0
 20
0
 30
0
 70
128
 71
3
 72
2
 73
18
 74
18
 0
VERTEX
 8
82
 10
0
 20
0
 30
0
 70
128
 71
18
 72
2
 73
19
 74
19
 0
VERTEX
 8
82
 10
0
 20
0
 30
0
 70
128
 71
4
 72
3
 73
17
 74
17
 0
VERTEX
 8
82
 10
0
 20
0
 30
0
 70
128
 71
17
 72
3
 73
18
 74
18
 0
VERTEX
 8
82
 10
0
 20
0
 30
0
 70
128
 71
5
 72
4
 73
16
 74
16
 0
VERTEX
 8
82
 10
0
 20
0
 30
0
 70
128
 71
16
 72
4
 73
17
 74
17
 0
VERTEX
 8
82
 10
0
 20
0
 30
0
 70
128
 71
6
 72
5
 73
15
 74
15
 0
VERTEX
 8
82
 10
0
 20
0
 30
0
 70
128
 71
15
 72
5
 73
16
 74
16
 0
VERTEX
 8
82
 10
0
 20
0
 30
0
 70
128
 71
8
 72
7
 73
23
 74
23
 0
VERTEX
 8
82
 10
0
 20
0
 30
0
 70
128
 71
23
 72
7
 73
24
 74
24
 0
VERTEX
 8
82
 10
0
 20
0
 30
0
 70
128
 71
9
 72
8
 73
22
 74
22
 0
VERTEX
 8
82
 10
0
 20
0
 30
0
 70
128
 71
22
 72
8
 73
23
 74
23
 0
VERTEX
 8
82
 10
0
 20
0
 30
0
 70
128
 71
10
 72
9
 73
21
 74
21
 0
VERTEX
 8
82
 10
0
 20
0
 30
0
 70
128
 71
21
 72
9
 73
22
 74
22
 0
VERTEX
 8
82
 10
0
 20
0
 30
0
 70
128
 71
11
 72
10
 73
20
 74
20
 0
VERTEX
 8
82
 10
0
 20
0
 30
0
 70
128
 71
20
 72
10
 73
21
 74
21
 0
VERTEX
 8
82
 10
0
 20
0
 30
0
 70
128
 71
12
 72
11
 73
20
 74
20
 0
VERTEX
 8
82
 10
0
 20
0
 30
0
 70
128
 71
14
 72
12
 73
20
 74
20
 0
SEQEND
 0
POLYLINE
 8
81
 66
1
 10
0.0
 20
0.0
 30
0.0
 70
64
 71
3
 72
1
 0
VERTEX
 8
81
 10
0
 20
-43
 30
-1
 70
192
 0
VERTEX
 8
81
 10
0
 20
-1
 30
0
 70
192
 0
VERTEX
 8
81
 10
0
 20
-43
 30
0
 70
192
 0
VERTEX
 8
81
 10
0
 20
0
 30
0
 70
128
 71
1
 72
2
 73
3
 74
3
 0
SEQEND
 0
POLYLINE
 8
80
 66
1
 10
0.0
 20
0.0
 30
0.0
 70
64
 71
3
 72
1
 0
VERTEX
 8
80
 10
0
 20
-43
 30
-1
 70
192
 0
VERTEX
 8
80
 10
0.3405
 20
-45.5865
 30
-1
 70
192
 0
VERTEX
 8
80
 10
0
 20
-43
 30
0
 70
192
 0
VERTEX
 8
80
 10
0
 20
0
 30
0
 70
128
 71
2
 72
1
 73
3
 74
3
 0
SEQEND
 0
POLYLINE
 8
79
 66
1
 10
0.0
 20
0.0
 30
0.0
 70
64
 71
51
 72
39
 0
VERTEX
 8
79
 10
7.4522
 20
-53.6693
 30
-11
 70
192
 0
VERTEX
 8
79
 10
5.0284
 20
-52.676
 30
-11
 70
192
 0
VERTEX
 8
79
 10
2.9459
 20
-51.0871
 30
-11
 70
192
 0
VERTEX
 8
79
 10
1.3473
 20
-49.0121
 30
-11
 70
192
 0
VERTEX
 8
79
 10
0.3425
 20
-46.594
 30
-11
 70
192
 0
VERTEX
 8
79
 10
0
 20
-44
 30
-11
 70
192
 0
VERTEX
 8
79
 10
0
 20
-44
 30
-11
 70
192
 0
VERTEX
 8
79
 10
0
 20
-44
 30
-1
 70
192
 0
VERTEX
 8
79
 10
0
 20
-44
 30
-1
 70
192
 0
VERTEX
 8
79
 10
0
 20
-44
 30
-1
 70
192
 0
VERTEX
 8
79
 10
0.3891
 20
-46.7612
 30
-1
 70
192
 0
VERTEX
 8
79
 10
0.3891
 20
-46.7612
 30
-1
 70
192
 0
VERTEX
 8
79
 10
1.5273
 20
-49.3106
 30
-1
 70
192
 0
VERTEX
 8
79
 10
1.5273
 20
-49.3106
 30
-1
 70
192
 0
VERTEX
 8
79
 10
3.3256
 20
-51.4462
 30
-1
 70
192
 0
VERTEX
 8
79
 10
3.3256
 20
-51.4462
 30
-1
 70
192
 0
VERTEX
 8
79
 10
5.6411
 20
-53
 30
-1
 70
192
 0
VERTEX
 8
79
 10
5.6411
 20
-53
 30
-1
 70
192
 0
VERTEX
 8
79
 10
208.1494
 20
-51.4462
 30
-172.8676
 70
192
 0
VERTEX
 8
79
 10
208.1494
 20
-51.4462
 30
-172.8676
 70
192
 0
VERTEX
 8
79
 10
208.4617
 20
-49.3106
 30
-174.6385
 70
192
 0
VERTEX
 8
79
 10
208.4617
 20
-49.3106
 30
-174.6385
 70
192
 0
VERTEX
 8
79
 10
208.6593
 20
-46.7612
 30
-175.7594
 70
192
 0
VERTEX
 8
79
 10
208.6593
 20
-46.7612
 30
-175.7594
 70
192
 0
VERTEX
 8
79
 10
208.7269
 20
-44
 30
-176.1427
 70
192
 0
VERTEX
 8
79
 10
208.7269
 20
-44
 30
-176.1427
 70
192
 0
VERTEX
 8
79
 10
198.8788
 20
-44
 30
-177.8792
 70
192
 0
VERTEX
 8
79
 10
198.8788
 20
-44
 30
-177.8792
 70
192
 0
VERTEX
 8
79
 10
198.8194
 20
-46.594
 30
-177.5419
 70
192
 0
VERTEX
 8
79
 10
198.8194
 20
-46.594
 30
-177.5419
 70
192
 0
VERTEX
 8
79
 10
198.6449
 20
-49.0121
 30
-176.5524
 70
192
 0
VERTEX
 8
79
 10
198.6449
 20
-49.0121
 30
-176.5524
 70
192
 0
VERTEX
 8
79
 10
198.3673
 20
-51.0871
 30
-174.978
 70
192
 0
VERTEX
 8
79
 10
198.3673
 20
-51.0871
 30
-174.978
 70
192
 0
VERTEX
 8
79
 10
198.0056
 20
-52.676
 30
-172.9271
 70
192
 0
VERTEX
 8
79
 10
198.0056
 20
-52.676
 30
-172.9271
 70
192
 0
VERTEX
 8
79
 10
197.5848
 20
-53.6693
 30
-170.5401
 70
192
 0
VERTEX
 8
79
 10
0
 20
-43
 30
-1
 70
192
 0
VERTEX
 8
79
 10
0
 20
-43
 30
-1
 70
192
 0
VERTEX
 8
79
 10
0.3405
 20
-45.5865
 30
-1
 70
192
 0
VERTEX
 8
79
 10
1.3395
 20
-47.9986
 30
-1
 70
192
 0
VERTEX
 8
79
 10
2.9294
 20
-50.0706
 30
-1
 70
192
 0
VERTEX
 8
79
 10
5.0015
 20
-51.6605
 30
-1
 70
192
 0
VERTEX
 8
79
 10
7.4121
 20
-52.6595
 30
-1
 70
192
 0
VERTEX
 8
79
 10
10.0249
 20
-53
 30
-1
 70
192
 0
VERTEX
 8
79
 10
197.1381
 20
-38.5013
 30
-168.0069
 70
192
 0
VERTEX
 8
79
 10
207.8584
 20
-51.6606
 30
-171.2172
 70
192
 0
VERTEX
 8
79
 10
208.2182
 20
-50.0707
 30
-173.2578
 70
192
 0
VERTEX
 8
79
 10
208.4943
 20
-47.9986
 30
-174.8236
 70
192
 0
VERTEX
 8
79
 10
208.6678
 20
-45.5865
 30
-175.8074
 70
192
 0
VERTEX
 8
79
 10
208.7269
 20
-43
 30
-176.1427
 70
192
 0
VERTEX
 8
79
 10
0
 20
0
 30
0
 70
128
 71
1
 72
2
 73
17
 74
17
 0
VERTEX
 8
79
 10
0
 20
0
 30
0
 70
128
 71
2
 72
3
 73
15
 74
15
 0
VERTEX
 8
79
 10
0
 20
0
 30
0
 70
128
 71
2
 72
15
 73
17
 74
17
 0
VERTEX
 8
79
 10
0
 20
0
 30
0
 70
128
 71
3
 72
4
 73
13
 74
13
 0
VERTEX
 8
79
 10
0
 20
0
 30
0
 70
128
 71
3
 72
13
 73
15
 74
15
 0
VERTEX
 8
79
 10
0
 20
0
 30
0
 70
128
 71
4
 72
5
 73
11
 74
11
 0
VERTEX
 8
79
 10
0
 20
0
 30
0
 70
128
 71
4
 72
11
 73
13
 74
13
 0
VERTEX
 8
79
 10
0
 20
0
 30
0
 70
128
 71
5
 72
6
 73
8
 74
8
 0
VERTEX
 8
79
 10
0
 20
0
 30
0
 70
128
 71
5
 72
8
 73
11
 74
11
 0
VERTEX
 8
79
 10
0
 20
0
 30
0
 70
128
 71
10
 72
7
 73
39
 74
39
 0
VERTEX
 8
79
 10
0
 20
0
 30
0
 70
128
 71
12
 72
9
 73
38
 74
38
 0
VERTEX
 8
79
 10
0
 20
0
 30
0
 70
128
 71
14
 72
12
 73
41
 74
41
 0
VERTEX
 8
79
 10
0
 20
0
 30
0
 70
128
 71
12
 72
38
 73
40
 74
40
 0
VERTEX
 8
79
 10
0
 20
0
 30
0
 70
128
 71
12
 72
40
 73
41
 74
41
 0
VERTEX
 8
79
 10
0
 20
0
 30
0
 70
128
 71
16
 72
14
 73
42
 74
42
 0
VERTEX
 8
79
 10
0
 20
0
 30
0
 70
128
 71
14
 72
41
 73
42
 74
42
 0
VERTEX
 8
79
 10
0
 20
0
 30
0
 70
128
 71
18
 72
16
 73
43
 74
43
 0
VERTEX
 8
79
 10
0
 20
0
 30
0
 70
128
 71
16
 72
42
 73
43
 74
43
 0
VERTEX
 8
79
 10
0
 20
0
 30
0
 70
128
 71
18
 72
43
 73
44
 74
44
 0
VERTEX
 8
79
 10
0
 20
0
 30
0
 70
128
 71
18
 72
44
 73
45
 74
45
 0
VERTEX
 8
79
 10
0
 20
0
 30
0
 70
128
 71
19
 72
21
 73
33
 74
33
 0
VERTEX
 8
79
 10
0
 20
0
 30
0
 70
128
 71
22
 72
20
 73
48
 74
48
 0
VERTEX
 8
79
 10
0
 20
0
 30
0
 70
128
 71
19
 72
33
 73
35
 74
35
 0
VERTEX
 8
79
 10
0
 20
0
 30
0
 70
128
 71
20
 72
47
 73
48
 74
48
 0
VERTEX
 8
79
 10
0
 20
0
 30
0
 70
128
 71
21
 72
23
 73
31
 74
31
 0
VERTEX
 8
79
 10
0
 20
0
 30
0
 70
128
 71
24
 72
22
 73
49
 74
49
 0
VERTEX
 8
79
 10
0
 20
0
 30
0
 70
128
 71
21
 72
31
 73
33
 74
33
 0
VERTEX
 8
79
 10
0
 20
0
 30
0
 70
128
 71
22
 72
48
 73
49
 74
49
 0
VERTEX
 8
79
 10
0
 20
0
 30
0
 70
128
 71
23
 72
25
 73
27
 74
27
 0
VERTEX
 8
79
 10
0
 20
0
 30
0
 70
128
 71
26
 72
24
 73
50
 74
50
 0
VERTEX
 8
79
 10
0
 20
0
 30
0
 70
128
 71
23
 72
27
 73
29
 74
29
 0
VERTEX
 8
79
 10
0
 20
0
 30
0
 70
128
 71
23
 72
29
 73
31
 74
31
 0
VERTEX
 8
79
 10
0
 20
0
 30
0
 70
128
 71
24
 72
49
 73
50
 74
50
 0
VERTEX
 8
79
 10
0
 20
0
 30
0
 70
128
 71
26
 72
50
 73
51
 74
51
 0
VERTEX
 8
79
 10
0
 20
0
 30
0
 70
128
 71
30
 72
28
 73
46
 74
46
 0
VERTEX
 8
79
 10
0
 20
0
 30
0
 70
128
 71
32
 72
30
 73
46
 74
46
 0
VERTEX
 8
79
 10
0
 20
0
 30
0
 70
128
 71
34
 72
32
 73
46
 74
46
 0
VERTEX
 8
79
 10
0
 20
0
 30
0
 70
128
 71
36
 72
34
 73
46
 74
46
 0
VERTEX
 8
79
 10
0
 20
0
 30
0
 70
128
 71
37
 72
36
 73
46
 74
46
 0
SEQEND
 0
POLYLINE
 8
78
 66
1
 10
0.0
 20
0.0
 30
0.0
 70
64
 71
43
 72
37
 0
VERTEX
 8
78
 10
208.7269
 20
-23
 30
-176.1427
 70
192
 0
VERTEX
 8
78
 10
206.9861
 20
-23
 30
-166.2704
 70
192
 0
VERTEX
 8
78
 10
203.2087
 20
-23
 30
-149.2323
 70
192
 0
VERTEX
 8
78
 10
197.9618
 20
-23
 30
-132.5931
 70
192
 0
VERTEX
 8
78
 10
191.285
 20
-23
 30
-116.4748
 70
192
 0
VERTEX
 8
78
 10
183.2293
 20
-23
 30
-101.0002
 70
192
 0
VERTEX
 8
78
 10
173.8558
 20
-23
 30
-86.2865
 70
192
 0
VERTEX
 8
78
 10
163.2353
 20
-23
 30
-72.445
 70
192
 0
VERTEX
 8
78
 10
151.4478
 20
-23
 30
-59.5806
 70
192
 0
VERTEX
 8
78
 10
138.5821
 20
-23
 30
-47.7911
 70
192
 0
VERTEX
 8
78
 10
124.7376
 20
-23
 30
-37.1681
 70
192
 0
VERTEX
 8
78
 10
110.0218
 20
-23
 30
-27.7936
 70
192
 0
VERTEX
 8
78
 10
94.5463
 20
-23
 30
-19.738
 70
192
 0
VERTEX
 8
78
 10
78.4285
 20
-23
 30
-13.0619
 70
192
 0
VERTEX
 8
78
 10
61.7902
 20
-23
 30
-7.8157
 70
192
 0
VERTEX
 8
78
 10
44.7572
 20
-23
 30
-4.0392
 70
192
 0
VERTEX
 8
78
 10
27.4598
 20
-23
 30
-1.7614
 70
192
 0
VERTEX
 8
78
 10
10.0246
 20
-23
 30
-1
 70
192
 0
VERTEX
 8
78
 10
10.0246
 20
-23
 30
-1
 70
192
 0
VERTEX
 8
78
 10
0
 20
-1
 30
-1
 70
192
 0
VERTEX
 8
78
 10
208.7269
 20
-1
 30
-176.1427
 70
192
 0
VERTEX
 8
78
 10
27.4598
 20
0
 30
-1.7615
 70
192
 0
VERTEX
 8
78
 10
44.7573
 20
0
 30
-4.0392
 70
192
 0
VERTEX
 8
78
 10
61.7902
 20
0
 30
-7.8157
 70
192
 0
VERTEX
 8
78
 10
78.4285
 20
0
 30
-13.0619
 70
192
 0
VERTEX
 8
78
 10
94.5463
 20
0
 30
-19.738
 70
192
 0
VERTEX
 8
78
 10
110.0218
 20
0
 30
-27.7936
 70
192
 0
VERTEX
 8
78
 10
124.7376
 20
0
 30
-37.1681
 70
192
 0
VERTEX
 8
78
 10
138.5821
 20
0
 30
-47.7911
 70
192
 0
VERTEX
 8
78
 10
151.4478
 20
0
 30
-59.5806
 70
192
 0
VERTEX
 8
78
 10
163.2353
 20
0
 30
-72.445
 70
192
 0
VERTEX
 8
78
 10
173.8558
 20
0
 30
-86.2865
 70
192
 0
VERTEX
 8
78
 10
183.2293
 20
0
 30
-101.0002
 70
192
 0
VERTEX
 8
78
 10
191.285
 20
0
 30
-116.4748
 70
192
 0
VERTEX
 8
78
 10
197.9618
 20
0
 30
-132.5931
 70
192
 0
VERTEX
 8
78
 10
203.2087
 20
0
 30
-149.2323
 70
192
 0
VERTEX
 8
78
 10
206.9861
 20
0
 30
-166.2704
 70
192
 0
VERTEX
 8
78
 10
10.0246
 20
-12.0001
 30
-1
 70
192
 0
VERTEX
 8
78
 10
10.0246
 20
-12.0001
 30
-1
 70
192
 0
VERTEX
 8
78
 10
206.9861
 20
-12.0001
 30
-166.2704
 70
192
 0
VERTEX
 8
78
 10
206.9861
 20
-12.0001
 30
-166.2704
 70
192
 0
VERTEX
 8
78
 10
206.9861
 20
-1
 30
-166.2704
 70
192
 0
VERTEX
 8
78
 10
206.9861
 20
-1
 30
-166.2704
 70
192
 0
VERTEX
 8
78
 10
0
 20
0
 30
0
 70
128
 71
1
 72
21
 73
43
 74
43
 0
VERTEX
 8
78
 10
0
 20
0
 30
0
 70
128
 71
41
 72
1
 73
43
 74
43
 0
VERTEX
 8
78
 10
0
 20
0
 30
0
 70
128
 71
3
 72
2
 73
40
 74
40
 0
VERTEX
 8
78
 10
0
 20
0
 30
0
 70
128
 71
4
 72
3
 73
36
 74
36
 0
VERTEX
 8
78
 10
0
 20
0
 30
0
 70
128
 71
36
 72
3
 73
37
 74
37
 0
VERTEX
 8
78
 10
0
 20
0
 30
0
 70
128
 71
37
 72
3
 73
42
 74
42
 0
VERTEX
 8
78
 10
0
 20
0
 30
0
 70
128
 71
3
 72
40
 73
42
 74
42
 0
VERTEX
 8
78
 10
0
 20
0
 30
0
 70
128
 71
5
 72
4
 73
35
 74
35
 0
VERTEX
 8
78
 10
0
 20
0
 30
0
 70
128
 71
35
 72
4
 73
36
 74
36
 0
VERTEX
 8
78
 10
0
 20
0
 30
0
 70
128
 71
6
 72
5
 73
34
 74
34
 0
VERTEX
 8
78
 10
0
 20
0
 30
0
 70
128
 71
34
 72
5
 73
35
 74
35
 0
VERTEX
 8
78
 10
0
 20
0
 30
0
 70
128
 71
7
 72
6
 73
33
 74
33
 0
VERTEX
 8
78
 10
0
 20
0
 30
0
 70
128
 71
33
 72
6
 73
34
 74
34
 0
VERTEX
 8
78
 10
0
 20
0
 30
0
 70
128
 71
8
 72
7
 73
32
 74
32
 0
VERTEX
 8
78
 10
0
 20
0
 30
0
 70
128
 71
32
 72
7
 73
33
 74
33
 0
VERTEX
 8
78
 10
0
 20
0
 30
0
 70
128
 71
9
 72
8
 73
31
 74
31
 0
VERTEX
 8
78
 10
0
 20
0
 30
0
 70
128
 71
31
 72
8
 73
32
 74
32
 0
VERTEX
 8
78
 10
0
 20
0
 30
0
 70
128
 71
10
 72
9
 73
30
 74
30
 0
VERTEX
 8
78
 10
0
 20
0
 30
0
 70
128
 71
30
 72
9
 73
31
 74
31
 0
VERTEX
 8
78
 10
0
 20
0
 30
0
 70
128
 71
11
 72
10
 73
29
 74
29
 0
VERTEX
 8
78
 10
0
 20
0
 30
0
 70
128
 71
29
 72
10
 73
30
 74
30
 0
VERTEX
 8
78
 10
0
 20
0
 30
0
 70
128
 71
12
 72
11
 73
28
 74
28
 0
VERTEX
 8
78
 10
0
 20
0
 30
0
 70
128
 71
28
 72
11
 73
29
 74
29
 0
VERTEX
 8
78
 10
0
 20
0
 30
0
 70
128
 71
13
 72
12
 73
27
 74
27
 0
VERTEX
 8
78
 10
0
 20
0
 30
0
 70
128
 71
27
 72
12
 73
28
 74
28
 0
VERTEX
 8
78
 10
0
 20
0
 30
0
 70
128
 71
14
 72
13
 73
26
 74
26
 0
VERTEX
 8
78
 10
0
 20
0
 30
0
 70
128
 71
26
 72
13
 73
27
 74
27
 0
VERTEX
 8
78
 10
0
 20
0
 30
0
 70
128
 71
15
 72
14
 73
25
 74
25
 0
VERTEX
 8
78
 10
0
 20
0
 30
0
 70
128
 71
25
 72
14
 73
26
 74
26
 0
VERTEX
 8
78
 10
0
 20
0
 30
0
 70
128
 71
16
 72
15
 73
24
 74
24
 0
VERTEX
 8
78
 10
0
 20
0
 30
0
 70
128
 71
24
 72
15
 73
25
 74
25
 0
VERTEX
 8
78
 10
0
 20
0
 30
0
 70
128
 71
17
 72
16
 73
23
 74
23
 0
VERTEX
 8
78
 10
0
 20
0
 30
0
 70
128
 71
23
 72
16
 73
24
 74
24
 0
VERTEX
 8
78
 10
0
 20
0
 30
0
 70
128
 71
19
 72
17
 73
22
 74
22
 0
VERTEX
 8
78
 10
0
 20
0
 30
0
 70
128
 71
22
 72
17
 73
23
 74
23
 0
VERTEX
 8
78
 10
0
 20
0
 30
0
 70
128
 71
20
 72
18
 73
38
 74
38
 0
VERTEX
 8
78
 10
0
 20
0
 30
0
 70
128
 71
19
 72
22
 73
39
 74
39
 0
SEQEND
 0
POLYLINE
 8
77
 66
1
 10
0.0
 20
0.0
 30
0.0
 70
64
 71
3
 72
1
 0
VERTEX
 8
77
 10
208.7269
 20
-23
 30
-176.1427
 70
192
 0
VERTEX
 8
77
 10
208.7269
 20
-1
 30
-176.1427
 70
192
 0
VERTEX
 8
77
 10
209.7117
 20
-43
 30
-175.969
 70
192
 0
VERTEX
 8
77
 10
0
 20
0
 30
0
 70
128
 71
2
 72
1
 73
3
 74
3
 0
SEQEND
 0
POLYLINE
 8
76
 66
1
 10
0.0
 20
0.0
 30
0.0
 70
64
 71
3
 72
1
 0
VERTEX
 8
76
 10
208.7269
 20
-23
 30
-176.1427
 70
192
 0
VERTEX
 8
76
 10
206.9861
 20
-23
 30
-166.2704
 70
192
 0
VERTEX
 8
76
 10
206.9861
 20
-12.0001
 30
-166.2704
 70
192
 0
VERTEX
 8
76
 10
0
 20
0
 30
0
 70
128
 71
2
 72
1
 73
3
 74
3
 0
SEQEND
 0
POLYLINE
 8
75
 66
1
 10
0.0
 20
0.0
 30
0.0
 70
64
 71
59
 72
47
 0
VERTEX
 8
75
 10
0
 20
-23
 30
-1
 70
192
 0
VERTEX
 8
75
 10
0
 20
-23
 30
-11
 70
192
 0
VERTEX
 8
75
 10
0
 20
-23
 30
-11
 70
192
 0
VERTEX
 8
75
 10
10.0246
 20
-23
 30
-11
 70
192
 0
VERTEX
 8
75
 10
10.0246
 20
-23
 30
-11
 70
192
 0
VERTEX
 8
75
 10
10.0246
 20
-23
 30
-11
 70
192
 0
VERTEX
 8
75
 10
26.5913
 20
-23
 30
-11.7237
 70
192
 0
VERTEX
 8
75
 10
26.5913
 20
-23
 30
-11.7237
 70
192
 0
VERTEX
 8
75
 10
43.0199
 20
-23
 30
-13.8874
 70
192
 0
VERTEX
 8
75
 10
59.1989
 20
-23
 30
-17.4743
 70
192
 0
VERTEX
 8
75
 10
75.0048
 20
-23
 30
-22.4574
 70
192
 0
VERTEX
 8
75
 10
90.3202
 20
-23
 30
-28.8007
 70
192
 0
VERTEX
 8
75
 10
105.0273
 20
-23
 30
-36.4569
 70
192
 0
VERTEX
 8
75
 10
119.0064
 20
-23
 30
-45.3633
 70
192
 0
VERTEX
 8
75
 10
132.1538
 20
-23
 30
-55.452
 70
192
 0
VERTEX
 8
75
 10
144.3723
 20
-23
 30
-66.6478
 70
192
 0
VERTEX
 8
75
 10
155.5709
 20
-23
 30
-78.868
 70
192
 0
VERTEX
 8
75
 10
165.6646
 20
-23
 30
-92.0221
 70
192
 0
VERTEX
 8
75
 10
174.571
 20
-23
 30
-106.0034
 70
192
 0
VERTEX
 8
75
 10
182.2231
 20
-23
 30
-120.7039
 70
192
 0
VERTEX
 8
75
 10
188.5649
 20
-23
 30
-136.0142
 70
192
 0
VERTEX
 8
75
 10
193.5486
 20
-23
 30
-151.8176
 70
192
 0
VERTEX
 8
75
 10
197.1381
 20
-23
 30
-168.0069
 70
192
 0
VERTEX
 8
75
 10
197.1381
 20
-23
 30
-168.0069
 70
192
 0
VERTEX
 8
75
 10
198.8788
 20
-23
 30
-177.8792
 70
192
 0
VERTEX
 8
75
 10
198.8788
 20
-23
 30
-177.8792
 70
192
 0
VERTEX
 8
75
 10
198.8788
 20
-23
 30
-177.8792
 70
192
 0
VERTEX
 8
75
 10
208.7269
 20
-23
 30
-176.1427
 70
192
 0
VERTEX
 8
75
 10
208.7269
 20
-23
 30
-176.1427
 70
192
 0
VERTEX
 8
75
 10
206.9861
 20
-23
 30
-166.2704
 70
192
 0
VERTEX
 8
75
 10
203.2087
 20
-23
 30
-149.2323
 70
192
 0
VERTEX
 8
75
 10
197.9618
 20
-23
 30
-132.5931
 70
192
 0
VERTEX
 8
75
 10
191.285
 20
-23
 30
-116.4748
 70
192
 0
VERTEX
 8
75
 10
183.2293
 20
-23
 30
-101.0002
 70
192
 0
VERTEX
 8
75
 10
173.8558
 20
-23
 30
-86.2865
 70
192
 0
VERTEX
 8
75
 10
163.2353
 20
-23
 30
-72.445
 70
192
 0
VERTEX
 8
75
 10
151.4478
 20
-23
 30
-59.5806
 70
192
 0
VERTEX
 8
75
 10
138.5821
 20
-23
 30
-47.7911
 70
192
 0
VERTEX
 8
75
 10
124.7376
 20
-23
 30
-37.1681
 70
192
 0
VERTEX
 8
75
 10
110.0218
 20
-23
 30
-27.7936
 70
192
 0
VERTEX
 8
75
 10
94.5463
 20
-23
 30
-19.738
 70
192
 0
VERTEX
 8
75
 10
78.4285
 20
-23
 30
-13.0619
 70
192
 0
VERTEX
 8
75
 10
61.7902
 20
-23
 30
-7.8157
 70
192
 0
VERTEX
 8
75
 10
44.7572
 20
-23
 30
-4.0392
 70
192
 0
VERTEX
 8
75
 10
27.4598
 20
-23
 30
-1.7614
 70
192
 0
VERTEX
 8
75
 10
10.0246
 20
-23
 30
-1
 70
192
 0
VERTEX
 8
75
 10
0
 20
-44
 30
-11
 70
192
 0
VERTEX
 8
75
 10
0
 20
-44
 30
-11
 70
192
 0
VERTEX
 8
75
 10
208.7269
 20
-44
 30
-176.1427
 70
192
 0
VERTEX
 8
75
 10
198.8788
 20
-44
 30
-177.8792
 70
192
 0
VERTEX
 8
75
 10
198.8788
 20
-44
 30
-177.8792
 70
192
 0
VERTEX
 8
75
 10
0
 20
-43
 30
-1
 70
192
 0
VERTEX
 8
75
 10
10.0246
 20
-38.5013
 30
-11
 70
192
 0
VERTEX
 8
75
 10
10.0246
 20
-38.5013
 30
-11
 70
192
 0
VERTEX
 8
75
 10
197.1381
 20
-38.5013
 30
-168.0069
 70
192
 0
VERTEX
 8
75
 10
208.7269
 20
-43
 30
-176.1427
 70
192
 0
VERTEX
 8
75
 10
0
 20
-1
 30
-1
 70
192
 0
VERTEX
 8
75
 10
0
 20
-1
 30
0
 70
192
 0
VERTEX
 8
75
 10
209.7117
 20
-43
 30
-175.969
 70
192
 0
VERTEX
 8
75
 10
0
 20
0
 30
0
 70
128
 71
47
 72
1
 73
52
 74
52
 0
VERTEX
 8
75
 10
0
 20
0
 30
0
 70
128
 71
52
 72
1
 73
58
 74
58
 0
VERTEX
 8
75
 10
0
 20
0
 30
0
 70
128
 71
1
 72
57
 73
58
 74
58
 0
VERTEX
 8
75
 10
0
 20
0
 30
0
 70
128
 71
2
 72
4
 73
46
 74
46
 0
VERTEX
 8
75
 10
0
 20
0
 30
0
 70
128
 71
6
 72
3
 73
54
 74
54
 0
VERTEX
 8
75
 10
0
 20
0
 30
0
 70
128
 71
3
 72
48
 73
54
 74
54
 0
VERTEX
 8
75
 10
0
 20
0
 30
0
 70
128
 71
4
 72
7
 73
45
 74
45
 0
VERTEX
 8
75
 10
0
 20
0
 30
0
 70
128
 71
8
 72
5
 73
53
 74
53
 0
VERTEX
 8
75
 10
0
 20
0
 30
0
 70
128
 71
4
 72
45
 73
46
 74
46
 0
VERTEX
 8
75
 10
0
 20
0
 30
0
 70
128
 71
7
 72
9
 73
45
 74
45
 0
VERTEX
 8
75
 10
0
 20
0
 30
0
 70
128
 71
9
 72
10
 73
44
 74
44
 0
VERTEX
 8
75
 10
0
 20
0
 30
0
 70
128
 71
9
 72
44
 73
45
 74
45
 0
VERTEX
 8
75
 10
0
 20
0
 30
0
 70
128
 71
10
 72
11
 73
43
 74
43
 0
VERTEX
 8
75
 10
0
 20
0
 30
0
 70
128
 71
10
 72
43
 73
44
 74
44
 0
VERTEX
 8
75
 10
0
 20
0
 30
0
 70
128
 71
11
 72
12
 73
42
 74
42
 0
VERTEX
 8
75
 10
0
 20
0
 30
0
 70
128
 71
11
 72
42
 73
43
 74
43
 0
VERTEX
 8
75
 10
0
 20
0
 30
0
 70
128
 71
12
 72
13
 73
41
 74
41
 0
VERTEX
 8
75
 10
0
 20
0
 30
0
 70
128
 71
12
 72
41
 73
42
 74
42
 0
VERTEX
 8
75
 10
0
 20
0
 30
0
 70
128
 71
13
 72
14
 73
40
 74
40
 0
VERTEX
 8
75
 10
0
 20
0
 30
0
 70
128
 71
13
 72
40
 73
41
 74
41
 0
VERTEX
 8
75
 10
0
 20
0
 30
0
 70
128
 71
14
 72
15
 73
39
 74
39
 0
VERTEX
 8
75
 10
0
 20
0
 30
0
 70
128
 71
14
 72
39
 73
40
 74
40
 0
VERTEX
 8
75
 10
0
 20
0
 30
0
 70
128
 71
15
 72
16
 73
38
 74
38
 0
VERTEX
 8
75
 10
0
 20
0
 30
0
 70
128
 71
15
 72
38
 73
39
 74
39
 0
VERTEX
 8
75
 10
0
 20
0
 30
0
 70
128
 71
16
 72
17
 73
37
 74
37
 0
VERTEX
 8
75
 10
0
 20
0
 30
0
 70
128
 71
16
 72
37
 73
38
 74
38
 0
VERTEX
 8
75
 10
0
 20
0
 30
0
 70
128
 71
17
 72
18
 73
36
 74
36
 0
VERTEX
 8
75
 10
0
 20
0
 30
0
 70
128
 71
17
 72
36
 73
37
 74
37
 0
VERTEX
 8
75
 10
0
 20
0
 30
0
 70
128
 71
18
 72
19
 73
35
 74
35
 0
VERTEX
 8
75
 10
0
 20
0
 30
0
 70
128
 71
18
 72
35
 73
36
 74
36
 0
VERTEX
 8
75
 10
0
 20
0
 30
0
 70
128
 71
19
 72
20
 73
34
 74
34
 0
VERTEX
 8
75
 10
0
 20
0
 30
0
 70
128
 71
19
 72
34
 73
35
 74
35
 0
VERTEX
 8
75
 10
0
 20
0
 30
0
 70
128
 71
20
 72
21
 73
34
 74
34
 0
VERTEX
 8
75
 10
0
 20
0
 30
0
 70
128
 71
21
 72
22
 73
33
 74
33
 0
VERTEX
 8
75
 10
0
 20
0
 30
0
 70
128
 71
21
 72
33
 73
34
 74
34
 0
VERTEX
 8
75
 10
0
 20
0
 30
0
 70
128
 71
22
 72
23
 73
32
 74
32
 0
VERTEX
 8
75
 10
0
 20
0
 30
0
 70
128
 71
22
 72
32
 73
33
 74
33
 0
VERTEX
 8
75
 10
0
 20
0
 30
0
 70
128
 71
23
 72
25
 73
32
 74
32
 0
VERTEX
 8
75
 10
0
 20
0
 30
0
 70
128
 71
26
 72
24
 73
50
 74
50
 0
VERTEX
 8
75
 10
0
 20
0
 30
0
 70
128
 71
50
 72
24
 73
55
 74
55
 0
VERTEX
 8
75
 10
0
 20
0
 30
0
 70
128
 71
25
 72
28
 73
30
 74
30
 0
VERTEX
 8
75
 10
0
 20
0
 30
0
 70
128
 71
29
 72
27
 73
59
 74
59
 0
VERTEX
 8
75
 10
0
 20
0
 30
0
 70
128
 71
25
 72
30
 73
31
 74
31
 0
VERTEX
 8
75
 10
0
 20
0
 30
0
 70
128
 71
25
 72
31
 73
32
 74
32
 0
VERTEX
 8
75
 10
0
 20
0
 30
0
 70
128
 71
49
 72
27
 73
51
 74
51
 0
VERTEX
 8
75
 10
0
 20
0
 30
0
 70
128
 71
27
 72
49
 73
56
 74
56
 0
VERTEX
 8
75
 10
0
 20
0
 30
0
 70
128
 71
27
 72
56
 73
59
 74
59
 0
SEQEND
 0
POLYLINE
 8
74
 66
1
 10
0.0
 20
0.0
 30
0.0
 70
64
 71
3
 72
1
 0
VERTEX
 8
74
 10
0
 20
-23
 30
-1
 70
192
 0
VERTEX
 8
74
 10
10.0246
 20
-23
 30
-1
 70
192
 0
VERTEX
 8
74
 10
0
 20
-1
 30
-1
 70
192
 0
VERTEX
 8
74
 10
0
 20
0
 30
0
 70
128
 71
1
 72
2
 73
3
 74
3
 0
SEQEND
 0
POLYLINE
 8
73
 66
1
 10
0.0
 20
0.0
 30
0.0
 70
64
 71
122
 72
96
 0
VERTEX
 8
73
 10
207.9709
 20
-53.5009
 30
-166.0967
 70
192
 0
VERTEX
 8
73
 10
207.9764
 20
-54
 30
-166.1207
 70
192
 0
VERTEX
 8
73
 10
207.9764
 20
-54
 30
-166.1207
 70
192
 0
VERTEX
 8
73
 10
207.9764
 20
-54
 30
-166.1207
 70
192
 0
VERTEX
 8
73
 10
204.1871
 20
-54
 30
-149.0192
 70
192
 0
VERTEX
 8
73
 10
198.9162
 20
-54
 30
-132.2919
 70
192
 0
VERTEX
 8
73
 10
192.2063
 20
-54
 30
-116.0844
 70
192
 0
VERTEX
 8
73
 10
184.1095
 20
-54
 30
-100.5249
 70
192
 0
VERTEX
 8
73
 10
174.6872
 20
-54
 30
-85.7304
 70
192
 0
VERTEX
 8
73
 10
164.0105
 20
-54
 30
-71.8131
 70
192
 0
VERTEX
 8
73
 10
152.1599
 20
-54
 30
-58.8785
 70
192
 0
VERTEX
 8
73
 10
139.2249
 20
-54
 30
-47.025
 70
192
 0
VERTEX
 8
73
 10
125.3053
 20
-54
 30
-36.3448
 70
192
 0
VERTEX
 8
73
 10
110.5094
 20
-54
 30
-26.9204
 70
192
 0
VERTEX
 8
73
 10
94.9496
 20
-54
 30
-18.8226
 70
192
 0
VERTEX
 8
73
 10
78.7437
 20
-54
 30
-12.1125
 70
192
 0
VERTEX
 8
73
 10
62.0146
 20
-54
 30
-6.8406
 70
192
 0
VERTEX
 8
73
 10
44.8881
 20
-54
 30
-3.0471
 70
192
 0
VERTEX
 8
73
 10
27.4997
 20
-54
 30
-0.7608
 70
192
 0
VERTEX
 8
73
 10
27.4997
 20
-54
 30
-0.7608
 70
192
 0
VERTEX
 8
73
 10
10
 20
-54
 30
0.0012
 70
192
 0
VERTEX
 8
73
 10
10
 20
-54
 30
0.0012
 70
192
 0
VERTEX
 8
73
 10
10
 20
-54
 30
0.0012
 70
192
 0
VERTEX
 8
73
 10
10
 20
-54
 30
0.0012
 70
192
 0
VERTEX
 8
73
 10
10.0246
 20
-53.5009
 30
0
 70
192
 0
VERTEX
 8
73
 10
10.0246
 20
-53.5009
 30
0
 70
192
 0
VERTEX
 8
73
 10
10
 20
-54
 30
-10.9987
 70
192
 0
VERTEX
 8
73
 10
10
 20
-54
 30
-10.9987
 70
192
 0
VERTEX
 8
73
 10
10
 20
-54
 30
-10.9987
 70
192
 0
VERTEX
 8
73
 10
10
 20
-54
 30
-10.9987
 70
192
 0
VERTEX
 8
73
 10
10
 20
-54
 30
-5.4988
 70
192
 0
VERTEX
 8
73
 10
10
 20
-54
 30
-5.4988
 70
192
 0
VERTEX
 8
73
 10
202.56
 20
-54
 30
-167.0758
 70
192
 0
VERTEX
 8
73
 10
202.56
 20
-54
 30
-167.0758
 70
192
 0
VERTEX
 8
73
 10
197.1436
 20
-54
 30
-168.0308
 70
192
 0
VERTEX
 8
73
 10
197.1436
 20
-54
 30
-168.0308
 70
192
 0
VERTEX
 8
73
 10
197.1436
 20
-54
 30
-168.0308
 70
192
 0
VERTEX
 8
73
 10
197.1436
 20
-54
 30
-168.0308
 70
192
 0
VERTEX
 8
73
 10
193.5624
 20
-54
 30
-151.8672
 70
192
 0
VERTEX
 8
73
 10
193.5624
 20
-54
 30
-151.8672
 70
192
 0
VERTEX
 8
73
 10
188.5816
 20
-54
 30
-136.0609
 70
192
 0
VERTEX
 8
73
 10
188.5816
 20
-54
 30
-136.0609
 70
192
 0
VERTEX
 8
73
 10
182.24
 20
-54
 30
-120.7401
 70
192
 0
VERTEX
 8
73
 10
182.24
 20
-54
 30
-120.7401
 70
192
 0
VERTEX
 8
73
 10
174.587
 20
-54
 30
-106.0311
 70
192
 0
VERTEX
 8
73
 10
174.587
 20
-54
 30
-106.0311
 70
192
 0
VERTEX
 8
73
 10
165.6784
 20
-54
 30
-92.0418
 70
192
 0
VERTEX
 8
73
 10
165.6784
 20
-54
 30
-92.0418
 70
192
 0
VERTEX
 8
73
 10
155.5812
 20
-54
 30
-78.8802
 70
192
 0
VERTEX
 8
73
 10
155.5812
 20
-54
 30
-78.8802
 70
192
 0
VERTEX
 8
73
 10
144.378
 20
-54
 30
-66.6535
 70
192
 0
VERTEX
 8
73
 10
144.378
 20
-54
 30
-66.6535
 70
192
 0
VERTEX
 8
73
 10
132.1539
 20
-54
 30
-55.452
 70
192
 0
VERTEX
 8
73
 10
132.1539
 20
-54
 30
-55.452
 70
192
 0
VERTEX
 8
73
 10
118.9999
 20
-54
 30
-45.3587
 70
192
 0
VERTEX
 8
73
 10
118.9999
 20
-54
 30
-45.3587
 70
192
 0
VERTEX
 8
73
 10
105.0135
 20
-54
 30
-36.4489
 70
192
 0
VERTEX
 8
73
 10
105.0135
 20
-54
 30
-36.4489
 70
192
 0
VERTEX
 8
73
 10
90.2985
 20
-54
 30
-28.7906
 70
192
 0
VERTEX
 8
73
 10
90.2985
 20
-54
 30
-28.7906
 70
192
 0
VERTEX
 8
73
 10
74.9748
 20
-54
 30
-22.4465
 70
192
 0
VERTEX
 8
73
 10
74.9748
 20
-54
 30
-22.4465
 70
192
 0
VERTEX
 8
73
 10
59.1603
 20
-54
 30
-17.464
 70
192
 0
VERTEX
 8
73
 10
59.1603
 20
-54
 30
-17.464
 70
192
 0
VERTEX
 8
73
 10
42.971
 20
-54
 30
-13.8792
 70
192
 0
VERTEX
 8
73
 10
42.971
 20
-54
 30
-13.8792
 70
192
 0
VERTEX
 8
73
 10
26.5399
 20
-54
 30
-11.7187
 70
192
 0
VERTEX
 8
73
 10
26.5399
 20
-54
 30
-11.7187
 70
192
 0
VERTEX
 8
73
 10
208.7321
 20
-53
 30
-170.4136
 70
192
 0
VERTEX
 8
73
 10
208.7321
 20
-53
 30
-170.4136
 70
192
 0
VERTEX
 8
73
 10
208.3611
 20
-53.7497
 30
-168.3094
 70
192
 0
VERTEX
 8
73
 10
208.3611
 20
-53.7497
 30
-168.3094
 70
192
 0
VERTEX
 8
73
 10
7.7778
 20
-53.7497
 30
0
 70
192
 0
VERTEX
 8
73
 10
7.7778
 20
-53.7497
 30
0
 70
192
 0
VERTEX
 8
73
 10
5.6411
 20
-53
 30
0
 70
192
 0
VERTEX
 8
73
 10
5.6411
 20
-53
 30
0
 70
192
 0
VERTEX
 8
73
 10
206.9904
 20
-53
 30
-166.2946
 70
192
 0
VERTEX
 8
73
 10
206.9904
 20
-53
 30
-166.2946
 70
192
 0
VERTEX
 8
73
 10
207.7473
 20
-53
 30
-170.5872
 70
192
 0
VERTEX
 8
73
 10
207.7473
 20
-53
 30
-170.5872
 70
192
 0
VERTEX
 8
73
 10
207.7473
 20
-53
 30
-170.5872
 70
192
 0
VERTEX
 8
73
 10
0
 20
-23
 30
-1
 70
192
 0
VERTEX
 8
73
 10
0
 20
-23
 30
-1
 70
192
 0
VERTEX
 8
73
 10
0
 20
-23
 30
-11
 70
192
 0
VERTEX
 8
73
 10
0
 20
-23
 30
-11
 70
192
 0
VERTEX
 8
73
 10
26.5913
 20
-23
 30
-11.7237
 70
192
 0
VERTEX
 8
73
 10
43.0199
 20
-23
 30
-13.8874
 70
192
 0
VERTEX
 8
73
 10
59.1989
 20
-23
 30
-17.4743
 70
192
 0
VERTEX
 8
73
 10
75.0048
 20
-23
 30
-22.4574
 70
192
 0
VERTEX
 8
73
 10
90.3202
 20
-23
 30
-28.8007
 70
192
 0
VERTEX
 8
73
 10
105.0273
 20
-23
 30
-36.4569
 70
192
 0
VERTEX
 8
73
 10
119.0064
 20
-23
 30
-45.3633
 70
192
 0
VERTEX
 8
73
 10
132.1538
 20
-23
 30
-55.452
 70
192
 0
VERTEX
 8
73
 10
144.3723
 20
-23
 30
-66.6478
 70
192
 0
VERTEX
 8
73
 10
155.5709
 20
-23
 30
-78.868
 70
192
 0
VERTEX
 8
73
 10
165.6646
 20
-23
 30
-92.0221
 70
192
 0
VERTEX
 8
73
 10
174.571
 20
-23
 30
-106.0034
 70
192
 0
VERTEX
 8
73
 10
182.2231
 20
-23
 30
-120.7039
 70
192
 0
VERTEX
 8
73
 10
188.5649
 20
-23
 30
-136.0142
 70
192
 0
VERTEX
 8
73
 10
193.5486
 20
-23
 30
-151.8176
 70
192
 0
VERTEX
 8
73
 10
197.1381
 20
-23
 30
-168.0069
 70
192
 0
VERTEX
 8
73
 10
10.0246
 20
-23
 30
-1
 70
192
 0
VERTEX
 8
73
 10
7.4522
 20
-53.6693
 30
-11
 70
192
 0
VERTEX
 8
73
 10
7.4522
 20
-53.6693
 30
-11
 70
192
 0
VERTEX
 8
73
 10
5.0284
 20
-52.676
 30
-11
 70
192
 0
VERTEX
 8
73
 10
2.9459
 20
-51.0871
 30
-11
 70
192
 0
VERTEX
 8
73
 10
1.3473
 20
-49.0121
 30
-11
 70
192
 0
VERTEX
 8
73
 10
0.3425
 20
-46.594
 30
-11
 70
192
 0
VERTEX
 8
73
 10
0
 20
-44
 30
-11
 70
192
 0
VERTEX
 8
73
 10
0
 20
-44
 30
-11
 70
192
 0
VERTEX
 8
73
 10
5.6411
 20
-53
 30
-1
 70
192
 0
VERTEX
 8
73
 10
208.1494
 20
-51.4462
 30
-172.8676
 70
192
 0
VERTEX
 8
73
 10
208.1494
 20
-51.4462
 30
-172.8676
 70
192
 0
VERTEX
 8
73
 10
198.0056
 20
-52.676
 30
-172.9271
 70
192
 0
VERTEX
 8
73
 10
197.5848
 20
-53.6693
 30
-170.5401
 70
192
 0
VERTEX
 8
73
 10
197.5848
 20
-53.6693
 30
-170.5401
 70
192
 0
VERTEX
 8
73
 10
10.0246
 20
-38.5013
 30
-11
 70
192
 0
VERTEX
 8
73
 10
10.0246
 20
-38.5013
 30
-11
 70
192
 0
VERTEX
 8
73
 10
197.1381
 20
-38.5013
 30
-168.0069
 70
192
 0
VERTEX
 8
73
 10
197.1381
 20
-38.5013
 30
-168.0069
 70
192
 0
VERTEX
 8
73
 10
207.4395
 20
-52.6595
 30
-168.8417
 70
192
 0
VERTEX
 8
73
 10
207.8584
 20
-51.6606
 30
-171.2172
 70
192
 0
VERTEX
 8
73
 10
0
 20
0
 30
0
 70
128
 71
3
 72
1
 73
71
 74
71
 0
VERTEX
 8
73
 10
0
 20
0
 30
0
 70
128
 71
5
 72
2
 73
33
 74
33
 0
VERTEX
 8
73
 10
0
 20
0
 30
0
 70
128
 71
34
 72
4
 73
115
 74
115
 0
VERTEX
 8
73
 10
0
 20
0
 30
0
 70
128
 71
4
 72
72
 73
115
 74
115
 0
VERTEX
 8
73
 10
0
 20
0
 30
0
 70
128
 71
6
 72
5
 73
33
 74
33
 0
VERTEX
 8
73
 10
0
 20
0
 30
0
 70
128
 71
7
 72
6
 73
35
 74
35
 0
VERTEX
 8
73
 10
0
 20
0
 30
0
 70
128
 71
6
 72
33
 73
35
 74
35
 0
VERTEX
 8
73
 10
0
 20
0
 30
0
 70
128
 71
8
 72
7
 73
41
 74
41
 0
VERTEX
 8
73
 10
0
 20
0
 30
0
 70
128
 71
7
 72
35
 73
39
 74
39
 0
VERTEX
 8
73
 10
0
 20
0
 30
0
 70
128
 71
7
 72
39
 73
41
 74
41
 0
VERTEX
 8
73
 10
0
 20
0
 30
0
 70
128
 71
9
 72
8
 73
43
 74
43
 0
VERTEX
 8
73
 10
0
 20
0
 30
0
 70
128
 71
8
 72
41
 73
43
 74
43
 0
VERTEX
 8
73
 10
0
 20
0
 30
0
 70
128
 71
10
 72
9
 73
45
 74
45
 0
VERTEX
 8
73
 10
0
 20
0
 30
0
 70
128
 71
9
 72
43
 73
45
 74
45
 0
VERTEX
 8
73
 10
0
 20
0
 30
0
 70
128
 71
11
 72
10
 73
49
 74
49
 0
VERTEX
 8
73
 10
0
 20
0
 30
0
 70
128
 71
10
 72
45
 73
47
 74
47
 0
VERTEX
 8
73
 10
0
 20
0
 30
0
 70
128
 71
10
 72
47
 73
49
 74
49
 0
VERTEX
 8
73
 10
0
 20
0
 30
0
 70
128
 71
12
 72
11
 73
51
 74
51
 0
VERTEX
 8
73
 10
0
 20
0
 30
0
 70
128
 71
11
 72
49
 73
51
 74
51
 0
VERTEX
 8
73
 10
0
 20
0
 30
0
 70
128
 71
13
 72
12
 73
53
 74
53
 0
VERTEX
 8
73
 10
0
 20
0
 30
0
 70
128
 71
12
 72
51
 73
53
 74
53
 0
VERTEX
 8
73
 10
0
 20
0
 30
0
 70
128
 71
14
 72
13
 73
55
 74
55
 0
VERTEX
 8
73
 10
0
 20
0
 30
0
 70
128
 71
13
 72
53
 73
55
 74
55
 0
VERTEX
 8
73
 10
0
 20
0
 30
0
 70
128
 71
15
 72
14
 73
57
 74
57
 0
VERTEX
 8
73
 10
0
 20
0
 30
0
 70
128
 71
14
 72
55
 73
57
 74
57
 0
VERTEX
 8
73
 10
0
 20
0
 30
0
 70
128
 71
16
 72
15
 73
59
 74
59
 0
VERTEX
 8
73
 10
0
 20
0
 30
0
 70
128
 71
15
 72
57
 73
59
 74
59
 0
VERTEX
 8
73
 10
0
 20
0
 30
0
 70
128
 71
17
 72
16
 73
61
 74
61
 0
VERTEX
 8
73
 10
0
 20
0
 30
0
 70
128
 71
16
 72
59
 73
61
 74
61
 0
VERTEX
 8
73
 10
0
 20
0
 30
0
 70
128
 71
18
 72
17
 73
63
 74
63
 0
VERTEX
 8
73
 10
0
 20
0
 30
0
 70
128
 71
17
 72
61
 73
63
 74
63
 0
VERTEX
 8
73
 10
0
 20
0
 30
0
 70
128
 71
20
 72
18
 73
65
 74
65
 0
VERTEX
 8
73
 10
0
 20
0
 30
0
 70
128
 71
18
 72
63
 73
65
 74
65
 0
VERTEX
 8
73
 10
0
 20
0
 30
0
 70
128
 71
19
 72
21
 73
25
 74
25
 0
VERTEX
 8
73
 10
0
 20
0
 30
0
 70
128
 71
22
 72
20
 73
67
 74
67
 0
VERTEX
 8
73
 10
0
 20
0
 30
0
 70
128
 71
20
 72
65
 73
67
 74
67
 0
VERTEX
 8
73
 10
0
 20
0
 30
0
 70
128
 71
26
 72
23
 73
75
 74
75
 0
VERTEX
 8
73
 10
0
 20
0
 30
0
 70
128
 71
31
 72
22
 73
67
 74
67
 0
VERTEX
 8
73
 10
0
 20
0
 30
0
 70
128
 71
24
 72
32
 73
74
 74
74
 0
VERTEX
 8
73
 10
0
 20
0
 30
0
 70
128
 71
23
 72
73
 73
75
 74
75
 0
VERTEX
 8
73
 10
0
 20
0
 30
0
 70
128
 71
27
 72
31
 73
67
 74
67
 0
VERTEX
 8
73
 10
0
 20
0
 30
0
 70
128
 71
32
 72
28
 73
74
 74
74
 0
VERTEX
 8
73
 10
0
 20
0
 30
0
 70
128
 71
29
 72
68
 73
86
 74
86
 0
VERTEX
 8
73
 10
0
 20
0
 30
0
 70
128
 71
74
 72
28
 73
103
 74
103
 0
VERTEX
 8
73
 10
0
 20
0
 30
0
 70
128
 71
29
 72
86
 73
117
 74
117
 0
VERTEX
 8
73
 10
0
 20
0
 30
0
 70
128
 71
104
 72
30
 73
105
 74
105
 0
VERTEX
 8
73
 10
0
 20
0
 30
0
 70
128
 71
105
 72
30
 73
106
 74
106
 0
VERTEX
 8
73
 10
0
 20
0
 30
0
 70
128
 71
106
 72
30
 73
107
 74
107
 0
VERTEX
 8
73
 10
0
 20
0
 30
0
 70
128
 71
107
 72
30
 73
108
 74
108
 0
VERTEX
 8
73
 10
0
 20
0
 30
0
 70
128
 71
108
 72
30
 73
110
 74
110
 0
VERTEX
 8
73
 10
0
 20
0
 30
0
 70
128
 71
110
 72
30
 73
118
 74
118
 0
VERTEX
 8
73
 10
0
 20
0
 30
0
 70
128
 71
36
 72
34
 73
115
 74
115
 0
VERTEX
 8
73
 10
0
 20
0
 30
0
 70
128
 71
40
 72
37
 73
119
 74
119
 0
VERTEX
 8
73
 10
0
 20
0
 30
0
 70
128
 71
38
 72
116
 73
120
 74
120
 0
VERTEX
 8
73
 10
0
 20
0
 30
0
 70
128
 71
42
 72
40
 73
100
 74
100
 0
VERTEX
 8
73
 10
0
 20
0
 30
0
 70
128
 71
100
 72
40
 73
101
 74
101
 0
VERTEX
 8
73
 10
0
 20
0
 30
0
 70
128
 71
101
 72
40
 73
119
 74
119
 0
VERTEX
 8
73
 10
0
 20
0
 30
0
 70
128
 71
44
 72
42
 73
99
 74
99
 0
VERTEX
 8
73
 10
0
 20
0
 30
0
 70
128
 71
99
 72
42
 73
100
 74
100
 0
VERTEX
 8
73
 10
0
 20
0
 30
0
 70
128
 71
46
 72
44
 73
98
 74
98
 0
VERTEX
 8
73
 10
0
 20
0
 30
0
 70
128
 71
98
 72
44
 73
99
 74
99
 0
VERTEX
 8
73
 10
0
 20
0
 30
0
 70
128
 71
48
 72
46
 73
97
 74
97
 0
VERTEX
 8
73
 10
0
 20
0
 30
0
 70
128
 71
97
 72
46
 73
98
 74
98
 0
VERTEX
 8
73
 10
0
 20
0
 30
0
 70
128
 71
50
 72
48
 73
96
 74
96
 0
VERTEX
 8
73
 10
0
 20
0
 30
0
 70
128
 71
96
 72
48
 73
97
 74
97
 0
VERTEX
 8
73
 10
0
 20
0
 30
0
 70
128
 71
52
 72
50
 73
95
 74
95
 0
VERTEX
 8
73
 10
0
 20
0
 30
0
 70
128
 71
95
 72
50
 73
96
 74
96
 0
VERTEX
 8
73
 10
0
 20
0
 30
0
 70
128
 71
54
 72
52
 73
94
 74
94
 0
VERTEX
 8
73
 10
0
 20
0
 30
0
 70
128
 71
94
 72
52
 73
95
 74
95
 0
VERTEX
 8
73
 10
0
 20
0
 30
0
 70
128
 71
56
 72
54
 73
93
 74
93
 0
VERTEX
 8
73
 10
0
 20
0
 30
0
 70
128
 71
93
 72
54
 73
94
 74
94
 0
VERTEX
 8
73
 10
0
 20
0
 30
0
 70
128
 71
58
 72
56
 73
91
 74
91
 0
VERTEX
 8
73
 10
0
 20
0
 30
0
 70
128
 71
91
 72
56
 73
92
 74
92
 0
VERTEX
 8
73
 10
0
 20
0
 30
0
 70
128
 71
92
 72
56
 73
93
 74
93
 0
VERTEX
 8
73
 10
0
 20
0
 30
0
 70
128
 71
60
 72
58
 73
90
 74
90
 0
VERTEX
 8
73
 10
0
 20
0
 30
0
 70
128
 71
90
 72
58
 73
91
 74
91
 0
VERTEX
 8
73
 10
0
 20
0
 30
0
 70
128
 71
62
 72
60
 73
89
 74
89
 0
VERTEX
 8
73
 10
0
 20
0
 30
0
 70
128
 71
89
 72
60
 73
90
 74
90
 0
VERTEX
 8
73
 10
0
 20
0
 30
0
 70
128
 71
64
 72
62
 73
88
 74
88
 0
VERTEX
 8
73
 10
0
 20
0
 30
0
 70
128
 71
88
 72
62
 73
89
 74
89
 0
VERTEX
 8
73
 10
0
 20
0
 30
0
 70
128
 71
66
 72
64
 73
87
 74
87
 0
VERTEX
 8
73
 10
0
 20
0
 30
0
 70
128
 71
87
 72
64
 73
88
 74
88
 0
VERTEX
 8
73
 10
0
 20
0
 30
0
 70
128
 71
68
 72
66
 73
86
 74
86
 0
VERTEX
 8
73
 10
0
 20
0
 30
0
 70
128
 71
86
 72
66
 73
87
 74
87
 0
VERTEX
 8
73
 10
0
 20
0
 30
0
 70
128
 71
72
 72
70
 73
80
 74
80
 0
VERTEX
 8
73
 10
0
 20
0
 30
0
 70
128
 71
69
 72
77
 73
79
 74
79
 0
VERTEX
 8
73
 10
0
 20
0
 30
0
 70
128
 71
72
 72
80
 73
115
 74
115
 0
VERTEX
 8
73
 10
0
 20
0
 30
0
 70
128
 71
76
 72
74
 73
103
 74
103
 0
VERTEX
 8
73
 10
0
 20
0
 30
0
 70
128
 71
76
 72
103
 73
111
 74
111
 0
VERTEX
 8
73
 10
0
 20
0
 30
0
 70
128
 71
81
 72
78
 73
121
 74
121
 0
VERTEX
 8
73
 10
0
 20
0
 30
0
 70
128
 71
80
 72
112
 73
114
 74
114
 0
VERTEX
 8
73
 10
0
 20
0
 30
0
 70
128
 71
113
 72
81
 73
122
 74
122
 0
VERTEX
 8
73
 10
0
 20
0
 30
0
 70
128
 71
80
 72
114
 73
115
 74
115
 0
VERTEX
 8
73
 10
0
 20
0
 30
0
 70
128
 71
81
 72
121
 73
122
 74
122
 0
VERTEX
 8
73
 10
0
 20
0
 30
0
 70
128
 71
82
 72
84
 73
102
 74
102
 0
VERTEX
 8
73
 10
0
 20
0
 30
0
 70
128
 71
85
 72
83
 73
109
 74
109
 0
SEQEND
 0
POLYLINE
 8
72
 66
1
 10
0.0
 20
0.0
 30
0.0
 70
64
 71
11
 72
7
 0
VERTEX
 8
72
 10
207.9709
 20
-53
 30
-166.0967
 70
192
 0
VERTEX
 8
72
 10
207.9709
 20
-53
 30
-166.0967
 70
192
 0
VERTEX
 8
72
 10
206.9904
 20
-53
 30
-166.2946
 70
192
 0
VERTEX
 8
72
 10
207.4395
 20
-52.6595
 30
-168.8417
 70
192
 0
VERTEX
 8
72
 10
209.7117
 20
-43
 30
-175.969
 70
192
 0
VERTEX
 8
72
 10
209.6524
 20
-45.5901
 30
-175.6328
 70
192
 0
VERTEX
 8
72
 10
209.4785
 20
-48.005
 30
-174.6462
 70
192
 0
VERTEX
 8
72
 10
209.2017
 20
-50.0785
 30
-173.0764
 70
192
 0
VERTEX
 8
72
 10
208.841
 20
-51.668
 30
-171.0309
 70
192
 0
VERTEX
 8
72
 10
208.4213
 20
-52.6641
 30
-168.6506
 70
192
 0
VERTEX
 8
72
 10
208.4213
 20
-52.6641
 30
-168.6506
 70
192
 0
VERTEX
 8
72
 10
0
 20
0
 30
0
 70
128
 71
3
 72
2
 73
4
 74
4
 0
VERTEX
 8
72
 10
0
 20
0
 30
0
 70
128
 71
4
 72
2
 73
11
 74
11
 0
VERTEX
 8
72
 10
0
 20
0
 30
0
 70
128
 71
1
 72
5
 73
6
 74
6
 0
VERTEX
 8
72
 10
0
 20
0
 30
0
 70
128
 71
1
 72
6
 73
7
 74
7
 0
VERTEX
 8
72
 10
0
 20
0
 30
0
 70
128
 71
1
 72
7
 73
8
 74
8
 0
VERTEX
 8
72
 10
0
 20
0
 30
0
 70
128
 71
1
 72
8
 73
9
 74
9
 0
VERTEX
 8
72
 10
0
 20
0
 30
0
 70
128
 71
1
 72
9
 73
10
 74
10
 0
SEQEND
 0
POLYLINE
 8
71
 66
1
 10
0.0
 20
0.0
 30
0.0
 70
64
 71
7
 72
3
 0
VERTEX
 8
71
 10
207.9709
 20
-53
 30
-166.0967
 70
192
 0
VERTEX
 8
71
 10
207.9709
 20
-53
 30
-166.0967
 70
192
 0
VERTEX
 8
71
 10
207.9709
 20
-53.5009
 30
-166.0967
 70
192
 0
VERTEX
 8
71
 10
208.7321
 20
-53
 30
-170.4136
 70
192
 0
VERTEX
 8
71
 10
208.7321
 20
-53
 30
-170.4136
 70
192
 0
VERTEX
 8
71
 10
208.3611
 20
-53.7497
 30
-168.3094
 70
192
 0
VERTEX
 8
71
 10
206.9904
 20
-53
 30
-166.2946
 70
192
 0
VERTEX
 8
71
 10
0
 20
0
 30
0
 70
128
 71
3
 72
1
 73
6
 74
6
 0
VERTEX
 8
71
 10
0
 20
0
 30
0
 70
128
 71
1
 72
4
 73
6
 74
6
 0
VERTEX
 8
71
 10
0
 20
0
 30
0
 70
128
 71
5
 72
2
 73
7
 74
7
 0
SEQEND
 0
POLYLINE
 8
70
 66
1
 10
0.0
 20
0.0
 30
0.0
 70
64
 71
18
 72
10
 0
VERTEX
 8
70
 10
204.1879
 20
0
 30
-149.022
 70
192
 0
VERTEX
 8
70
 10
207.9762
 20
0
 30
-166.1198
 70
192
 0
VERTEX
 8
70
 10
207.9709
 20
-1
 30
-166.0967
 70
192
 0
VERTEX
 8
70
 10
207.9709
 20
-1
 30
-166.0967
 70
192
 0
VERTEX
 8
70
 10
207.9709
 20
-1
 30
-166.0967
 70
192
 0
VERTEX
 8
70
 10
207.9709
 20
-27.0013
 30
-166.0967
 70
192
 0
VERTEX
 8
70
 10
207.9709
 20
-53
 30
-166.0967
 70
192
 0
VERTEX
 8
70
 10
209.7117
 20
-43
 30
-175.969
 70
192
 0
VERTEX
 8
70
 10
209.7117
 20
-1
 30
-175.969
 70
192
 0
VERTEX
 8
70
 10
209.7117
 20
-1
 30
-175.969
 70
192
 0
VERTEX
 8
70
 10
209.5619
 20
-0.2356
 30
-175.9954
 70
192
 0
VERTEX
 8
70
 10
203.2087
 20
0
 30
-149.2323
 70
192
 0
VERTEX
 8
70
 10
206.9861
 20
0
 30
-166.2704
 70
192
 0
VERTEX
 8
70
 10
207.7325
 20
0
 30
-166.1294
 70
192
 0
VERTEX
 8
70
 10
207.8382
 20
0
 30
-166.1201
 70
192
 0
VERTEX
 8
70
 10
207.8382
 20
0
 30
-166.1201
 70
192
 0
VERTEX
 8
70
 10
207.9038
 20
-0.4824
 30
-166.1086
 70
192
 0
VERTEX
 8
70
 10
207.9038
 20
-0.4824
 30
-166.1086
 70
192
 0
VERTEX
 8
70
 10
0
 20
0
 30
0
 70
128
 71
1
 72
12
 73
13
 74
13
 0
VERTEX
 8
70
 10
0
 20
0
 30
0
 70
128
 71
1
 72
13
 73
14
 74
14
 0
VERTEX
 8
70
 10
0
 20
0
 30
0
 70
128
 71
1
 72
14
 73
15
 74
15
 0
VERTEX
 8
70
 10
0
 20
0
 30
0
 70
128
 71
3
 72
2
 73
17
 74
17
 0
VERTEX
 8
70
 10
0
 20
0
 30
0
 70
128
 71
2
 72
16
 73
17
 74
17
 0
VERTEX
 8
70
 10
0
 20
0
 30
0
 70
128
 71
6
 72
4
 73
9
 74
9
 0
VERTEX
 8
70
 10
0
 20
0
 30
0
 70
128
 71
10
 72
5
 73
11
 74
11
 0
VERTEX
 8
70
 10
0
 20
0
 30
0
 70
128
 71
11
 72
5
 73
18
 74
18
 0
VERTEX
 8
70
 10
0
 20
0
 30
0
 70
128
 71
7
 72
6
 73
8
 74
8
 0
VERTEX
 8
70
 10
0
 20
0
 30
0
 70
128
 71
8
 72
6
 73
9
 74
9
 0
SEQEND
 0
POLYLINE
 8
69
 66
1
 10
0.0
 20
0.0
 30
0.0
 70
64
 71
7
 72
5
 0
VERTEX
 8
69
 10
204.1879
 20
0
 30
-149.022
 70
192
 0
VERTEX
 8
69
 10
207.9709
 20
-1
 30
-166.0967
 70
192
 0
VERTEX
 8
69
 10
207.9709
 20
-27.0013
 30
-166.0967
 70
192
 0
VERTEX
 8
69
 10
207.9709
 20
-53
 30
-166.0967
 70
192
 0
VERTEX
 8
69
 10
207.9709
 20
-53.5009
 30
-166.0967
 70
192
 0
VERTEX
 8
69
 10
207.9764
 20
-54
 30
-166.1207
 70
192
 0
VERTEX
 8
69
 10
204.1871
 20
-54
 30
-149.0192
 70
192
 0
VERTEX
 8
69
 10
0
 20
0
 30
0
 70
128
 71
1
 72
2
 73
3
 74
3
 0
VERTEX
 8
69
 10
0
 20
0
 30
0
 70
128
 71
1
 72
3
 73
4
 74
4
 0
VERTEX
 8
69
 10
0
 20
0
 30
0
 70
128
 71
1
 72
4
 73
5
 74
5
 0
VERTEX
 8
69
 10
0
 20
0
 30
0
 70
128
 71
1
 72
5
 73
6
 74
6
 0
VERTEX
 8
69
 10
0
 20
0
 30
0
 70
128
 71
1
 72
6
 73
7
 74
7
 0
SEQEND
 0
POLYLINE
 8
68
 66
1
 10
0.0
 20
0.0
 30
0.0
 70
64
 71
3
 72
1
 0
VERTEX
 8
68
 10
204.1879
 20
0
 30
-149.022
 70
192
 0
VERTEX
 8
68
 10
207.9762
 20
0
 30
-166.1198
 70
192
 0
VERTEX
 8
68
 10
207.8382
 20
0
 30
-166.1201
 70
192
 0
VERTEX
 8
68
 10
0
 20
0
 30
0
 70
128
 71
2
 72
1
 73
3
 74
3
 0
SEQEND
 0
POLYLINE
 8
67
 66
1
 10
0.0
 20
0.0
 30
0.0
 70
64
 71
3
 72
1
 0
VERTEX
 8
67
 10
204.1879
 20
0
 30
-149.022
 70
192
 0
VERTEX
 8
67
 10
207.9762
 20
0
 30
-166.1198
 70
192
 0
VERTEX
 8
67
 10
207.9709
 20
-1
 30
-166.0967
 70
192
 0
VERTEX
 8
67
 10
0
 20
0
 30
0
 70
128
 71
1
 72
2
 73
3
 74
3
 0
SEQEND
 0
POLYLINE
 8
66
 66
1
 10
0.0
 20
0.0
 30
0.0
 70
64
 71
3
 72
1
 0
VERTEX
 8
66
 10
198.9184
 20
0
 30
-132.2981
 70
192
 0
VERTEX
 8
66
 10
197.9618
 20
0
 30
-132.5931
 70
192
 0
VERTEX
 8
66
 10
203.2087
 20
0
 30
-149.2323
 70
192
 0
VERTEX
 8
66
 10
0
 20
0
 30
0
 70
128
 71
1
 72
2
 73
3
 74
3
 0
SEQEND
 0
POLYLINE
 8
65
 66
1
 10
0.0
 20
0.0
 30
0.0
 70
64
 71
3
 72
1
 0
VERTEX
 8
65
 10
198.9184
 20
0
 30
-132.2981
 70
192
 0
VERTEX
 8
65
 10
204.1871
 20
-54
 30
-149.0192
 70
192
 0
VERTEX
 8
65
 10
198.9162
 20
-54
 30
-132.2919
 70
192
 0
VERTEX
 8
65
 10
0
 20
0
 30
0
 70
128
 71
1
 72
2
 73
3
 74
3
 0
SEQEND
 0
POLYLINE
 8
64
 66
1
 10
0.0
 20
0.0
 30
0.0
 70
64
 71
3
 72
1
 0
VERTEX
 8
64
 10
198.9184
 20
0
 30
-132.2981
 70
192
 0
VERTEX
 8
64
 10
204.1879
 20
0
 30
-149.022
 70
192
 0
VERTEX
 8
64
 10
203.2087
 20
0
 30
-149.2323
 70
192
 0
VERTEX
 8
64
 10
0
 20
0
 30
0
 70
128
 71
2
 72
1
 73
3
 74
3
 0
SEQEND
 0
POLYLINE
 8
63
 66
1
 10
0.0
 20
0.0
 30
0.0
 70
64
 71
3
 72
1
 0
VERTEX
 8
63
 10
198.9184
 20
0
 30
-132.2981
 70
192
 0
VERTEX
 8
63
 10
204.1879
 20
0
 30
-149.022
 70
192
 0
VERTEX
 8
63
 10
204.1871
 20
-54
 30
-149.0192
 70
192
 0
VERTEX
 8
63
 10
0
 20
0
 30
0
 70
128
 71
1
 72
2
 73
3
 74
3
 0
SEQEND
 0
POLYLINE
 8
62
 66
1
 10
0.0
 20
0.0
 30
0.0
 70
64
 71
3
 72
1
 0
VERTEX
 8
62
 10
192.2106
 20
0
 30
-116.0935
 70
192
 0
VERTEX
 8
62
 10
191.285
 20
0
 30
-116.4748
 70
192
 0
VERTEX
 8
62
 10
197.9618
 20
0
 30
-132.5931
 70
192
 0
VERTEX
 8
62
 10
0
 20
0
 30
0
 70
128
 71
1
 72
2
 73
3
 74
3
 0
SEQEND
 0
POLYLINE
 8
61
 66
1
 10
0.0
 20
0.0
 30
0.0
 70
64
 71
3
 72
1
 0
VERTEX
 8
61
 10
192.2106
 20
0
 30
-116.0935
 70
192
 0
VERTEX
 8
61
 10
198.9162
 20
-54
 30
-132.2919
 70
192
 0
VERTEX
 8
61
 10
192.2063
 20
-54
 30
-116.0844
 70
192
 0
VERTEX
 8
61
 10
0
 20
0
 30
0
 70
128
 71
1
 72
2
 73
3
 74
3
 0
SEQEND
 0
POLYLINE
 8
60
 66
1
 10
0.0
 20
0.0
 30
0.0
 70
64
 71
3
 72
1
 0
VERTEX
 8
60
 10
192.2106
 20
0
 30
-116.0935
 70
192
 0
VERTEX
 8
60
 10
198.9184
 20
0
 30
-132.2981
 70
192
 0
VERTEX
 8
60
 10
197.9618
 20
0
 30
-132.5931
 70
192
 0
VERTEX
 8
60
 10
0
 20
0
 30
0
 70
128
 71
2
 72
1
 73
3
 74
3
 0
SEQEND
 0
POLYLINE
 8
59
 66
1
 10
0.0
 20
0.0
 30
0.0
 70
64
 71
3
 72
1
 0
VERTEX
 8
59
 10
192.2106
 20
0
 30
-116.0935
 70
192
 0
VERTEX
 8
59
 10
198.9184
 20
0
 30
-132.2981
 70
192
 0
VERTEX
 8
59
 10
198.9162
 20
-54
 30
-132.2919
 70
192
 0
VERTEX
 8
59
 10
0
 20
0
 30
0
 70
128
 71
1
 72
2
 73
3
 74
3
 0
SEQEND
 0
POLYLINE
 8
58
 66
1
 10
0.0
 20
0.0
 30
0.0
 70
64
 71
3
 72
1
 0
VERTEX
 8
58
 10
184.1164
 20
0
 30
-100.5368
 70
192
 0
VERTEX
 8
58
 10
183.2293
 20
0
 30
-101.0002
 70
192
 0
VERTEX
 8
58
 10
191.285
 20
0
 30
-116.4748
 70
192
 0
VERTEX
 8
58
 10
0
 20
0
 30
0
 70
128
 71
1
 72
2
 73
3
 74
3
 0
SEQEND
 0
POLYLINE
 8
57
 66
1
 10
0.0
 20
0.0
 30
0.0
 70
64
 71
3
 72
1
 0
VERTEX
 8
57
 10
184.1164
 20
0
 30
-100.5368
 70
192
 0
VERTEX
 8
57
 10
192.2063
 20
-54
 30
-116.0844
 70
192
 0
VERTEX
 8
57
 10
184.1095
 20
-54
 30
-100.5249
 70
192
 0
VERTEX
 8
57
 10
0
 20
0
 30
0
 70
128
 71
1
 72
2
 73
3
 74
3
 0
SEQEND
 0
POLYLINE
 8
56
 66
1
 10
0.0
 20
0.0
 30
0.0
 70
64
 71
3
 72
1
 0
VERTEX
 8
56
 10
184.1164
 20
0
 30
-100.5368
 70
192
 0
VERTEX
 8
56
 10
192.2106
 20
0
 30
-116.0935
 70
192
 0
VERTEX
 8
56
 10
191.285
 20
0
 30
-116.4748
 70
192
 0
VERTEX
 8
56
 10
0
 20
0
 30
0
 70
128
 71
2
 72
1
 73
3
 74
3
 0
SEQEND
 0
POLYLINE
 8
55
 66
1
 10
0.0
 20
0.0
 30
0.0
 70
64
 71
3
 72
1
 0
VERTEX
 8
55
 10
184.1164
 20
0
 30
-100.5368
 70
192
 0
VERTEX
 8
55
 10
192.2106
 20
0
 30
-116.0935
 70
192
 0
VERTEX
 8
55
 10
192.2063
 20
-54
 30
-116.0844
 70
192
 0
VERTEX
 8
55
 10
0
 20
0
 30
0
 70
128
 71
1
 72
2
 73
3
 74
3
 0
SEQEND
 0
POLYLINE
 8
54
 66
1
 10
0.0
 20
0.0
 30
0.0
 70
64
 71
3
 72
1
 0
VERTEX
 8
54
 10
174.6971
 20
0
 30
-85.7447
 70
192
 0
VERTEX
 8
54
 10
173.8558
 20
0
 30
-86.2865
 70
192
 0
VERTEX
 8
54
 10
183.2293
 20
0
 30
-101.0002
 70
192
 0
VERTEX
 8
54
 10
0
 20
0
 30
0
 70
128
 71
1
 72
2
 73
3
 74
3
 0
SEQEND
 0
POLYLINE
 8
53
 66
1
 10
0.0
 20
0.0
 30
0.0
 70
64
 71
3
 72
1
 0
VERTEX
 8
53
 10
174.6971
 20
0
 30
-85.7447
 70
192
 0
VERTEX
 8
53
 10
184.1095
 20
-54
 30
-100.5249
 70
192
 0
VERTEX
 8
53
 10
174.6872
 20
-54
 30
-85.7304
 70
192
 0
VERTEX
 8
53
 10
0
 20
0
 30
0
 70
128
 71
1
 72
2
 73
3
 74
3
 0
SEQEND
 0
POLYLINE
 8
52
 66
1
 10
0.0
 20
0.0
 30
0.0
 70
64
 71
3
 72
1
 0
VERTEX
 8
52
 10
174.6971
 20
0
 30
-85.7447
 70
192
 0
VERTEX
 8
52
 10
184.1164
 20
0
 30
-100.5368
 70
192
 0
VERTEX
 8
52
 10
183.2293
 20
0
 30
-101.0002
 70
192
 0
VERTEX
 8
52
 10
0
 20
0
 30
0
 70
128
 71
2
 72
1
 73
3
 74
3
 0
SEQEND
 0
POLYLINE
 8
51
 66
1
 10
0.0
 20
0.0
 30
0.0
 70
64
 71
3
 72
1
 0
VERTEX
 8
51
 10
174.6971
 20
0
 30
-85.7447
 70
192
 0
VERTEX
 8
51
 10
184.1164
 20
0
 30
-100.5368
 70
192
 0
VERTEX
 8
51
 10
184.1095
 20
-54
 30
-100.5249
 70
192
 0
VERTEX
 8
51
 10
0
 20
0
 30
0
 70
128
 71
1
 72
2
 73
3
 74
3
 0
SEQEND
 0
POLYLINE
 8
50
 66
1
 10
0.0
 20
0.0
 30
0.0
 70
64
 71
3
 72
1
 0
VERTEX
 8
50
 10
164.0239
 20
0
 30
-71.8292
 70
192
 0
VERTEX
 8
50
 10
163.2353
 20
0
 30
-72.445
 70
192
 0
VERTEX
 8
50
 10
173.8558
 20
0
 30
-86.2865
 70
192
 0
VERTEX
 8
50
 10
0
 20
0
 30
0
 70
128
 71
1
 72
2
 73
3
 74
3
 0
SEQEND
 0
POLYLINE
 8
49
 66
1
 10
0.0
 20
0.0
 30
0.0
 70
64
 71
3
 72
1
 0
VERTEX
 8
49
 10
164.0239
 20
0
 30
-71.8292
 70
192
 0
VERTEX
 8
49
 10
174.6872
 20
-54
 30
-85.7304
 70
192
 0
VERTEX
 8
49
 10
164.0105
 20
-54
 30
-71.8131
 70
192
 0
VERTEX
 8
49
 10
0
 20
0
 30
0
 70
128
 71
1
 72
2
 73
3
 74
3
 0
SEQEND
 0
POLYLINE
 8
48
 66
1
 10
0.0
 20
0.0
 30
0.0
 70
64
 71
3
 72
1
 0
VERTEX
 8
48
 10
164.0239
 20
0
 30
-71.8292
 70
192
 0
VERTEX
 8
48
 10
174.6971
 20
0
 30
-85.7447
 70
192
 0
VERTEX
 8
48
 10
173.8558
 20
0
 30
-86.2865
 70
192
 0
VERTEX
 8
48
 10
0
 20
0
 30
0
 70
128
 71
2
 72
1
 73
3
 74
3
 0
SEQEND
 0
POLYLINE
 8
47
 66
1
 10
0.0
 20
0.0
 30
0.0
 70
64
 71
3
 72
1
 0
VERTEX
 8
47
 10
164.0239
 20
0
 30
-71.8292
 70
192
 0
VERTEX
 8
47
 10
174.6971
 20
0
 30
-85.7447
 70
192
 0
VERTEX
 8
47
 10
174.6872
 20
-54
 30
-85.7304
 70
192
 0
VERTEX
 8
47
 10
0
 20
0
 30
0
 70
128
 71
1
 72
2
 73
3
 74
3
 0
SEQEND
 0
POLYLINE
 8
46
 66
1
 10
0.0
 20
0.0
 30
0.0
 70
64
 71
3
 72
1
 0
VERTEX
 8
46
 10
152.1773
 20
0
 30
-58.8959
 70
192
 0
VERTEX
 8
46
 10
151.4478
 20
0
 30
-59.5806
 70
192
 0
VERTEX
 8
46
 10
163.2353
 20
0
 30
-72.445
 70
192
 0
VERTEX
 8
46
 10
0
 20
0
 30
0
 70
128
 71
1
 72
2
 73
3
 74
3
 0
SEQEND
 0
POLYLINE
 8
45
 66
1
 10
0.0
 20
0.0
 30
0.0
 70
64
 71
3
 72
1
 0
VERTEX
 8
45
 10
152.1773
 20
0
 30
-58.8959
 70
192
 0
VERTEX
 8
45
 10
164.0105
 20
-54
 30
-71.8131
 70
192
 0
VERTEX
 8
45
 10
152.1599
 20
-54
 30
-58.8785
 70
192
 0
VERTEX
 8
45
 10
0
 20
0
 30
0
 70
128
 71
1
 72
2
 73
3
 74
3
 0
SEQEND
 0
POLYLINE
 8
44
 66
1
 10
0.0
 20
0.0
 30
0.0
 70
64
 71
3
 72
1
 0
VERTEX
 8
44
 10
152.1773
 20
0
 30
-58.8959
 70
192
 0
VERTEX
 8
44
 10
164.0239
 20
0
 30
-71.8292
 70
192
 0
VERTEX
 8
44
 10
163.2353
 20
0
 30
-72.445
 70
192
 0
VERTEX
 8
44
 10
0
 20
0
 30
0
 70
128
 71
2
 72
1
 73
3
 74
3
 0
SEQEND
 0
POLYLINE
 8
43
 66
1
 10
0.0
 20
0.0
 30
0.0
 70
64
 71
3
 72
1
 0
VERTEX
 8
43
 10
152.1773
 20
0
 30
-58.8959
 70
192
 0
VERTEX
 8
43
 10
164.0239
 20
0
 30
-71.8292
 70
192
 0
VERTEX
 8
43
 10
164.0105
 20
-54
 30
-71.8131
 70
192
 0
VERTEX
 8
43
 10
0
 20
0
 30
0
 70
128
 71
1
 72
2
 73
3
 74
3
 0
SEQEND
 0
POLYLINE
 8
42
 66
1
 10
0.0
 20
0.0
 30
0.0
 70
64
 71
3
 72
1
 0
VERTEX
 8
42
 10
139.2465
 20
0
 30
-47.0432
 70
192
 0
VERTEX
 8
42
 10
138.5821
 20
0
 30
-47.7911
 70
192
 0
VERTEX
 8
42
 10
151.4478
 20
0
 30
-59.5806
 70
192
 0
VERTEX
 8
42
 10
0
 20
0
 30
0
 70
128
 71
1
 72
2
 73
3
 74
3
 0
SEQEND
 0
POLYLINE
 8
41
 66
1
 10
0.0
 20
0.0
 30
0.0
 70
64
 71
3
 72
1
 0
VERTEX
 8
41
 10
139.2465
 20
0
 30
-47.0432
 70
192
 0
VERTEX
 8
41
 10
152.1599
 20
-54
 30
-58.8785
 70
192
 0
VERTEX
 8
41
 10
139.2249
 20
-54
 30
-47.025
 70
192
 0
VERTEX
 8
41
 10
0
 20
0
 30
0
 70
128
 71
1
 72
2
 73
3
 74
3
 0
SEQEND
 0
POLYLINE
 8
40
 66
1
 10
0.0
 20
0.0
 30
0.0
 70
64
 71
3
 72
1
 0
VERTEX
 8
40
 10
139.2465
 20
0
 30
-47.0432
 70
192
 0
VERTEX
 8
40
 10
152.1773
 20
0
 30
-58.8959
 70
192
 0
VERTEX
 8
40
 10
151.4478
 20
0
 30
-59.5806
 70
192
 0
VERTEX
 8
40
 10
0
 20
0
 30
0
 70
128
 71
2
 72
1
 73
3
 74
3
 0
SEQEND
 0
POLYLINE
 8
39
 66
1
 10
0.0
 20
0.0
 30
0.0
 70
64
 71
3
 72
1
 0
VERTEX
 8
39
 10
139.2465
 20
0
 30
-47.0432
 70
192
 0
VERTEX
 8
39
 10
152.1773
 20
0
 30
-58.8959
 70
192
 0
VERTEX
 8
39
 10
152.1599
 20
-54
 30
-58.8785
 70
192
 0
VERTEX
 8
39
 10
0
 20
0
 30
0
 70
128
 71
1
 72
2
 73
3
 74
3
 0
SEQEND
 0
POLYLINE
 8
38
 66
1
 10
0.0
 20
0.0
 30
0.0
 70
64
 71
3
 72
1
 0
VERTEX
 8
38
 10
125.3313
 20
0
 30
-36.3631
 70
192
 0
VERTEX
 8
38
 10
124.7376
 20
0
 30
-37.1681
 70
192
 0
VERTEX
 8
38
 10
138.5821
 20
0
 30
-47.7911
 70
192
 0
VERTEX
 8
38
 10
0
 20
0
 30
0
 70
128
 71
1
 72
2
 73
3
 74
3
 0
SEQEND
 0
POLYLINE
 8
37
 66
1
 10
0.0
 20
0.0
 30
0.0
 70
64
 71
3
 72
1
 0
VERTEX
 8
37
 10
125.3313
 20
0
 30
-36.3631
 70
192
 0
VERTEX
 8
37
 10
139.2249
 20
-54
 30
-47.025
 70
192
 0
VERTEX
 8
37
 10
125.3053
 20
-54
 30
-36.3448
 70
192
 0
VERTEX
 8
37
 10
0
 20
0
 30
0
 70
128
 71
1
 72
2
 73
3
 74
3
 0
SEQEND
 0
POLYLINE
 8
36
 66
1
 10
0.0
 20
0.0
 30
0.0
 70
64
 71
3
 72
1
 0
VERTEX
 8
36
 10
125.3313
 20
0
 30
-36.3631
 70
192
 0
VERTEX
 8
36
 10
139.2465
 20
0
 30
-47.0432
 70
192
 0
VERTEX
 8
36
 10
138.5821
 20
0
 30
-47.7911
 70
192
 0
VERTEX
 8
36
 10
0
 20
0
 30
0
 70
128
 71
2
 72
1
 73
3
 74
3
 0
SEQEND
 0
POLYLINE
 8
35
 66
1
 10
0.0
 20
0.0
 30
0.0
 70
64
 71
3
 72
1
 0
VERTEX
 8
35
 10
125.3313
 20
0
 30
-36.3631
 70
192
 0
VERTEX
 8
35
 10
139.2465
 20
0
 30
-47.0432
 70
192
 0
VERTEX
 8
35
 10
139.2249
 20
-54
 30
-47.025
 70
192
 0
VERTEX
 8
35
 10
0
 20
0
 30
0
 70
128
 71
1
 72
2
 73
3
 74
3
 0
SEQEND
 0
POLYLINE
 8
34
 66
1
 10
0.0
 20
0.0
 30
0.0
 70
64
 71
3
 72
1
 0
VERTEX
 8
34
 10
110.54
 20
0
 30
-26.9381
 70
192
 0
VERTEX
 8
34
 10
110.0218
 20
0
 30
-27.7936
 70
192
 0
VERTEX
 8
34
 10
124.7376
 20
0
 30
-37.1681
 70
192
 0
VERTEX
 8
34
 10
0
 20
0
 30
0
 70
128
 71
1
 72
2
 73
3
 74
3
 0
SEQEND
 0
POLYLINE
 8
33
 66
1
 10
0.0
 20
0.0
 30
0.0
 70
64
 71
3
 72
1
 0
VERTEX
 8
33
 10
110.54
 20
0
 30
-26.9381
 70
192
 0
VERTEX
 8
33
 10
125.3053
 20
-54
 30
-36.3448
 70
192
 0
VERTEX
 8
33
 10
110.5094
 20
-54
 30
-26.9204
 70
192
 0
VERTEX
 8
33
 10
0
 20
0
 30
0
 70
128
 71
1
 72
2
 73
3
 74
3
 0
SEQEND
 0
POLYLINE
 8
32
 66
1
 10
0.0
 20
0.0
 30
0.0
 70
64
 71
3
 72
1
 0
VERTEX
 8
32
 10
110.54
 20
0
 30
-26.9381
 70
192
 0
VERTEX
 8
32
 10
125.3313
 20
0
 30
-36.3631
 70
192
 0
VERTEX
 8
32
 10
124.7376
 20
0
 30
-37.1681
 70
192
 0
VERTEX
 8
32
 10
0
 20
0
 30
0
 70
128
 71
2
 72
1
 73
3
 74
3
 0
SEQEND
 0
POLYLINE
 8
31
 66
1
 10
0.0
 20
0.0
 30
0.0
 70
64
 71
3
 72
1
 0
VERTEX
 8
31
 10
110.54
 20
0
 30
-26.9381
 70
192
 0
VERTEX
 8
31
 10
125.3313
 20
0
 30
-36.3631
 70
192
 0
VERTEX
 8
31
 10
125.3053
 20
-54
 30
-36.3448
 70
192
 0
VERTEX
 8
31
 10
0
 20
0
 30
0
 70
128
 71
1
 72
2
 73
3
 74
3
 0
SEQEND
 0
POLYLINE
 8
30
 66
1
 10
0.0
 20
0.0
 30
0.0
 70
64
 71
3
 72
1
 0
VERTEX
 8
30
 10
94.9848
 20
0
 30
-18.8391
 70
192
 0
VERTEX
 8
30
 10
94.5463
 20
0
 30
-19.738
 70
192
 0
VERTEX
 8
30
 10
110.0218
 20
0
 30
-27.7936
 70
192
 0
VERTEX
 8
30
 10
0
 20
0
 30
0
 70
128
 71
1
 72
2
 73
3
 74
3
 0
SEQEND
 0
POLYLINE
 8
29
 66
1
 10
0.0
 20
0.0
 30
0.0
 70
64
 71
3
 72
1
 0
VERTEX
 8
29
 10
94.9848
 20
0
 30
-18.8391
 70
192
 0
VERTEX
 8
29
 10
110.5094
 20
-54
 30
-26.9204
 70
192
 0
VERTEX
 8
29
 10
94.9496
 20
-54
 30
-18.8226
 70
192
 0
VERTEX
 8
29
 10
0
 20
0
 30
0
 70
128
 71
1
 72
2
 73
3
 74
3
 0
SEQEND
 0
POLYLINE
 8
28
 66
1
 10
0.0
 20
0.0
 30
0.0
 70
64
 71
3
 72
1
 0
VERTEX
 8
28
 10
94.9848
 20
0
 30
-18.8391
 70
192
 0
VERTEX
 8
28
 10
110.54
 20
0
 30
-26.9381
 70
192
 0
VERTEX
 8
28
 10
110.0218
 20
0
 30
-27.7936
 70
192
 0
VERTEX
 8
28
 10
0
 20
0
 30
0
 70
128
 71
2
 72
1
 73
3
 74
3
 0
SEQEND
 0
POLYLINE
 8
27
 66
1
 10
0.0
 20
0.0
 30
0.0
 70
64
 71
3
 72
1
 0
VERTEX
 8
27
 10
94.9848
 20
0
 30
-18.8391
 70
192
 0
VERTEX
 8
27
 10
110.54
 20
0
 30
-26.9381
 70
192
 0
VERTEX
 8
27
 10
110.5094
 20
-54
 30
-26.9204
 70
192
 0
VERTEX
 8
27
 10
0
 20
0
 30
0
 70
128
 71
1
 72
2
 73
3
 74
3
 0
SEQEND
 0
POLYLINE
 8
26
 66
1
 10
0.0
 20
0.0
 30
0.0
 70
64
 71
3
 72
1
 0
VERTEX
 8
26
 10
78.7837
 20
0
 30
-12.127
 70
192
 0
VERTEX
 8
26
 10
78.4285
 20
0
 30
-13.0619
 70
192
 0
VERTEX
 8
26
 10
94.5463
 20
0
 30
-19.738
 70
192
 0
VERTEX
 8
26
 10
0
 20
0
 30
0
 70
128
 71
1
 72
2
 73
3
 74
3
 0
SEQEND
 0
POLYLINE
 8
25
 66
1
 10
0.0
 20
0.0
 30
0.0
 70
64
 71
3
 72
1
 0
VERTEX
 8
25
 10
78.7837
 20
0
 30
-12.127
 70
192
 0
VERTEX
 8
25
 10
94.9496
 20
-54
 30
-18.8226
 70
192
 0
VERTEX
 8
25
 10
78.7437
 20
-54
 30
-12.1125
 70
192
 0
VERTEX
 8
25
 10
0
 20
0
 30
0
 70
128
 71
1
 72
2
 73
3
 74
3
 0
SEQEND
 0
POLYLINE
 8
24
 66
1
 10
0.0
 20
0.0
 30
0.0
 70
64
 71
3
 72
1
 0
VERTEX
 8
24
 10
78.7837
 20
0
 30
-12.127
 70
192
 0
VERTEX
 8
24
 10
94.9848
 20
0
 30
-18.8391
 70
192
 0
VERTEX
 8
24
 10
94.5463
 20
0
 30
-19.738
 70
192
 0
VERTEX
 8
24
 10
0
 20
0
 30
0
 70
128
 71
2
 72
1
 73
3
 74
3
 0
SEQEND
 0
POLYLINE
 8
23
 66
1
 10
0.0
 20
0.0
 30
0.0
 70
64
 71
3
 72
1
 0
VERTEX
 8
23
 10
78.7837
 20
0
 30
-12.127
 70
192
 0
VERTEX
 8
23
 10
94.9848
 20
0
 30
-18.8391
 70
192
 0
VERTEX
 8
23
 10
94.9496
 20
-54
 30
-18.8226
 70
192
 0
VERTEX
 8
23
 10
0
 20
0
 30
0
 70
128
 71
1
 72
2
 73
3
 74
3
 0
SEQEND
 0
POLYLINE
 8
22
 66
1
 10
0.0
 20
0.0
 30
0.0
 70
64
 71
3
 72
1
 0
VERTEX
 8
22
 10
62.0592
 20
0
 30
-6.8525
 70
192
 0
VERTEX
 8
22
 10
61.7902
 20
0
 30
-7.8157
 70
192
 0
VERTEX
 8
22
 10
78.4285
 20
0
 30
-13.0619
 70
192
 0
VERTEX
 8
22
 10
0
 20
0
 30
0
 70
128
 71
1
 72
2
 73
3
 74
3
 0
SEQEND
 0
POLYLINE
 8
21
 66
1
 10
0.0
 20
0.0
 30
0.0
 70
64
 71
3
 72
1
 0
VERTEX
 8
21
 10
62.0592
 20
0
 30
-6.8525
 70
192
 0
VERTEX
 8
21
 10
78.7437
 20
-54
 30
-12.1125
 70
192
 0
VERTEX
 8
21
 10
62.0146
 20
-54
 30
-6.8406
 70
192
 0
VERTEX
 8
21
 10
0
 20
0
 30
0
 70
128
 71
1
 72
2
 73
3
 74
3
 0
SEQEND
 0
POLYLINE
 8
20
 66
1
 10
0.0
 20
0.0
 30
0.0
 70
64
 71
3
 72
1
 0
VERTEX
 8
20
 10
62.0592
 20
0
 30
-6.8525
 70
192
 0
VERTEX
 8
20
 10
78.7837
 20
0
 30
-12.127
 70
192
 0
VERTEX
 8
20
 10
78.4285
 20
0
 30
-13.0619
 70
192
 0
VERTEX
 8
20
 10
0
 20
0
 30
0
 70
128
 71
2
 72
1
 73
3
 74
3
 0
SEQEND
 0
POLYLINE
 8
19
 66
1
 10
0.0
 20
0.0
 30
0.0
 70
64
 71
3
 72
1
 0
VERTEX
 8
19
 10
62.0592
 20
0
 30
-6.8525
 70
192
 0
VERTEX
 8
19
 10
78.7837
 20
0
 30
-12.127
 70
192
 0
VERTEX
 8
19
 10
78.7437
 20
-54
 30
-12.1125
 70
192
 0
VERTEX
 8
19
 10
0
 20
0
 30
0
 70
128
 71
1
 72
2
 73
3
 74
3
 0
SEQEND
 0
POLYLINE
 8
18
 66
1
 10
0.0
 20
0.0
 30
0.0
 70
64
 71
3
 72
1
 0
VERTEX
 8
18
 10
44.9378
 20
0
 30
-3.0557
 70
192
 0
VERTEX
 8
18
 10
44.7573
 20
0
 30
-4.0392
 70
192
 0
VERTEX
 8
18
 10
61.7902
 20
0
 30
-7.8157
 70
192
 0
VERTEX
 8
18
 10
0
 20
0
 30
0
 70
128
 71
1
 72
2
 73
3
 74
3
 0
SEQEND
 0
POLYLINE
 8
17
 66
1
 10
0.0
 20
0.0
 30
0.0
 70
64
 71
3
 72
1
 0
VERTEX
 8
17
 10
44.9378
 20
0
 30
-3.0557
 70
192
 0
VERTEX
 8
17
 10
62.0146
 20
-54
 30
-6.8406
 70
192
 0
VERTEX
 8
17
 10
44.8881
 20
-54
 30
-3.0471
 70
192
 0
VERTEX
 8
17
 10
0
 20
0
 30
0
 70
128
 71
1
 72
2
 73
3
 74
3
 0
SEQEND
 0
POLYLINE
 8
16
 66
1
 10
0.0
 20
0.0
 30
0.0
 70
64
 71
3
 72
1
 0
VERTEX
 8
16
 10
44.9378
 20
0
 30
-3.0557
 70
192
 0
VERTEX
 8
16
 10
62.0592
 20
0
 30
-6.8525
 70
192
 0
VERTEX
 8
16
 10
61.7902
 20
0
 30
-7.8157
 70
192
 0
VERTEX
 8
16
 10
0
 20
0
 30
0
 70
128
 71
2
 72
1
 73
3
 74
3
 0
SEQEND
 0
POLYLINE
 8
15
 66
1
 10
0.0
 20
0.0
 30
0.0
 70
64
 71
3
 72
1
 0
VERTEX
 8
15
 10
44.9378
 20
0
 30
-3.0557
 70
192
 0
VERTEX
 8
15
 10
62.0592
 20
0
 30
-6.8525
 70
192
 0
VERTEX
 8
15
 10
62.0146
 20
-54
 30
-6.8406
 70
192
 0
VERTEX
 8
15
 10
0
 20
0
 30
0
 70
128
 71
1
 72
2
 73
3
 74
3
 0
SEQEND
 0
POLYLINE
 8
14
 66
1
 10
0.0
 20
0.0
 30
0.0
 70
64
 71
5
 72
3
 0
VERTEX
 8
14
 10
27.5505
 20
0
 30
-0.7656
 70
192
 0
VERTEX
 8
14
 10
10.0246
 20
0
 30
-0.2679
 70
192
 0
VERTEX
 8
14
 10
10.0246
 20
0
 30
-1
 70
192
 0
VERTEX
 8
14
 10
27.4598
 20
0
 30
-1.7615
 70
192
 0
VERTEX
 8
14
 10
44.7573
 20
0
 30
-4.0392
 70
192
 0
VERTEX
 8
14
 10
0
 20
0
 30
0
 70
128
 71
1
 72
2
 73
3
 74
3
 0
VERTEX
 8
14
 10
0
 20
0
 30
0
 70
128
 71
1
 72
3
 73
4
 74
4
 0
VERTEX
 8
14
 10
0
 20
0
 30
0
 70
128
 71
1
 72
4
 73
5
 74
5
 0
SEQEND
 0
POLYLINE
 8
13
 66
1
 10
0.0
 20
0.0
 30
0.0
 70
64
 71
3
 72
1
 0
VERTEX
 8
13
 10
27.5505
 20
0
 30
-0.7656
 70
192
 0
VERTEX
 8
13
 10
44.8881
 20
-54
 30
-3.0471
 70
192
 0
VERTEX
 8
13
 10
27.4997
 20
-54
 30
-0.7608
 70
192
 0
VERTEX
 8
13
 10
0
 20
0
 30
0
 70
128
 71
1
 72
2
 73
3
 74
3
 0
SEQEND
 0
POLYLINE
 8
12
 66
1
 10
0.0
 20
0.0
 30
0.0
 70
64
 71
3
 72
1
 0
VERTEX
 8
12
 10
27.5505
 20
0
 30
-0.7656
 70
192
 0
VERTEX
 8
12
 10
44.9378
 20
0
 30
-3.0557
 70
192
 0
VERTEX
 8
12
 10
44.7573
 20
0
 30
-4.0392
 70
192
 0
VERTEX
 8
12
 10
0
 20
0
 30
0
 70
128
 71
2
 72
1
 73
3
 74
3
 0
SEQEND
 0
POLYLINE
 8
11
 66
1
 10
0.0
 20
0.0
 30
0.0
 70
64
 71
3
 72
1
 0
VERTEX
 8
11
 10
27.5505
 20
0
 30
-0.7656
 70
192
 0
VERTEX
 8
11
 10
44.9378
 20
0
 30
-3.0557
 70
192
 0
VERTEX
 8
11
 10
44.8881
 20
-54
 30
-3.0471
 70
192
 0
VERTEX
 8
11
 10
0
 20
0
 30
0
 70
128
 71
1
 72
2
 73
3
 74
3
 0
SEQEND
 0
POLYLINE
 8
10
 66
1
 10
0.0
 20
0.0
 30
0.0
 70
64
 71
6
 72
2
 0
VERTEX
 8
10
 10
10.0246
 20
0
 30
0
 70
192
 0
VERTEX
 8
10
 10
10.0246
 20
0
 30
0
 70
192
 0
VERTEX
 8
10
 10
27.5505
 20
0
 30
-0.7656
 70
192
 0
VERTEX
 8
10
 10
10.0246
 20
0
 30
-0.2679
 70
192
 0
VERTEX
 8
10
 10
10.0246
 20
0
 30
-0.2679
 70
192
 0
VERTEX
 8
10
 10
10.0246
 20
-0.4824
 30
-0.0682
 70
192
 0
VERTEX
 8
10
 10
0
 20
0
 30
0
 70
128
 71
3
 72
1
 73
4
 74
4
 0
VERTEX
 8
10
 10
0
 20
0
 30
0
 70
128
 71
5
 72
2
 73
6
 74
6
 0
SEQEND
 0
POLYLINE
 8
9
 66
1
 10
0.0
 20
0.0
 30
0.0
 70
64
 71
3
 72
1
 0
VERTEX
 8
9
 10
10.0246
 20
0
 30
0
 70
192
 0
VERTEX
 8
9
 10
27.5505
 20
0
 30
-0.7656
 70
192
 0
VERTEX
 8
9
 10
27.4997
 20
-54
 30
-0.7608
 70
192
 0
VERTEX
 8
9
 10
0
 20
0
 30
0
 70
128
 71
1
 72
2
 73
3
 74
3
 0
SEQEND
 0
POLYLINE
 8
8
 66
1
 10
0.0
 20
0.0
 30
0.0
 70
64
 71
9
 72
3
 0
VERTEX
 8
8
 10
10.0246
 20
-1
 30
0
 70
192
 0
VERTEX
 8
8
 10
10.0246
 20
-1
 30
0
 70
192
 0
VERTEX
 8
8
 10
10.0246
 20
-1
 30
0
 70
192
 0
VERTEX
 8
8
 10
10.0246
 20
0
 30
0
 70
192
 0
VERTEX
 8
8
 10
0
 20
-1
 30
0
 70
192
 0
VERTEX
 8
8
 10
0
 20
-1
 30
0
 70
192
 0
VERTEX
 8
8
 10
0
 20
-43
 30
0
 70
192
 0
VERTEX
 8
8
 10
10.0246
 20
-0.4824
 30
-0.0682
 70
192
 0
VERTEX
 8
8
 10
10.0246
 20
-0.4824
 30
-0.0682
 70
192
 0
VERTEX
 8
8
 10
0
 20
0
 30
0
 70
128
 71
4
 72
2
 73
8
 74
8
 0
VERTEX
 8
8
 10
0
 20
0
 30
0
 70
128
 71
5
 72
1
 73
7
 74
7
 0
VERTEX
 8
8
 10
0
 20
0
 30
0
 70
128
 71
3
 72
6
 73
9
 74
9
 0
SEQEND
 0
POLYLINE
 8
7
 66
1
 10
0.0
 20
0.0
 30
0.0
 70
64
 71
3
 72
1
 0
VERTEX
 8
7
 10
10.0246
 20
-1
 30
0
 70
192
 0
VERTEX
 8
7
 10
10.0246
 20
0
 30
0
 70
192
 0
VERTEX
 8
7
 10
27.4997
 20
-54
 30
-0.7608
 70
192
 0
VERTEX
 8
7
 10
0
 20
0
 30
0
 70
128
 71
1
 72
2
 73
3
 74
3
 0
SEQEND
 0
POLYLINE
 8
6
 66
1
 10
0.0
 20
0.0
 30
0.0
 70
64
 71
8
 72
6
 0
VERTEX
 8
6
 10
10.0246
 20
-27.0013
 30
0
 70
192
 0
VERTEX
 8
6
 10
10.0246
 20
-1
 30
0
 70
192
 0
VERTEX
 8
6
 10
0
 20
-43
 30
0
 70
192
 0
VERTEX
 8
6
 10
7.4313
 20
-52.6641
 30
0
 70
192
 0
VERTEX
 8
6
 10
5.0143
 20
-51.668
 30
0
 70
192
 0
VERTEX
 8
6
 10
2.9372
 20
-50.0785
 30
0
 70
192
 0
VERTEX
 8
6
 10
1.3432
 20
-48.005
 30
0
 70
192
 0
VERTEX
 8
6
 10
0.3414
 20
-45.5901
 30
0
 70
192
 0
VERTEX
 8
6
 10
0
 20
0
 30
0
 70
128
 71
2
 72
1
 73
3
 74
3
 0
VERTEX
 8
6
 10
0
 20
0
 30
0
 70
128
 71
3
 72
1
 73
8
 74
8
 0
VERTEX
 8
6
 10
0
 20
0
 30
0
 70
128
 71
1
 72
4
 73
5
 74
5
 0
VERTEX
 8
6
 10
0
 20
0
 30
0
 70
128
 71
1
 72
5
 73
6
 74
6
 0
VERTEX
 8
6
 10
0
 20
0
 30
0
 70
128
 71
1
 72
6
 73
7
 74
7
 0
VERTEX
 8
6
 10
0
 20
0
 30
0
 70
128
 71
1
 72
7
 73
8
 74
8
 0
SEQEND
 0
POLYLINE
 8
5
 66
1
 10
0.0
 20
0.0
 30
0.0
 70
64
 71
3
 72
1
 0
VERTEX
 8
5
 10
10.0246
 20
-27.0013
 30
0
 70
192
 0
VERTEX
 8
5
 10
10.0246
 20
-1
 30
0
 70
192
 0
VERTEX
 8
5
 10
27.4997
 20
-54
 30
-0.7608
 70
192
 0
VERTEX
 8
5
 10
0
 20
0
 30
0
 70
128
 71
1
 72
2
 73
3
 74
3
 0
SEQEND
 0
POLYLINE
 8
4
 66
1
 10
0.0
 20
0.0
 30
0.0
 70
64
 71
3
 72
1
 0
VERTEX
 8
4
 10
10.0246
 20
-53
 30
0
 70
192
 0
VERTEX
 8
4
 10
10.0249
 20
-53
 30
-1
 70
192
 0
VERTEX
 8
4
 10
7.4313
 20
-52.6641
 30
0
 70
192
 0
VERTEX
 8
4
 10
0
 20
0
 30
0
 70
128
 71
1
 72
2
 73
3
 74
3
 0
SEQEND
 0
POLYLINE
 8
3
 66
1
 10
0.0
 20
0.0
 30
0.0
 70
64
 71
10
 72
4
 0
VERTEX
 8
3
 10
10.0246
 20
-53
 30
0
 70
192
 0
VERTEX
 8
3
 10
10.0246
 20
-53
 30
0
 70
192
 0
VERTEX
 8
3
 10
10.0246
 20
-53
 30
0
 70
192
 0
VERTEX
 8
3
 10
27.4997
 20
-54
 30
-0.7608
 70
192
 0
VERTEX
 8
3
 10
10.0246
 20
-53.5009
 30
0
 70
192
 0
VERTEX
 8
3
 10
10.0246
 20
-53.5009
 30
0
 70
192
 0
VERTEX
 8
3
 10
5.6411
 20
-53
 30
0
 70
192
 0
VERTEX
 8
3
 10
5.6411
 20
-53
 30
0
 70
192
 0
VERTEX
 8
3
 10
5.6411
 20
-53
 30
-1
 70
192
 0
VERTEX
 8
3
 10
10.0249
 20
-53
 30
-1
 70
192
 0
VERTEX
 8
3
 10
0
 20
0
 30
0
 70
128
 71
1
 72
4
 73
5
 74
5
 0
VERTEX
 8
3
 10
0
 20
0
 30
0
 70
128
 71
2
 72
6
 73
7
 74
7
 0
VERTEX
 8
3
 10
0
 20
0
 30
0
 70
128
 71
3
 72
8
 73
9
 74
9
 0
VERTEX
 8
3
 10
0
 20
0
 30
0
 70
128
 71
3
 72
9
 73
10
 74
10
 0
SEQEND
 0
POLYLINE
 8
2
 66
1
 10
0.0
 20
0.0
 30
0.0
 70
64
 71
3
 72
1
 0
VERTEX
 8
2
 10
10.0246
 20
-53
 30
0
 70
192
 0
VERTEX
 8
2
 10
10.0246
 20
-27.0013
 30
0
 70
192
 0
VERTEX
 8
2
 10
7.4313
 20
-52.6641
 30
0
 70
192
 0
VERTEX
 8
2
 10
0
 20
0
 30
0
 70
128
 71
2
 72
1
 73
3
 74
3
 0
SEQEND
 0
POLYLINE
 8
1
 66
1
 10
0.0
 20
0.0
 30
0.0
 70
64
 71
3
 72
1
 0
VERTEX
 8
1
 10
10.0246
 20
-53
 30
0
 70
192
 0
VERTEX
 8
1
 10
10.0246
 20
-27.0013
 30
0
 70
192
 0
VERTEX
 8
1
 10
27.4997
 20
-54
 30
-0.7608
 70
192
 0
VERTEX
 8
1
 10
0
 20
0
 30
0
 70
128
 71
1
 72
2
 73
3
 74
3
 0
SEQEND
 0
ENDSEC
 0
EOF
