999
DXF file: s6380my.dxf
999
Pro/ENGINEER 2011330 by Parametric Technology Corporation
  0
SECTION
  2
HEADER
  9
$ACADVER
  1
AC1021
  9
$DWGCODEPAGE
  3
ANSI_1252
  9
$EXTMAX
 10
420.0
 20
297.0
 30
0.0
  9
$EXTMIN
 10
0.0
 20
-0.0
 30
0.0
  9
$LIMMIN
 10
0.0
 20
-0.0
  9
$LIMMAX
 10
420.0
 20
297.0
  9
$VIEWCTR
 10
210.0
 20
148.5
  9
$VIEWSIZE
 40
297.0
  9
$CLAYER
  8
0
  9
$LTSCALE
 40
23.1
  9
$CELTYPE
  6
BYLAYER
  9
$DIMSCALE
 40
1.0
  9
$DIMASZ
 40
4.5
  9
$DIMEXO
 40
2.625
  9
$DIMDLI
 40
15.96
  9
$DIMEXE
 40
7.56
  9
$DIMCEN
 40
3.78
  9
$DIMLFAC
 40
1.0
  9
$DIMBLK
  1
_FILLED
  9
$DIMTXT
 40
4.0
  9
$DIMTOL
 70
0
  9
$DIMLIM
 70
0
  9
$DIMTFAC
 40
1.0
  9
$PDMODE
 70
3
  9
$PDSIZE
 40
0.3125
  9
$HANDSEED
  5
584
  9
$TILEMODE
 70
1
  9
$MEASUREMENT
 70
1
  9
$INSUNITS
 70
4
  0
ENDSEC
  0
SECTION
  2
CLASSES
  0
CLASS
  1
ACDBDICTIONARYWDFLT
  2
AcDbDictionaryWithDefault
  3
AutoCAD 2000
 90
0
 91
1
280
0
281
0
  0
CLASS
  1
ACDBPLACEHOLDER
  2
AcDbPlaceHolder
  3
AutoCAD 2000
 90
0
 91
1
280
0
281
0
  0
CLASS
  1
LAYOUT
  2
AcDbLayout
  3
AutoCAD 2000
 90
0
 91
0
280
0
281
0
  0
ENDSEC
  0
SECTION
  2
TABLES
  0
TABLE
  2
VPORT
  5
8
100
AcDbSymbolTable
 70
2
  0
VPORT
  5
1F4
100
AcDbSymbolTableRecord
100
AcDbViewportTableRecord
  2
*ACTIVE
 70
0
 10
0.0
 20
0.0
 11
1.0
 21
1.0
 12
210.0
 22
148.5
 13
0.0
 23
0.0
 14
1.0
 24
1.0
 15
0.0
 25
0.0
 16
0.0
 26
0.0
 36
1.0
 17
0.0
 27
0.0
 37
0.0
 40
297.0
 41
1.4141414141
 42
50.0
 43
0.0
 44
0.0
 50
0.0
 51
0.0
 71
0
 72
100
 73
1
 74
1
 75
0
 76
0
 77
0
 78
0
  0
ENDTAB
  0
TABLE
  2
LTYPE
  5
5
100
AcDbSymbolTable
 70
6
  0
LTYPE
  5
14
100
AcDbSymbolTableRecord
100
AcDbLinetypeTableRecord
  2
BYBLOCK
 70
0
  3

 72
65
 73
0
 40
0.0
  0
LTYPE
  5
15
100
AcDbSymbolTableRecord
100
AcDbLinetypeTableRecord
  2
BYLAYER
 70
0
  3

 72
65
 73
0
 40
0.0
  0
LTYPE
  5
16
100
AcDbSymbolTableRecord
100
AcDbLinetypeTableRecord
  2
CONTINUOUS
 70
64
  3
Solid line
 72
65
 73
0
 40
0.0
  0
LTYPE
  5
1F5
100
AcDbSymbolTableRecord
100
AcDbLinetypeTableRecord
  2
CENTER
 70
64
  3
____ _ ____ _ ____ _ ____ _ ____ _ ____ _ ____
 72
65
 73
4
 40
0.6
 49
0.375
 74
0
 49
-0.075
 74
0
 49
0.075
 74
0
 49
-0.075
 74
0
  0
LTYPE
  5
1F6
100
AcDbSymbolTableRecord
100
AcDbLinetypeTableRecord
  2
HIDDEN
 70
64
  3
- - - - - - - - - - - - - - - - - - - -
 72
65
 73
2
 40
0.2
 49
0.1
 74
0
 49
-0.1
 74
0
  0
LTYPE
  5
1F7
100
AcDbSymbolTableRecord
100
AcDbLinetypeTableRecord
  2
PHANTOM
 70
64
  3
_____ _ _ _____ _ _ _____ _ _ _____
 72
65
 73
6
 40
0.8
 49
0.45
 74
0
 49
-0.05
 74
0
 49
0.1
 74
0
 49
-0.05
 74
0
 49
0.1
 74
0
 49
-0.05
 74
0
  0
LTYPE
  5
1F8
100
AcDbSymbolTableRecord
100
AcDbLinetypeTableRecord
  2
DOT
 70
64
  3
. . . . . . . . . . . . . . . . . . . .
 72
65
 73
2
 40
0.2
 49
0.1
 74
0
 49
-0.1
 74
0
  0
LTYPE
  5
1F9
100
AcDbSymbolTableRecord
100
AcDbLinetypeTableRecord
  2
DASHED
 70
64
  3
- - - - - - - - - - - - - - - - - - - -
 72
65
 73
2
 40
0.2
 49
0.1
 74
0
 49
-0.1
 74
0
  0
ENDTAB
  0
TABLE
  2
LAYER
  5
2
100
AcDbSymbolTable
 70
36
  0
LAYER
  5
10
100
AcDbSymbolTableRecord
100
AcDbLayerTableRecord
  2
0
 70
0
 62
7
  6
CONTINUOUS
370
-3
390
F
  0
LAYER
  5
1FA
100
AcDbSymbolTableRecord
100
AcDbLayerTableRecord
  2
DEFAULT_1
 70
0
 62
7
  6
CENTER
370
-3
390
F
  0
LAYER
  5
1FB
100
AcDbSymbolTableRecord
100
AcDbLayerTableRecord
  2
DEFAULT_2
 70
0
 62
8
  6
HIDDEN
370
-3
390
F
  0
LAYER
  5
1FC
100
AcDbSymbolTableRecord
100
AcDbLayerTableRecord
  2
DEFAULT_3
 70
0
 62
7
  6
PHANTOM
370
-3
390
F
  0
LAYER
  5
1FD
100
AcDbSymbolTableRecord
100
AcDbLayerTableRecord
  2
0_Format_A0
 70
0
 62
7
  6
CONTINUOUS
370
-3
390
F
  0
LAYER
  5
1FE
100
AcDbSymbolTableRecord
100
AcDbLayerTableRecord
  2
0_Format_A1
 70
0
 62
7
  6
CONTINUOUS
370
-3
390
F
  0
LAYER
  5
1FF
100
AcDbSymbolTableRecord
100
AcDbLayerTableRecord
  2
0_Format_A2
 70
0
 62
7
  6
CONTINUOUS
370
-3
390
F
  0
LAYER
  5
200
100
AcDbSymbolTableRecord
100
AcDbLayerTableRecord
  2
0_Format_A3
 70
0
 62
7
  6
CONTINUOUS
370
-3
390
F
  0
LAYER
  5
201
100
AcDbSymbolTableRecord
100
AcDbLayerTableRecord
  2
0_Format_A4L
 70
0
 62
7
  6
CONTINUOUS
370
-3
390
F
  0
LAYER
  5
202
100
AcDbSymbolTableRecord
100
AcDbLayerTableRecord
  2
0_Format_A4P
 70
0
 62
7
  6
CONTINUOUS
370
-3
390
F
  0
LAYER
  5
203
100
AcDbSymbolTableRecord
100
AcDbLayerTableRecord
  2
0_Title_Block
 70
0
 62
7
  6
CONTINUOUS
370
-3
390
F
  0
LAYER
  5
204
100
AcDbSymbolTableRecord
100
AcDbLayerTableRecord
  2
AM_5
 70
0
 62
7
  6
CONTINUOUS
370
-3
390
F
  0
LAYER
  5
205
100
AcDbSymbolTableRecord
100
AcDbLayerTableRecord
  2
CENTRELINES
 70
0
 62
7
  6
CONTINUOUS
370
-3
390
F
  0
LAYER
  5
206
100
AcDbSymbolTableRecord
100
AcDbLayerTableRecord
  2
DETAIL
 70
0
 62
7
  6
CONTINUOUS
370
-3
390
F
  0
LAYER
  5
207
100
AcDbSymbolTableRecord
100
AcDbLayerTableRecord
  2
DIMS
 70
0
 62
7
  6
CONTINUOUS
370
-3
390
F
  0
LAYER
  5
208
100
AcDbSymbolTableRecord
100
AcDbLayerTableRecord
  2
Defpoints
 70
0
 62
7
  6
CONTINUOUS
290
0
370
-3
390
F
  0
LAYER
  5
209
100
AcDbSymbolTableRecord
100
AcDbLayerTableRecord
  2
Dimensions
 70
0
 62
7
  6
CONTINUOUS
370
-3
390
F
  0
LAYER
  5
20A
100
AcDbSymbolTableRecord
100
AcDbLayerTableRecord
  2
Format_A0
 70
0
 62
7
  6
CONTINUOUS
370
-3
390
F
  0
LAYER
  5
20B
100
AcDbSymbolTableRecord
100
AcDbLayerTableRecord
  2
Format_A1
 70
0
 62
7
  6
CONTINUOUS
370
-3
390
F
  0
LAYER
  5
20C
100
AcDbSymbolTableRecord
100
AcDbLayerTableRecord
  2
Format_A2
 70
0
 62
7
  6
CONTINUOUS
370
-3
390
F
  0
LAYER
  5
20D
100
AcDbSymbolTableRecord
100
AcDbLayerTableRecord
  2
Format_A3
 70
0
 62
7
  6
CONTINUOUS
370
-3
390
F
  0
LAYER
  5
20E
100
AcDbSymbolTableRecord
100
AcDbLayerTableRecord
  2
Format_A4
 70
0
 62
7
  6
CONTINUOUS
370
-3
390
F
  0
LAYER
  5
20F
100
AcDbSymbolTableRecord
100
AcDbLayerTableRecord
  2
Format_A4_Quer
 70
0
 62
7
  6
CONTINUOUS
370
-3
390
F
  0
LAYER
  5
210
100
AcDbSymbolTableRecord
100
AcDbLayerTableRecord
  2
HIDDEN
 70
0
 62
7
  6
CONTINUOUS
370
-3
390
F
  0
LAYER
  5
211
100
AcDbSymbolTableRecord
100
AcDbLayerTableRecord
  2
LASER
 70
0
 62
7
  6
CONTINUOUS
370
-3
390
F
  0
LAYER
  5
212
100
AcDbSymbolTableRecord
100
AcDbLayerTableRecord
  2
LAY0001
 70
0
 62
7
  6
CONTINUOUS
370
-3
390
F
  0
LAYER
  5
213
100
AcDbSymbolTableRecord
100
AcDbLayerTableRecord
  2
LAZER
 70
0
 62
7
  6
CONTINUOUS
370
-3
390
F
  0
LAYER
  5
214
100
AcDbSymbolTableRecord
100
AcDbLayerTableRecord
  2
MM_4_0_025
 70
0
 62
7
  6
CONTINUOUS
370
-3
390
F
  0
LAYER
  5
215
100
AcDbSymbolTableRecord
100
AcDbLayerTableRecord
  2
MM_4_0_050
 70
0
 62
7
  6
CONTINUOUS
370
-3
390
F
  0
LAYER
  5
216
100
AcDbSymbolTableRecord
100
AcDbLayerTableRecord
  2
Part
 70
0
 62
7
  6
CONTINUOUS
370
-3
390
F
  0
LAYER
  5
217
100
AcDbSymbolTableRecord
100
AcDbLayerTableRecord
  2
SECTION
 70
0
 62
7
  6
CONTINUOUS
370
-3
390
F
  0
LAYER
  5
218
100
AcDbSymbolTableRecord
100
AcDbLayerTableRecord
  2
SECTIONS
 70
0
 62
7
  6
CONTINUOUS
370
-3
390
F
  0
LAYER
  5
219
100
AcDbSymbolTableRecord
100
AcDbLayerTableRecord
  2
TEXT
 70
0
 62
7
  6
CONTINUOUS
370
-3
390
F
  0
LAYER
  5
21A
100
AcDbSymbolTableRecord
100
AcDbLayerTableRecord
  2
Timber
 70
0
 62
7
  6
CONTINUOUS
370
-3
390
F
  0
LAYER
  5
21B
100
AcDbSymbolTableRecord
100
AcDbLayerTableRecord
  2
VIEWPORT
 70
0
 62
7
  6
CONTINUOUS
370
-3
390
F
  0
ENDTAB
  0
TABLE
  2
STYLE
  5
3
100
AcDbSymbolTable
 70
1
  0
STYLE
  5
11
100
AcDbSymbolTableRecord
100
AcDbTextStyleTableRecord
  2
STANDARD
 70
0
 40
0.0
 41
0.8
 50
0.0
 71
0
 42
0.2
  3
txt
  4

  0
STYLE
  5
21C
100
AcDbSymbolTableRecord
100
AcDbTextStyleTableRecord
  2
TEXTSTYLE_1
 70
0
 40
0.0
 41
0.8
 50
0.0
 71
0
 42
0.2
  3
gdt
  4

  0
STYLE
  5
21D
100
AcDbSymbolTableRecord
100
AcDbTextStyleTableRecord
  2
TEXTSTYLE_2
 70
0
 40
0.0
 41
0.9
 50
0.0
 71
0
 42
0.2
  3
txt
  4

  0
STYLE
  5
21E
100
AcDbSymbolTableRecord
100
AcDbTextStyleTableRecord
  2
TEXTSTYLE_3
 70
0
 40
0.0
 41
1.0
 50
0.0
 71
0
 42
0.2
  3
txt
  4

  0
STYLE
  5
21F
100
AcDbSymbolTableRecord
100
AcDbTextStyleTableRecord
  2
TEXTSTYLE_4
 70
0
 40
0.0
 41
1.0
 50
0.0
 71
0
 42
0.2
  3
gdt
  4

  0
ENDTAB
  0
TABLE
  2
VIEW
  5
6
100
AcDbSymbolTable
 70
0
  0
ENDTAB
  0
TABLE
  2
UCS
  5
7
100
AcDbSymbolTable
 70
0
  0
ENDTAB
  0
TABLE
  2
APPID
  5
9
100
AcDbSymbolTable
 70
1
  0
APPID
  5
220
100
AcDbSymbolTableRecord
100
AcDbRegAppTableRecord
  2
ACAD
 70
0
  0
ENDTAB
  0
TABLE
  2
BLOCK_RECORD
  5
1
100
AcDbSymbolTable
 70
0
  0
BLOCK_RECORD
  5
221
100
AcDbSymbolTableRecord
100
AcDbBlockTableRecord
  2
*Model_Space
  0
BLOCK_RECORD
  5
222
100
AcDbSymbolTableRecord
100
AcDbBlockTableRecord
  2
*Paper_Space
  0
ENDTAB
  0
TABLE
  2
DIMSTYLE
  5
A
100
AcDbSymbolTable
 70
1
100
AcDbDimStyleTable
 71
0
  0
DIMSTYLE
105
223
100
AcDbSymbolTableRecord
100
AcDbDimStyleTableRecord
  2
STANDARD
 70
0
  3

  4

 40
1.0
 41
4.5
 42
0.0625
 43
0.38
 44
0.18
 45
0.0
 46
0.0
 47
0.01
 48
0.01
140
4.0
141
0.09
142
0.0
143
25.4
144
1.0
145
0.0
146
1.0
147
0.09
 71
0.0
 72
0.0
 73
1
 74
1
 75
0
 76
0
 77
0
 78
0
170
0
171
2
172
0
173
0
174
0
175
0
176
0
177
0
178
0
270
2
271
2
272
2
273
2
274
2
275
0
280
0
281
0
282
0
283
1
284
0
285
0
286
0
287
3
288
0
340
11
  0
ENDTAB
  0
ENDSEC
  0
SECTION
  2
BLOCKS
  0
BLOCK
  5
20
100
AcDbEntity
  8
0
100
AcDbBlockBegin
  2
*Model_Space
 70
0
 10
0.0
 20
0.0
 30
0.0
  3
*Model_Space
  1

  0
ENDBLK
  5
21
100
AcDbEntity
  8
0
100
AcDbBlockEnd
  0
BLOCK
  5
1C
100
AcDbEntity
  8
0
100
AcDbBlockBegin
  2
*Paper_Space
 70
0
 10
0.0
 20
0.0
 30
0.0
  3
*Paper_Space
  1

  0
ENDBLK
  5
1D
100
AcDbEntity
  8
0
100
AcDbBlockEnd
  0
ENDSEC
  0
SECTION
  2
ENTITIES
  0
MTEXT
  5
224
100
AcDbEntity
  8
0_Title_Block
100
AcDbMText
 62
7
  6
CONTINUOUS
  7
TEXTSTYLE_2
 71
1
 72
1
 10
321.1739272994
 20
48.2988628578
 30
0.0
 11
1.0
 21
0.0
 31
0.0
 44
0.7831141949
  1
Project
 40
1.4985999465
 41
9.4411796629
  0
MTEXT
  5
225
100
AcDbEntity
  8
0_Title_Block
100
AcDbMText
 62
7
  6
CONTINUOUS
  7
TEXTSTYLE_2
 71
1
 72
1
 10
381.2581518943
 20
61.3307847915
 30
0.0
 11
1.0
 21
0.0
 31
0.0
 44
0.7831141949
  1
Tolerance
 40
1.4985999465
 41
12.1386595666
  0
MTEXT
  5
226
100
AcDbEntity
  8
0_Title_Block
100
AcDbMText
 62
7
  6
CONTINUOUS
  7
TEXTSTYLE_2
 71
1
 72
1
 10
334.9023718915
 20
68.6197490926
 30
0.0
 11
1.0
 21
0.0
 31
0.0
 44
0.7831141949
  1
Shear \Psize
 40
1.4985999465
 41
8.0924397111
  0
MTEXT
  5
227
100
AcDbEntity
  8
0_Title_Block
100
AcDbMText
 62
7
  6
CONTINUOUS
  7
TEXTSTYLE_2
 71
1
 72
1
 10
276.6661005773
 20
47.8610112972
 30
0.0
 11
1.0
 21
0.0
 31
0.0
 44
0.7831141949
  1
Department:
 40
1.4985999465
 41
14.8361394703
  0
MTEXT
  5
228
100
AcDbEntity
  8
0_Title_Block
100
AcDbMText
 62
7
  6
CONTINUOUS
  7
TEXTSTYLE_2
 71
1
 72
1
 10
222.1393699677
 20
59.3080856158
 30
0.0
 11
1.0
 21
0.0
 31
0.0
 44
0.7831141949
  1
Modifyed \P{\W0.8999999762;by}
 40
1.4985999465
 41
12.1386592451
  0
MTEXT
  5
229
100
AcDbEntity
  8
0_Title_Block
100
AcDbMText
 62
7
  6
CONTINUOUS
  7
TEXTSTYLE_2
 71
1
 72
1
 10
276.7493954651
 20
54.7391947581
 30
0.0
 11
1.0
 21
0.0
 31
0.0
 44
0.7831141949
  1
Unit
 40
1.4985999465
 41
5.3949598074
  0
MTEXT
  5
22A
100
AcDbEntity
  8
0_Title_Block
100
AcDbMText
 62
7
  6
CONTINUOUS
  7
TEXTSTYLE_2
 71
1
 72
1
 10
381.1742479398
 20
67.6352641969
 30
0.0
 11
1.0
 21
0.0
 31
0.0
 44
0.7831141949
  1
Weight 
 40
1.4985999465
 41
9.4411796629
  0
MTEXT
  5
22B
100
AcDbEntity
  8
0_Title_Block
100
AcDbMText
 62
7
  6
CONTINUOUS
  7
TEXTSTYLE_2
 71
1
 72
1
 10
320.9829986121
 20
67.6444202282
 30
0.0
 11
1.0
 21
0.0
 31
0.0
 44
0.7831141949
  1
Thickness
 40
1.4985999465
 41
12.1386595666
  0
MTEXT
  5
22C
100
AcDbEntity
  8
0_Title_Block
100
AcDbMText
 62
7
  6
CONTINUOUS
  7
TEXTSTYLE_2
 71
1
 72
1
 10
334.9336988947
 20
62.2586801399
 30
0.0
 11
1.0
 21
0.0
 31
0.0
 44
0.7831141949
  1
Part / \PTool No.
 40
1.4985999465
 41
10.7899196148
  0
MTEXT
  5
22D
100
AcDbEntity
  8
0_Title_Block
100
AcDbMText
 62
7
  6
CONTINUOUS
  7
TEXTSTYLE_2
 71
1
 72
1
 10
367.0126163979
 20
54.8764711675
 30
0.0
 11
1.0
 21
0.0
 31
0.0
 44
0.7831141949
  1
Remark
 40
1.4985999465
 41
8.0924397111
  0
MTEXT
  5
22E
100
AcDbEntity
  8
0_Title_Block
100
AcDbMText
 62
7
  6
CONTINUOUS
  7
TEXTSTYLE_2
 71
1
 72
1
 10
320.9922471018
 20
62.2602707076
 30
0.0
 11
1.0
 21
0.0
 31
0.0
 44
0.7831141949
  1
Part  \PGr.
 40
1.4985999465
 41
8.0924397111
  0
MTEXT
  5
22F
100
AcDbEntity
  8
0_Title_Block
100
AcDbMText
 62
7
  6
CONTINUOUS
  7
TEXTSTYLE_2
 71
1
 72
1
 10
276.4870444745
 20
59.3709410311
 30
0.0
 11
1.0
 21
0.0
 31
0.0
 44
0.7831141949
  1
Originate \Pfrom
 40
1.4985999465
 41
13.4873995185
  0
MTEXT
  5
230
100
AcDbEntity
  8
0_Title_Block
100
AcDbMText
 62
7
  6
CONTINUOUS
  7
TEXTSTYLE_2
 71
1
 72
1
 10
276.4720251339
 20
63.5622842865
 30
0.0
 11
1.0
 21
0.0
 31
0.0
 44
0.7831141949
  1
Replacement \Pfor
 40
1.4985999465
 41
16.1848794222
  0
MTEXT
  5
231
100
AcDbEntity
  8
0_Title_Block
100
AcDbMText
 62
7
  6
CONTINUOUS
  7
TEXTSTYLE_2
 71
1
 72
1
 10
276.4511390379
 20
67.6308839145
 30
0.0
 11
1.0
 21
0.0
 31
0.0
 44
0.7831141949
  1
Replaced \P{\W0.9;through}
 40
1.4985999465
 41
12.1386595666
  0
MTEXT
  5
232
100
AcDbEntity
  8
0_Title_Block
100
AcDbMText
 62
7
  6
CONTINUOUS
  7
TEXTSTYLE_2
 71
1
 72
1
 10
321.1708172478
 20
54.9252780648
 30
0.0
 11
1.0
 21
0.0
 31
0.0
 44
0.7831141949
  1
Material
 40
1.4985999465
 41
10.7899196148
  0
MTEXT
  5
233
100
AcDbEntity
  8
0_Title_Block
100
AcDbMText
 62
7
  6
CONTINUOUS
  7
TEXTSTYLE_2
 71
1
 72
1
 10
298.8651722826
 20
54.7916581007
 30
0.0
 11
1.0
 21
0.0
 31
0.0
 44
0.7831141949
  1
Scale
 40
1.4985999465
 41
6.7436997592
  0
MTEXT
  5
234
100
AcDbEntity
  8
0_Title_Block
100
AcDbMText
 62
7
  6
CONTINUOUS
  7
TEXTSTYLE_2
 71
1
 72
1
 10
366.6551496076
 20
48.2500145579
 30
0.0
 11
1.0
 21
0.0
 31
0.0
 44
0.7831141949
  1
Collection
 40
1.4985999465
 41
13.4873995185
  0
MTEXT
  5
235
100
AcDbEntity
  8
0_Title_Block
100
AcDbMText
 62
7
  6
CONTINUOUS
  7
TEXTSTYLE_2
 71
1
 72
1
 10
320.781297528
 20
18.1473860339
 30
0.0
 11
1.0
 21
0.0
 31
0.0
 44
0.7831141949
  1
Format
 40
1.4985999465
 41
8.0924397111
  0
MTEXT
  5
236
100
AcDbEntity
  8
0_Title_Block
100
AcDbMText
 62
7
  6
CONTINUOUS
  7
TEXTSTYLE_2
 71
1
 72
1
 10
399.184656352
 20
18.1738395225
 30
0.0
 11
1.0
 21
0.0
 31
0.0
 44
0.7831141949
  1
Rev.
 40
1.4985999465
 41
5.3949598074
  0
MTEXT
  5
237
100
AcDbEntity
  8
0_Title_Block
100
AcDbMText
 62
7
  6
CONTINUOUS
  7
TEXTSTYLE_2
 71
1
 72
1
 10
335.8879772073
 20
18.9905629821
 30
0.0
 11
1.0
 21
0.0
 31
0.0
 44
0.7831141949
  1
Drawing \PNo.
 40
1.4985999465
 41
10.7899196148
  0
MTEXT
  5
238
100
AcDbEntity
  8
0_Title_Block
100
AcDbMText
 62
7
  6
CONTINUOUS
  7
TEXTSTYLE_2
 71
1
 72
1
 10
222.2103630241
 20
54.8832344676
 30
0.0
 11
1.0
 21
0.0
 31
0.0
 44
0.7831141949
  1
Revision \P{\W0.8999999762;Description:}
 40
1.4985999465
 41
16.1848789934
  0
MTEXT
  5
239
100
AcDbEntity
  8
0_Title_Block
100
AcDbMText
 62
7
  6
CONTINUOUS
  7
TEXTSTYLE_2
 71
1
 72
1
 10
222.0922732438
 20
63.5048920369
 30
0.0
 11
1.0
 21
0.0
 31
0.0
 44
0.7831141949
  1
Checked \Pby
 40
1.4985999465
 41
10.789919329
  0
MTEXT
  5
23A
100
AcDbEntity
  8
0_Title_Block
100
AcDbMText
 62
7
  6
CONTINUOUS
  7
TEXTSTYLE_2
 71
1
 72
1
 10
222.0579797779
 20
67.841938246
 30
0.0
 11
1.0
 21
0.0
 31
0.0
 44
0.7831141949
  1
Drawn \Pby
 40
1.4985999465
 41
8.0924394967
  0
MTEXT
  5
23B
100
AcDbEntity
  8
0_Title_Block
100
AcDbMText
 62
7
  6
CONTINUOUS
  7
TEXTSTYLE_3
 71
1
 72
1
 10
354.3618432642
 20
64.9810526746
 30
0.0
 11
1.0
 21
0.0
 31
0.0
  1
X
 40
2.5
 41
2.5
  0
MTEXT
  5
23C
100
AcDbEntity
  8
0_Title_Block
100
AcDbMText
 62
7
  6
CONTINUOUS
  7
STANDARD
 71
1
 72
1
 10
298.8059071428
 20
52.2584286049
 30
0.0
 11
1.0
 21
0.0
 31
0.0
 44
0.6
  1
NTS
 40
2.5
 41
6.0
  0
MTEXT
  5
23D
100
AcDbEntity
  8
0_Title_Block
100
AcDbMText
 62
7
  6
CONTINUOUS
  7
STANDARD
 71
1
 72
1
 10
253.8635804781
 20
58.5237187582
 30
0.0
 11
1.0
 21
0.0
 31
0.0
 44
0.6
  1
09/01/2013
 40
2.0000000298
 41
16.0000002384
  0
MTEXT
  5
23E
100
AcDbEntity
  8
0_Title_Block
100
AcDbMText
 62
7
  6
CONTINUOUS
  7
STANDARD
 71
1
 72
1
 10
253.8635804781
 20
66.9946854514
 30
0.0
 11
1.0
 21
0.0
 31
0.0
 44
0.6
  1
20/12/2012
 40
2.0000000298
 41
16.0000002384
  0
MTEXT
  5
23F
100
AcDbEntity
  8
0_Title_Block
100
AcDbMText
 62
7
  6
CONTINUOUS
  7
STANDARD
 71
1
 72
1
 10
237.7284060123
 20
58.5397248558
 30
0.0
 11
1.0
 21
0.0
 31
0.0
 44
0.6
  1
OD000
 40
2.0000000298
 41
8.0000001192
  0
MTEXT
  5
240
100
AcDbEntity
  8
0_Title_Block
100
AcDbMText
 62
7
  6
CONTINUOUS
  7
STANDARD
 71
1
 72
1
 10
237.7284060123
 20
67.010691549
 30
0.0
 11
1.0
 21
0.0
 31
0.0
 44
0.6
  1
OD000
 40
2.0000000298
 41
8.0000001192
  0
MTEXT
  5
241
100
AcDbEntity
  8
0_Title_Block
100
AcDbMText
 62
7
  6
CONTINUOUS
  7
STANDARD
 71
1
 72
1
 10
276.5158534563
 20
52.4317832313
 30
0.0
 11
1.0
 21
0.0
 31
0.0
 44
0.6
  1
mm
 40
2.5
 41
4.0
  0
MTEXT
  5
242
100
AcDbEntity
  8
0_Title_Block
100
AcDbMText
 62
7
  6
CONTINUOUS
  7
STANDARD
 71
1
 72
1
 10
401.4366819291
 20
14.5580199037
 30
0.0
 11
1.0
 21
0.0
 31
0.0
 44
0.6
  1
A
 40
5.0
 41
4.0
  0
MTEXT
  5
243
100
AcDbEntity
  8
0_Title_Block
100
AcDbMText
 62
7
  6
CONTINUOUS
  7
STANDARD
 71
1
 72
1
 10
321.0089996191
 20
64.8950865483
 30
0.0
 11
1.0
 21
0.0
 31
0.0
 44
0.6
  1
1.5 THK
 40
2.5
 41
14.0
  0
MTEXT
  5
244
100
AcDbEntity
  8
0_Title_Block
100
AcDbMText
 62
7
  6
CONTINUOUS
  7
STANDARD
 71
1
 72
1
 10
349.618473016
 20
15.7931787065
 30
0.0
 11
1.0
 21
0.0
 31
0.0
 44
0.9
  1
S6380MY
 40
5.0
 41
28.0
  0
MTEXT
  5
245
100
AcDbEntity
  8
0_Title_Block
100
AcDbMText
 62
7
  6
CONTINUOUS
  7
STANDARD
 71
1
 72
1
 10
366.9080554835
 20
52.828158793
 30
0.0
 11
1.0
 21
0.0
 31
0.0
 44
0.6
  1
Based on G21568 G FS S
 40
2.5
 41
44.0
  0
MTEXT
  5
246
100
AcDbEntity
  8
0_Title_Block
100
AcDbMText
 62
7
  6
CONTINUOUS
  7
STANDARD
 71
1
 72
1
 10
321.2049847254
 20
52.8226378073
 30
0.0
 11
1.0
 21
0.0
 31
0.0
 44
0.6
  1
304 ST.ST
 40
2.5
 41
18.0
  0
MTEXT
  5
247
100
AcDbEntity
  8
0_Title_Block
100
AcDbMText
 62
7
  6
CONTINUOUS
  7
STANDARD
 71
1
 72
1
 10
367.2445692922
 20
45.7159991109
 30
0.0
 11
1.0
 21
0.0
 31
0.0
 44
0.6
  1
Devron Urinals
 40
3.4999999404
 41
39.1999993324
  0
MTEXT
  5
248
100
AcDbEntity
  8
0_Title_Block
100
AcDbMText
 62
7
  6
CONTINUOUS
  7
STANDARD
 71
1
 72
1
 10
321.2674512541
 20
45.8178200449
 30
0.0
 11
1.0
 21
0.0
 31
0.0
 44
0.6
  1
Armitage 2012
 40
3.4999999404
 41
36.3999993801
  0
MTEXT
  5
249
100
AcDbEntity
  8
0_Title_Block
100
AcDbMText
 62
7
  6
CONTINUOUS
  7
STANDARD
 71
1
 72
1
 10
321.6068514454
 20
23.9794437822
 30
0.0
 11
1.0
 21
0.0
 31
0.0
 44
0.6
  1
Length & Handing to Customer Spec.
 40
3.4999999404
 41
95.1999983788
  0
MTEXT
  5
24A
100
AcDbEntity
  8
0_Title_Block
100
AcDbMText
 62
7
  6
CONTINUOUS
  7
STANDARD
 71
1
 72
1
 10
321.8599467975
 20
30.185288688
 30
0.0
 11
1.0
 21
0.0
 31
0.0
 44
0.6
  1
Pol S/S up to 1200mm
 40
3.4999999404
 41
55.9999990463
  0
MTEXT
  5
24B
100
AcDbEntity
  8
0_Title_Block
100
AcDbMText
 62
7
  6
CONTINUOUS
  7
STANDARD
 71
1
 72
1
 10
321.3262941098
 20
38.3215383105
 30
0.0
 11
1.0
 21
0.0
 31
0.0
 44
0.6
  1
Devron Urinal S6380MY
 40
5.0
 41
84.0
  0
MTEXT
  5
24C
100
AcDbEntity
  8
Format_A3
100
AcDbMText
 62
1
  6
CONTINUOUS
  7
TEXTSTYLE_3
 71
1
 72
1
 10
412.5294359542
 20
264.2482201706
 30
0.0
 11
1.0
 21
0.0
 31
0.0
 44
0.6
  1
A
 40
3.999992
 41
3.999992
  0
MTEXT
  5
24D
100
AcDbEntity
  8
Format_A3
100
AcDbMText
 62
1
  6
CONTINUOUS
  7
TEXTSTYLE_3
 71
1
 72
1
 10
412.5294359542
 20
218.2483121706
 30
0.0
 11
1.0
 21
0.0
 31
0.0
 44
0.6
  1
B
 40
3.999992
 41
3.999992
  0
MTEXT
  5
24E
100
AcDbEntity
  8
Format_A3
100
AcDbMText
 62
1
  6
CONTINUOUS
  7
TEXTSTYLE_3
 71
1
 72
1
 10
412.5294359542
 20
172.2484041706
 30
0.0
 11
1.0
 21
0.0
 31
0.0
 44
0.6
  1
C
 40
3.999992
 41
3.999992
  0
MTEXT
  5
24F
100
AcDbEntity
  8
Format_A3
100
AcDbMText
 62
1
  6
CONTINUOUS
  7
TEXTSTYLE_3
 71
1
 72
1
 10
412.5294359542
 20
125.2484981706
 30
0.0
 11
1.0
 21
0.0
 31
0.0
 44
0.6
  1
D
 40
3.999992
 41
3.999992
  0
MTEXT
  5
250
100
AcDbEntity
  8
Format_A3
100
AcDbMText
 62
1
  6
CONTINUOUS
  7
TEXTSTYLE_3
 71
1
 72
1
 10
412.5294359542
 20
79.2485901705
 30
0.0
 11
1.0
 21
0.0
 31
0.0
 44
0.6
  1
E
 40
3.999992
 41
3.999992
  0
MTEXT
  5
251
100
AcDbEntity
  8
Format_A3
100
AcDbMText
 62
1
  6
CONTINUOUS
  7
TEXTSTYLE_3
 71
1
 72
1
 10
412.5294359542
 20
33.2486821705
 30
0.0
 11
1.0
 21
0.0
 31
0.0
 44
0.6
  1
F
 40
3.999992
 41
3.999992
  0
MTEXT
  5
252
100
AcDbEntity
  8
Format_A3
100
AcDbMText
 62
1
  6
CONTINUOUS
  7
TEXTSTYLE_3
 71
1
 72
1
 10
385.5294899542
 20
289.7481691706
 30
0.0
 11
1.0
 21
0.0
 31
0.0
 44
0.6
  1
8
 40
3.999992
 41
3.999992
  0
MTEXT
  5
253
100
AcDbEntity
  8
Format_A3
100
AcDbMText
 62
1
  6
CONTINUOUS
  7
TEXTSTYLE_3
 71
1
 72
1
 10
335.5295899542
 20
289.7481691706
 30
0.0
 11
1.0
 21
0.0
 31
0.0
 44
0.6
  1
7
 40
3.999992
 41
3.999992
  0
MTEXT
  5
254
100
AcDbEntity
  8
Format_A3
100
AcDbMText
 62
1
  6
CONTINUOUS
  7
TEXTSTYLE_3
 71
1
 72
1
 10
285.5296899542
 20
289.7481691706
 30
0.0
 11
1.0
 21
0.0
 31
0.0
 44
0.6
  1
6
 40
3.999992
 41
3.999992
  0
MTEXT
  5
255
100
AcDbEntity
  8
Format_A3
100
AcDbMText
 62
1
  6
CONTINUOUS
  7
TEXTSTYLE_3
 71
1
 72
1
 10
235.0297909542
 20
289.7481691706
 30
0.0
 11
1.0
 21
0.0
 31
0.0
 44
0.6
  1
5
 40
3.999992
 41
3.999992
  0
MTEXT
  5
256
100
AcDbEntity
  8
Format_A3
100
AcDbMText
 62
1
  6
CONTINUOUS
  7
TEXTSTYLE_3
 71
1
 72
1
 10
185.0298909542
 20
289.7481691706
 30
0.0
 11
1.0
 21
0.0
 31
0.0
 44
0.6
  1
4
 40
3.999992
 41
3.999992
  0
MTEXT
  5
257
100
AcDbEntity
  8
Format_A3
100
AcDbMText
 62
1
  6
CONTINUOUS
  7
TEXTSTYLE_3
 71
1
 72
1
 10
135.0299909542
 20
289.7481691706
 30
0.0
 11
1.0
 21
0.0
 31
0.0
 44
0.6
  1
3
 40
3.999992
 41
3.999992
  0
MTEXT
  5
258
100
AcDbEntity
  8
Format_A3
100
AcDbMText
 62
1
  6
CONTINUOUS
  7
TEXTSTYLE_3
 71
1
 72
1
 10
85.0300909542
 20
289.7481691706
 30
0.0
 11
1.0
 21
0.0
 31
0.0
 44
0.6
  1
2
 40
3.999992
 41
3.999992
  0
MTEXT
  5
259
100
AcDbEntity
  8
Format_A3
100
AcDbMText
 62
1
  6
CONTINUOUS
  7
TEXTSTYLE_3
 71
1
 72
1
 10
35.0301909542
 20
289.7481691706
 30
0.0
 11
1.0
 21
0.0
 31
0.0
 44
0.6
  1
1
 40
3.999992
 41
3.999992
  0
MTEXT
  5
25A
100
AcDbEntity
  8
Format_A3
100
AcDbMText
 62
1
  6
CONTINUOUS
  7
TEXTSTYLE_3
 71
1
 72
1
 10
35.0301909542
 20
7.7487331705
 30
0.0
 11
1.0
 21
0.0
 31
0.0
 44
0.6
  1
1
 40
3.999992
 41
3.999992
  0
MTEXT
  5
25B
100
AcDbEntity
  8
Format_A3
100
AcDbMText
 62
1
  6
CONTINUOUS
  7
TEXTSTYLE_3
 71
1
 72
1
 10
85.0300909542
 20
7.7487331705
 30
0.0
 11
1.0
 21
0.0
 31
0.0
 44
0.6
  1
2
 40
3.999992
 41
3.999992
  0
MTEXT
  5
25C
100
AcDbEntity
  8
Format_A3
100
AcDbMText
 62
1
  6
CONTINUOUS
  7
TEXTSTYLE_3
 71
1
 72
1
 10
135.0299909542
 20
7.7487331705
 30
0.0
 11
1.0
 21
0.0
 31
0.0
 44
0.6
  1
3
 40
3.999992
 41
3.999992
  0
MTEXT
  5
25D
100
AcDbEntity
  8
Format_A3
100
AcDbMText
 62
1
  6
CONTINUOUS
  7
TEXTSTYLE_3
 71
1
 72
1
 10
185.0298909542
 20
7.7487331705
 30
0.0
 11
1.0
 21
0.0
 31
0.0
 44
0.6
  1
4
 40
3.999992
 41
3.999992
  0
MTEXT
  5
25E
100
AcDbEntity
  8
Format_A3
100
AcDbMText
 62
1
  6
CONTINUOUS
  7
TEXTSTYLE_3
 71
1
 72
1
 10
7.5302459541
 20
264.2482201706
 30
0.0
 11
1.0
 21
0.0
 31
0.0
 44
0.6
  1
A
 40
3.999992
 41
3.999992
  0
MTEXT
  5
25F
100
AcDbEntity
  8
Format_A3
100
AcDbMText
 62
1
  6
CONTINUOUS
  7
TEXTSTYLE_3
 71
1
 72
1
 10
7.5302459541
 20
218.2483121706
 30
0.0
 11
1.0
 21
0.0
 31
0.0
 44
0.6
  1
B
 40
3.999992
 41
3.999992
  0
MTEXT
  5
260
100
AcDbEntity
  8
Format_A3
100
AcDbMText
 62
1
  6
CONTINUOUS
  7
TEXTSTYLE_3
 71
1
 72
1
 10
7.5302459541
 20
172.2484041706
 30
0.0
 11
1.0
 21
0.0
 31
0.0
 44
0.6
  1
C
 40
3.999992
 41
3.999992
  0
MTEXT
  5
261
100
AcDbEntity
  8
Format_A3
100
AcDbMText
 62
1
  6
CONTINUOUS
  7
TEXTSTYLE_3
 71
1
 72
1
 10
7.5302459541
 20
125.2484981706
 30
0.0
 11
1.0
 21
0.0
 31
0.0
 44
0.6
  1
D
 40
3.999992
 41
3.999992
  0
MTEXT
  5
262
100
AcDbEntity
  8
Format_A3
100
AcDbMText
 62
1
  6
CONTINUOUS
  7
TEXTSTYLE_3
 71
1
 72
1
 10
7.5302459541
 20
79.2485901705
 30
0.0
 11
1.0
 21
0.0
 31
0.0
 44
0.6
  1
E
 40
3.999992
 41
3.999992
  0
MTEXT
  5
263
100
AcDbEntity
  8
Format_A3
100
AcDbMText
 62
1
  6
CONTINUOUS
  7
TEXTSTYLE_3
 71
1
 72
1
 10
7.5302459541
 20
33.2486821705
 30
0.0
 11
1.0
 21
0.0
 31
0.0
 44
0.6
  1
F
 40
3.999992
 41
3.999992
  0
MTEXT
  5
264
100
AcDbEntity
  8
Format_A3
100
AcDbMText
 62
1
  6
CONTINUOUS
  7
TEXTSTYLE_3
 71
1
 72
1
 10
235.0297909542
 20
7.7487331705
 30
0.0
 11
1.0
 21
0.0
 31
0.0
 44
0.6
  1
5
 40
3.999992
 41
3.999992
  0
MTEXT
  5
265
100
AcDbEntity
  8
Format_A3
100
AcDbMText
 62
1
  6
CONTINUOUS
  7
TEXTSTYLE_3
 71
1
 72
1
 10
285.5296899542
 20
7.7487331705
 30
0.0
 11
1.0
 21
0.0
 31
0.0
 44
0.6
  1
6
 40
3.999992
 41
3.999992
  0
MTEXT
  5
266
100
AcDbEntity
  8
Format_A3
100
AcDbMText
 62
1
  6
CONTINUOUS
  7
TEXTSTYLE_3
 71
1
 72
1
 10
335.5295899542
 20
7.7487331705
 30
0.0
 11
1.0
 21
0.0
 31
0.0
 44
0.6
  1
7
 40
3.999992
 41
3.999992
  0
MTEXT
  5
267
100
AcDbEntity
  8
Format_A3
100
AcDbMText
 62
1
  6
CONTINUOUS
  7
TEXTSTYLE_3
 71
1
 72
1
 10
385.5294899542
 20
7.7487331705
 30
0.0
 11
1.0
 21
0.0
 31
0.0
 44
0.6
  1
8
 40
3.999992
 41
3.999992
  0
MTEXT
  5
268
100
AcDbEntity
  8
Format_A3
100
AcDbMText
 62
7
  6
CONTINUOUS
  7
TEXTSTYLE_2
 71
1
 72
1
 10
323.5524839605
 20
13.8806317201
 30
0.0
 11
1.0
 21
0.0
 31
0.0
 44
0.7831141949
  1
A3
 40
4.99999
 41
8.999982
  0
MTEXT
  5
269
100
AcDbEntity
  8
0
100
AcDbMText
 62
1
  6
CONTINUOUS
  7
TEXTSTYLE_3
 71
1
 72
1
 10
328.4656946356
 20
219.7640405412
 30
0.0
 11
1.0
 21
0.0
 31
0.0
  1
SUPPLIED WITH - \P \PTRI-SHELL AUTO CISTERN 9.0L (BLACK)\P \PSS DOWNPIPE FOR PLASTIC CISTERN.
 40
2.231431726
 41
78.100110409
  0
MTEXT
  5
26A
100
AcDbEntity
  8
DIMS
100
AcDbMText
 62
6
  6
CONTINUOUS
  7
TEXTSTYLE_3
 71
2
 72
1
 10
231.4390133068
 20
196.5648550565
 30
0.0
 11
-0.0
 21
1.0
 31
0.0
  1
735
 40
2.9752423013
 41
8.9257269039
  0
MTEXT
  5
26B
100
AcDbEntity
  8
DIMS
100
AcDbMText
 62
6
  6
CONTINUOUS
  7
TEXTSTYLE_3
 71
2
 72
1
 10
29.4599574431
 20
245.1356856251
 30
0.0
 11
-0.0
 21
1.0
 31
0.0
  1
82
 40
2.9752423013
 41
5.9504846026
  0
MTEXT
  5
26C
100
AcDbEntity
  8
DIMS
100
AcDbMText
 62
6
  6
CONTINUOUS
  7
TEXTSTYLE_3
 71
2
 72
1
 10
231.4390133068
 20
118.4647446475
 30
0.0
 11
0.0
 21
1.0
 31
0.0
  1
315
 40
2.9752423013
 41
8.9257269039
  0
MTEXT
  5
26D
100
AcDbEntity
  8
0
100
AcDbMText
 62
1
  6
CONTINUOUS
  7
TEXTSTYLE_3
 71
1
 72
1
 10
118.6442912922
 20
151.6610131064
 30
0.0
 11
0.999390827
 21
-0.0348994967
 31
0.0
 44
0.6
  1
30mm FALL
 40
2.0826696109
 41
18.7440264982
  0
MTEXT
  5
26E
100
AcDbEntity
  8
DIMS
100
AcDbMText
 62
6
  6
CONTINUOUS
  7
TEXTSTYLE_3
 71
2
 72
1
 10
204.8939313959
 20
83.0857503224
 30
0.0
 11
1.0
 21
0.0
 31
0.0
  1
140.5
 40
2.9752423013
 41
14.8762115065
  0
MTEXT
  5
26F
100
AcDbEntity
  8
DIMS
100
AcDbMText
 62
6
  6
CONTINUOUS
  7
TEXTSTYLE_3
 71
2
 72
1
 10
26.8224912666
 20
139.3761462289
 30
0.0
 11
1.0
 21
0.0
 31
0.0
  1
1.5
 40
2.9752423013
 41
8.9257269039
  0
MTEXT
  5
270
100
AcDbEntity
  8
DIMS
100
AcDbMText
 62
6
  6
CONTINUOUS
  7
TEXTSTYLE_3
 71
2
 72
1
 10
222.1805505504
 20
260.4085961051
 30
0.0
 11
-0.0
 21
1.0
 31
0.0
  1
34
 40
2.9752423013
 41
5.9504846026
  0
MTEXT
  5
271
100
AcDbEntity
  8
0
100
AcDbMText
 62
1
  6
CONTINUOUS
  7
TEXTSTYLE_3
 71
1
 72
1
 10
150.9280023816
 20
82.8278208786
 30
0.0
 11
1.0
 21
0.0
 31
0.0
 44
0.6
  1
EARTHING LUG
 40
2.0826696109
 41
24.9920353309
  0
MTEXT
  5
272
100
AcDbEntity
  8
DIMS
100
AcDbMText
 62
2
  6
CONTINUOUS
  7
TEXTSTYLE_3
 71
2
 72
1
 10
28.4083156042
 20
100.9851961274
 30
0.0
 11
0.0
 21
1.0
 31
0.0
  1
80
 40
2.9752423013
 41
5.9504846026
  0
MTEXT
  5
273
100
AcDbEntity
  8
DIMS
100
AcDbMText
 62
2
  6
CONTINUOUS
  7
TEXTSTYLE_3
 71
2
 72
1
 10
222.0566928172
 20
100.9851961274
 30
0.0
 11
0.0
 21
1.0
 31
0.0
  1
80
 40
2.9752423013
 41
5.9504846026
  0
MTEXT
  5
274
100
AcDbEntity
  8
DIMS
100
AcDbMText
 62
2
  6
CONTINUOUS
  7
TEXTSTYLE_3
 71
2
 72
1
 10
224.0506793415
 20
90.5785666413
 30
0.0
 11
1.0
 21
0.0
 31
0.0
  1
60.5
 40
2.9752423013
 41
11.9009692052
  0
MTEXT
  5
275
100
AcDbEntity
  8
DIMS
100
AcDbMText
 62
2
  6
CONTINUOUS
  7
TEXTSTYLE_3
 71
2
 72
1
 10
126.3103441129
 20
90.5785666413
 30
0.0
 11
1.0
 21
0.0
 31
0.0
  1
1076
 40
2.9752423013
 41
11.9009692052
  0
MTEXT
  5
276
100
AcDbEntity
  8
DIMS
100
AcDbMText
 62
2
  6
CONTINUOUS
  7
TEXTSTYLE_4
 71
2
 72
1
 10
25.7680908641
 20
86.7510765487
 30
0.0
 11
0.6754905282
 21
0.7373686637
 31
0.0
  1
{\Fgdt;n}\Ftxt;8 TYP
 40
2.9752423013
 41
18.8432012415
  0
MTEXT
  5
277
100
AcDbEntity
  8
DIMS
100
AcDbMText
 62
2
  6
CONTINUOUS
  7
TEXTSTYLE_3
 71
2
 72
1
 10
18.5593237544
 20
173.1348219338
 30
0.0
 11
0.0
 21
1.0
 31
0.0
  1
1050
 40
2.9752423013
 41
11.9009692052
  0
MTEXT
  5
278
100
AcDbEntity
  8
DIMS
100
AcDbMText
 62
2
  6
CONTINUOUS
  7
TEXTSTYLE_3
 71
2
 72
1
 10
126.3103441129
 20
271.074465181
 30
0.0
 11
1.0
 21
0.0
 31
0.0
  1
UP TO 1200
 40
2.9752423013
 41
29.752423013
  0
MTEXT
  5
279
100
AcDbEntity
  8
0
100
AcDbMText
 62
1
  6
CONTINUOUS
  7
TEXTSTYLE_3
 71
1
 72
1
 10
329.2876843594
 20
173.6527457247
 30
0.0
 11
1.0
 21
0.0
 31
0.0
  1
HANDING OF WASTE AND EXACT \PLENGTH REQUIRED TO BE \PSPECIFIED BY CUSTOMER
 40
2.9752423013
 41
80.331542135
  0
MTEXT
  5
27A
100
AcDbEntity
  8
0
100
AcDbMText
 62
1
  6
CONTINUOUS
  7
TEXTSTYLE_3
 71
1
 72
1
 10
106.564197445
 20
20.8844817719
 30
0.0
 11
1.0
 21
0.0
 31
0.0
 44
0.6
  1
2" BSP DOME HINGED BRASS WASTE
 40
2.0826696109
 41
62.4800883272
  0
MTEXT
  5
27B
100
AcDbEntity
  8
DIMS
100
AcDbMText
 62
2
  6
CONTINUOUS
  7
TEXTSTYLE_3
 71
2
 72
1
 10
24.9187221265
 20
39.8056126208
 30
0.0
 11
0.0
 21
1.0
 31
0.0
  1
61
 40
2.9752423013
 41
5.9504846026
  0
MTEXT
  5
27C
100
AcDbEntity
  8
DIMS
100
AcDbMText
 62
2
  6
CONTINUOUS
  7
TEXTSTYLE_3
 71
2
 72
1
 10
17.8716665558
 20
48.1342929629
 30
0.0
 11
0.0
 21
1.0
 31
0.0
  1
305
 40
2.9752423013
 41
8.9257269039
  0
MTEXT
  5
27D
100
AcDbEntity
  8
DIMS
100
AcDbMText
 62
2
  6
CONTINUOUS
  7
TEXTSTYLE_3
 71
2
 72
1
 10
24.9187221265
 20
55.9579364542
 30
0.0
 11
0.0
 21
1.0
 31
0.0
  1
60
 40
2.9752423013
 41
5.9504846026
  0
MTEXT
  5
27E
100
AcDbEntity
  8
DIMS
100
AcDbMText
 62
2
  6
CONTINUOUS
  7
TEXTSTYLE_3
 71
2
 72
1
 10
203.4717806661
 20
20.0767345951
 30
0.0
 11
1.0
 21
0.0
 31
0.0
  1
42
 40
2.9752423013
 41
5.9504846026
  0
MTEXT
  5
27F
100
AcDbEntity
  8
DIMS
100
AcDbMText
 62
2
  6
CONTINUOUS
  7
TEXTSTYLE_3
 71
2
 72
1
 10
51.315422269
 20
19.5732528993
 30
0.0
 11
1.0
 21
0.0
 31
0.0
  1
42
 40
2.9752423013
 41
5.9504846026
  0
MTEXT
  5
280
100
AcDbEntity
  8
DIMS
100
AcDbMText
 62
6
  6
CONTINUOUS
  7
TEXTSTYLE_3
 71
2
 72
1
 10
110.4471138177
 20
79.7462424142
 30
0.0
 11
0.0
 21
1.0
 31
0.0
  1
20
 40
2.9752423013
 41
5.9504846026
  0
MTEXT
  5
281
100
AcDbEntity
  8
DIMS
100
AcDbMText
 62
6
  6
CONTINUOUS
  7
TEXTSTYLE_3
 71
2
 72
1
 10
294.7421673339
 20
138.9558128958
 30
0.0
 11
1.0
 21
0.0
 31
0.0
  1
20
 40
2.9752423013
 41
5.9504846026
  0
MTEXT
  5
282
100
AcDbEntity
  8
0
100
AcDbMText
 62
1
  6
CONTINUOUS
  7
TEXTSTYLE_3
 71
1
 72
1
 10
254.8509312405
 20
241.1352621502
 30
0.0
 11
1.0
 21
0.0
 31
0.0
 44
0.6
  1
JOGGLE
 40
2.0826696109
 41
12.4960176654
  0
MTEXT
  5
283
100
AcDbEntity
  8
DIMS
100
AcDbMText
 62
6
  6
CONTINUOUS
  7
TEXTSTYLE_4
 71
2
 72
1
 10
327.1627055506
 20
100.3785266864
 30
0.0
 11
0.9627288587
 21
-0.2704683799
 31
0.0
  1
{\Fgdt;n}\Ftxt;100
 40
2.9752423013
 41
12.8927166389
  0
MTEXT
  5
284
100
AcDbEntity
  8
DIMS
100
AcDbMText
 62
6
  6
CONTINUOUS
  7
TEXTSTYLE_3
 71
2
 72
1
 10
292.7710693093
 20
81.1759392214
 30
0.0
 11
1.0
 21
0.0
 31
0.0
  1
253.5
 40
2.9752423013
 41
14.8762115065
  0
MTEXT
  5
285
100
AcDbEntity
  8
DIMS
100
AcDbMText
 62
6
  6
CONTINUOUS
  7
TEXTSTYLE_3
 71
2
 72
1
 10
315.3457202703
 20
81.2964089723
 30
0.0
 11
1.0
 21
0.0
 31
0.0
  1
50
 40
2.9752423013
 41
5.9504846026
  0
MTEXT
  5
286
100
AcDbEntity
  8
DIMS
100
AcDbMText
 62
6
  6
CONTINUOUS
  7
TEXTSTYLE_3
 71
2
 72
1
 10
259.8922144404
 20
99.8694802644
 30
0.0
 11
0.0
 21
1.0
 31
0.0
  1
65
 40
2.9752423013
 41
5.9504846026
  0
MTEXT
  5
287
100
AcDbEntity
  8
DIMS
100
AcDbMText
 62
6
  6
CONTINUOUS
  7
TEXTSTYLE_3
 71
2
 72
1
 10
249.9975063149
 20
110.6547336066
 30
0.0
 11
0.0
 21
1.0
 31
0.0
  1
210
 40
2.9752423013
 41
8.9257269039
  0
MTEXT
  5
288
100
AcDbEntity
  8
DIMS
100
AcDbMText
 62
6
  6
CONTINUOUS
  7
TEXTSTYLE_3
 71
2
 72
1
 10
285.9652025451
 20
90.0906927889
 30
0.0
 11
1.0
 21
0.0
 31
0.0
  1
162
 40
2.9752423013
 41
8.9257269039
  0
MTEXT
  5
289
100
AcDbEntity
  8
DIMS
100
AcDbMText
 62
6
  6
CONTINUOUS
  7
TEXTSTYLE_3
 71
2
 72
1
 10
296.6016937722
 20
267.523939411
 30
0.0
 11
1.0
 21
0.0
 31
0.0
  1
305
 40
2.9752423013
 41
8.9257269039
  0
LINE
  5
28A
100
AcDbEntity
  8
0
100
AcDbLine
 62
7
  6
CONTINUOUS
 10
0.0
 20
-0.0
 11
0.0
 21
297.0
  0
LINE
  5
28B
100
AcDbEntity
  8
Format_A3
100
AcDbLine
 62
1
  6
CONTINUOUS
 10
1.5302579541
 20
-1.7512478295
 11
1.5302579541
 21
295.2481581706
  0
LINE
  5
28C
100
AcDbEntity
  8
VIEWPORT
100
AcDbLine
 62
9
  6
CONTINUOUS
 10
6.4594121902
 20
3.2487421705
 11
6.4594121902
 21
290.2481681705
  0
LINE
  5
28D
100
AcDbEntity
  8
Format_A3
100
AcDbLine
 62
7
  6
CONTINUOUS
 10
6.5302479541
 20
3.2487421705
 11
6.5302479541
 21
290.2481681706
  0
LINE
  5
28E
100
AcDbEntity
  8
DIMS
100
AcDbLine
 62
2
  6
CONTINUOUS
 10
20.0469449051
 20
251.2349323428
 11
19.6750396174
 21
249.0035006168
  0
LINE
  5
28F
100
AcDbEntity
  8
DIMS
100
AcDbLine
 62
2
  6
CONTINUOUS
 10
20.4188501927
 20
249.0035006168
 11
20.0469449051
 21
251.2349323428
  0
LINE
  5
290
100
AcDbEntity
  8
DIMS
100
AcDbLine
 62
2
  6
CONTINUOUS
 10
19.6750396174
 20
249.0035006168
 11
20.4188501927
 21
249.0035006168
  0
HATCH
  5
291
100
AcDbEntity
  8
DIMS
100
AcDbHatch
 62
2
  6
CONTINUOUS
 10
0.0
 20
0.0
 30
0.0
210
0.0
220
0.0
230
1.0
  2

 70
1
 71
1
 91
1
 92
1
 93
3
 72
1
 10
19.6750396174
 20
249.0035006168
 11
20.4188501927
 21
249.0035006168
 72
1
 10
20.4188501927
 20
249.0035006168
 11
20.0469449051
 21
251.2349323428
 72
1
 10
20.0469449051
 20
251.2349323428
 11
19.6750396174
 21
249.0035006168
 97
3
330
28E
330
28F
330
290
 75
0
 76
1
 98
1
 10
0.0
 20
0.0
  0
LINE
  5
292
100
AcDbEntity
  8
DIMS
100
AcDbLine
 62
2
  6
CONTINUOUS
 10
19.3592877064
 20
25.4480704156
 11
18.9873824187
 21
27.6795021415
  0
LINE
  5
293
100
AcDbEntity
  8
DIMS
100
AcDbLine
 62
2
  6
CONTINUOUS
 10
19.7311929941
 20
27.6795021415
 11
19.3592877064
 21
25.4480704156
  0
LINE
  5
294
100
AcDbEntity
  8
DIMS
100
AcDbLine
 62
2
  6
CONTINUOUS
 10
18.9873824187
 20
27.6795021415
 11
19.7311929941
 21
27.6795021415
  0
HATCH
  5
295
100
AcDbEntity
  8
DIMS
100
AcDbHatch
 62
2
  6
CONTINUOUS
 10
0.0
 20
0.0
 30
0.0
210
0.0
220
0.0
230
1.0
  2

 70
1
 71
1
 91
1
 92
1
 93
3
 72
1
 10
18.9873824187
 20
27.6795021415
 11
19.7311929941
 21
27.6795021415
 72
1
 10
19.7311929941
 20
27.6795021415
 11
19.3592877064
 21
25.4480704156
 72
1
 10
19.3592877064
 20
25.4480704156
 11
18.9873824187
 21
27.6795021415
 97
3
330
292
330
293
330
294
 75
0
 76
1
 98
1
 10
0.0
 20
0.0
  0
LINE
  5
296
100
AcDbEntity
  8
Format_A3
100
AcDbLine
 62
1
  6
CONTINUOUS
 10
11.5302379541
 20
8.2487321705
 11
11.5302379541
 21
285.2481781706
  0
LINE
  5
297
100
AcDbEntity
  8
DIMS
100
AcDbLine
 62
2
  6
CONTINUOUS
 10
19.3592877064
 20
68.5890837844
 11
19.3592877064
 21
52.4483942998
  0
LINE
  5
298
100
AcDbEntity
  8
DIMS
100
AcDbLine
 62
2
  6
CONTINUOUS
 10
19.3592877064
 20
27.6795021415
 11
19.3592877064
 21
43.8201916261
  0
LINE
  5
299
100
AcDbEntity
  8
DIMS
100
AcDbLine
 62
2
  6
CONTINUOUS
 10
20.0469449051
 20
249.0035006168
 11
20.0469449051
 21
178.192733846
  0
LINE
  5
29A
100
AcDbEntity
  8
DIMS
100
AcDbLine
 62
2
  6
CONTINUOUS
 10
20.0469449051
 20
97.2661432508
 11
20.0469449051
 21
168.0769100216
  0
LINE
  5
29B
100
AcDbEntity
  8
DIMS
100
AcDbLine
 62
6
  6
CONTINUOUS
 10
28.2202731509
 20
248.2596900415
 11
28.7161468678
 21
251.2349323428
  0
LINE
  5
29C
100
AcDbEntity
  8
DIMS
100
AcDbLine
 62
6
  6
CONTINUOUS
 10
28.7161468678
 20
251.2349323428
 11
29.2120205846
 21
248.2596900415
  0
LINE
  5
29D
100
AcDbEntity
  8
DIMS
100
AcDbLine
 62
6
  6
CONTINUOUS
 10
29.2120205846
 20
248.2596900415
 11
28.2202731509
 21
248.2596900415
  0
HATCH
  5
29E
100
AcDbEntity
  8
DIMS
100
AcDbHatch
 62
6
  6
CONTINUOUS
 10
0.0
 20
0.0
 30
0.0
210
0.0
220
0.0
230
1.0
  2

 70
1
 71
1
 91
1
 92
1
 93
3
 72
1
 10
28.7161468678
 20
251.2349323428
 11
29.2120205846
 21
248.2596900415
 72
1
 10
29.2120205846
 20
248.2596900415
 11
28.2202731509
 21
248.2596900415
 72
1
 10
28.2202731509
 20
248.2596900415
 11
28.7161468678
 21
251.2349323428
 97
3
330
29B
330
29C
330
29D
 75
0
 76
1
 98
1
 10
0.0
 20
0.0
  0
LINE
  5
29F
100
AcDbEntity
  8
DIMS
100
AcDbLine
 62
6
  6
CONTINUOUS
 10
28.7161468678
 20
239.0364389075
 11
29.2120205846
 21
242.0116812088
  0
LINE
  5
2A0
100
AcDbEntity
  8
DIMS
100
AcDbLine
 62
6
  6
CONTINUOUS
 10
28.2202731509
 20
242.0116812088
 11
28.7161468678
 21
239.0364389075
  0
LINE
  5
2A1
100
AcDbEntity
  8
DIMS
100
AcDbLine
 62
6
  6
CONTINUOUS
 10
29.2120205846
 20
242.0116812088
 11
28.2202731509
 21
242.0116812088
  0
HATCH
  5
2A2
100
AcDbEntity
  8
DIMS
100
AcDbHatch
 62
6
  6
CONTINUOUS
 10
0.0
 20
0.0
 30
0.0
210
0.0
220
0.0
230
1.0
  2

 70
1
 71
1
 91
1
 92
1
 93
3
 72
1
 10
29.2120205846
 20
242.0116812088
 11
28.2202731509
 21
242.0116812088
 72
1
 10
28.2202731509
 20
242.0116812088
 11
28.7161468678
 21
239.0364389075
 72
1
 10
28.7161468678
 20
239.0364389075
 11
29.2120205846
 21
242.0116812088
 97
3
330
29F
330
2A0
330
2A1
 75
0
 76
1
 98
1
 10
0.0
 20
0.0
  0
LINE
  5
2A3
100
AcDbEntity
  8
DIMS
100
AcDbLine
 62
2
  6
CONTINUOUS
 10
26.4063432771
 20
25.4480704156
 11
26.0344379895
 21
27.6795021415
  0
LINE
  5
2A4
100
AcDbEntity
  8
DIMS
100
AcDbLine
 62
2
  6
CONTINUOUS
 10
26.7782485648
 20
27.6795021415
 11
26.4063432771
 21
25.4480704156
  0
LINE
  5
2A5
100
AcDbEntity
  8
DIMS
100
AcDbLine
 62
2
  6
CONTINUOUS
 10
26.0344379895
 20
27.6795021415
 11
26.7782485648
 21
27.6795021415
  0
HATCH
  5
2A6
100
AcDbEntity
  8
DIMS
100
AcDbHatch
 62
2
  6
CONTINUOUS
 10
0.0
 20
0.0
 30
0.0
210
0.0
220
0.0
230
1.0
  2

 70
1
 71
1
 91
1
 92
1
 93
3
 72
1
 10
26.0344379895
 20
27.6795021415
 11
26.7782485648
 21
27.6795021415
 72
1
 10
26.7782485648
 20
27.6795021415
 11
26.4063432771
 21
25.4480704156
 72
1
 10
26.4063432771
 20
25.4480704156
 11
26.0344379895
 21
27.6795021415
 97
3
330
2A3
330
2A4
330
2A5
 75
0
 76
1
 98
1
 10
0.0
 20
0.0
  0
LINE
  5
2A7
100
AcDbEntity
  8
DIMS
100
AcDbLine
 62
2
  6
CONTINUOUS
 10
19.7311929941
 20
68.5890837844
 11
19.3592877064
 21
70.8205155103
  0
LINE
  5
2A8
100
AcDbEntity
  8
DIMS
100
AcDbLine
 62
2
  6
CONTINUOUS
 10
19.3592877064
 20
70.8205155103
 11
18.9873824187
 21
68.5890837844
  0
LINE
  5
2A9
100
AcDbEntity
  8
DIMS
100
AcDbLine
 62
2
  6
CONTINUOUS
 10
18.9873824187
 20
68.5890837844
 11
19.7311929941
 21
68.5890837844
  0
HATCH
  5
2AA
100
AcDbEntity
  8
DIMS
100
AcDbHatch
 62
2
  6
CONTINUOUS
 10
0.0
 20
0.0
 30
0.0
210
0.0
220
0.0
230
1.0
  2

 70
1
 71
1
 91
1
 92
1
 93
3
 72
1
 10
19.3592877064
 20
70.8205155103
 11
18.9873824187
 21
68.5890837844
 72
1
 10
18.9873824187
 20
68.5890837844
 11
19.7311929941
 21
68.5890837844
 72
1
 10
19.7311929941
 20
68.5890837844
 11
19.3592877064
 21
70.8205155103
 97
3
330
2A7
330
2A8
330
2A9
 75
0
 76
1
 98
1
 10
0.0
 20
0.0
  0
LINE
  5
2AB
100
AcDbEntity
  8
DIMS
100
AcDbLine
 62
2
  6
CONTINUOUS
 10
26.7782485648
 20
32.2911277086
 11
26.4063432771
 21
34.5225594345
  0
LINE
  5
2AC
100
AcDbEntity
  8
DIMS
100
AcDbLine
 62
2
  6
CONTINUOUS
 10
26.4063432771
 20
34.5225594345
 11
26.0344379895
 21
32.2911277086
  0
LINE
  5
2AD
100
AcDbEntity
  8
DIMS
100
AcDbLine
 62
2
  6
CONTINUOUS
 10
26.0344379895
 20
32.2911277086
 11
26.7782485648
 21
32.2911277086
  0
HATCH
  5
2AE
100
AcDbEntity
  8
DIMS
100
AcDbHatch
 62
2
  6
CONTINUOUS
 10
0.0
 20
0.0
 30
0.0
210
0.0
220
0.0
230
1.0
  2

 70
1
 71
1
 91
1
 92
1
 93
3
 72
1
 10
26.4063432771
 20
34.5225594345
 11
26.0344379895
 21
32.2911277086
 72
1
 10
26.0344379895
 20
32.2911277086
 11
26.7782485648
 21
32.2911277086
 72
1
 10
26.7782485648
 20
32.2911277086
 11
26.4063432771
 21
34.5225594345
 97
3
330
2AB
330
2AC
330
2AD
 75
0
 76
1
 98
1
 10
0.0
 20
0.0
  0
LINE
  5
2AF
100
AcDbEntity
  8
DIMS
100
AcDbLine
 62
2
  6
CONTINUOUS
 10
20.0469449051
 20
95.0347115248
 11
19.6750396174
 21
97.2661432508
  0
LINE
  5
2B0
100
AcDbEntity
  8
DIMS
100
AcDbLine
 62
2
  6
CONTINUOUS
 10
20.4188501927
 20
97.2661432508
 11
20.0469449051
 21
95.0347115248
  0
LINE
  5
2B1
100
AcDbEntity
  8
DIMS
100
AcDbLine
 62
2
  6
CONTINUOUS
 10
19.6750396174
 20
97.2661432508
 11
20.4188501927
 21
97.2661432508
  0
HATCH
  5
2B2
100
AcDbEntity
  8
DIMS
100
AcDbHatch
 62
2
  6
CONTINUOUS
 10
0.0
 20
0.0
 30
0.0
210
0.0
220
0.0
230
1.0
  2

 70
1
 71
1
 91
1
 92
1
 93
3
 72
1
 10
19.6750396174
 20
97.2661432508
 11
20.4188501927
 21
97.2661432508
 72
1
 10
20.4188501927
 20
97.2661432508
 11
20.0469449051
 21
95.0347115248
 72
1
 10
20.0469449051
 20
95.0347115248
 11
19.6750396174
 21
97.2661432508
 97
3
330
2AF
330
2B0
330
2B1
 75
0
 76
1
 98
1
 10
0.0
 20
0.0
  0
LINE
  5
2B3
100
AcDbEntity
  8
DIMS
100
AcDbLine
 62
2
  6
CONTINUOUS
 10
26.4063432771
 20
61.8947886064
 11
26.0344379895
 21
64.1262203324
  0
LINE
  5
2B4
100
AcDbEntity
  8
DIMS
100
AcDbLine
 62
2
  6
CONTINUOUS
 10
26.7782485648
 20
64.1262203324
 11
26.4063432771
 21
61.8947886064
  0
LINE
  5
2B5
100
AcDbEntity
  8
DIMS
100
AcDbLine
 62
2
  6
CONTINUOUS
 10
26.0344379895
 20
64.1262203324
 11
26.7782485648
 21
64.1262203324
  0
HATCH
  5
2B6
100
AcDbEntity
  8
DIMS
100
AcDbHatch
 62
2
  6
CONTINUOUS
 10
0.0
 20
0.0
 30
0.0
210
0.0
220
0.0
230
1.0
  2

 70
1
 71
1
 91
1
 92
1
 93
3
 72
1
 10
26.0344379895
 20
64.1262203324
 11
26.7782485648
 21
64.1262203324
 72
1
 10
26.7782485648
 20
64.1262203324
 11
26.4063432771
 21
61.8947886064
 72
1
 10
26.4063432771
 20
61.8947886064
 11
26.0344379895
 21
64.1262203324
 97
3
330
2B3
330
2B4
330
2B5
 75
0
 76
1
 98
1
 10
0.0
 20
0.0
  0
LINE
  5
2B7
100
AcDbEntity
  8
DIMS
100
AcDbLine
 62
2
  6
CONTINUOUS
 10
26.7782485648
 20
68.5890837844
 11
26.4063432771
 21
70.8205155103
  0
LINE
  5
2B8
100
AcDbEntity
  8
DIMS
100
AcDbLine
 62
2
  6
CONTINUOUS
 10
26.4063432771
 20
70.8205155103
 11
26.0344379895
 21
68.5890837844
  0
LINE
  5
2B9
100
AcDbEntity
  8
DIMS
100
AcDbLine
 62
2
  6
CONTINUOUS
 10
26.0344379895
 20
68.5890837844
 11
26.7782485648
 21
68.5890837844
  0
HATCH
  5
2BA
100
AcDbEntity
  8
DIMS
100
AcDbHatch
 62
2
  6
CONTINUOUS
 10
0.0
 20
0.0
 30
0.0
210
0.0
220
0.0
230
1.0
  2

 70
1
 71
1
 91
1
 92
1
 93
3
 72
1
 10
26.4063432771
 20
70.8205155103
 11
26.0344379895
 21
68.5890837844
 72
1
 10
26.0344379895
 20
68.5890837844
 11
26.7782485648
 21
68.5890837844
 72
1
 10
26.7782485648
 20
68.5890837844
 11
26.4063432771
 21
70.8205155103
 97
3
330
2B7
330
2B8
330
2B9
 75
0
 76
1
 98
1
 10
0.0
 20
0.0
  0
LINE
  5
2BB
100
AcDbEntity
  8
DIMS
100
AcDbLine
 62
2
  6
CONTINUOUS
 10
26.4063432771
 20
68.5890837844
 11
26.4063432771
 21
64.1262203324
  0
LINE
  5
2BC
100
AcDbEntity
  8
DIMS
100
AcDbLine
 62
2
  6
CONTINUOUS
 10
26.4063432771
 20
37.227069293
 11
26.4063432771
 21
34.5225594345
  0
LINE
  5
2BD
100
AcDbEntity
  8
DIMS
100
AcDbLine
 62
2
  6
CONTINUOUS
 10
26.4063432771
 20
27.6795021415
 11
26.4063432771
 21
32.2911277086
  0
LINE
  5
2BE
100
AcDbEntity
  8
DIMS
100
AcDbLine
 62
2
  6
CONTINUOUS
 10
26.4063432771
 20
58.7844166405
 11
26.4063432771
 21
61.8947886064
  0
LINE
  5
2BF
100
AcDbEntity
  8
DIMS
100
AcDbLine
 62
6
  6
CONTINUOUS
 10
28.7161468678
 20
248.2596900415
 11
28.7161468678
 21
242.0116812088
  0
LINE
  5
2C0
100
AcDbEntity
  8
DIMS
100
AcDbLine
 62
2
  6
CONTINUOUS
 10
29.8959367549
 20
104.704249004
 11
29.8959367549
 21
103.8116763136
  0
LINE
  5
2C1
100
AcDbEntity
  8
DIMS
100
AcDbLine
 62
2
  6
CONTINUOUS
 10
29.8959367549
 20
97.2661432508
 11
29.8959367549
 21
98.1587159411
  0
LINE
  5
2C2
100
AcDbEntity
  8
DIMS
100
AcDbLine
 62
6
  6
CONTINUOUS
 10
34.0778327728
 20
136.1529670691
 11
34.0778327728
 21
135.1612196354
  0
LINE
  5
2C3
100
AcDbEntity
  8
DIMS
100
AcDbLine
 62
6
  6
CONTINUOUS
 10
37.0530750741
 20
135.6570933523
 11
34.0778327728
 21
136.1529670691
  0
LINE
  5
2C4
100
AcDbEntity
  8
DIMS
100
AcDbLine
 62
6
  6
CONTINUOUS
 10
34.0778327728
 20
135.1612196354
 11
37.0530750741
 21
135.6570933523
  0
HATCH
  5
2C5
100
AcDbEntity
  8
DIMS
100
AcDbHatch
 62
6
  6
CONTINUOUS
 10
0.0
 20
0.0
 30
0.0
210
0.0
220
0.0
230
1.0
  2

 70
1
 71
1
 91
1
 92
1
 93
3
 72
1
 10
34.0778327728
 20
135.1612196354
 11
37.0530750741
 21
135.6570933523
 72
1
 10
37.0530750741
 20
135.6570933523
 11
34.0778327728
 21
136.1529670691
 72
1
 10
34.0778327728
 20
136.1529670691
 11
34.0778327728
 21
135.1612196354
 97
3
330
2C2
330
2C3
330
2C4
 75
0
 76
1
 98
1
 10
0.0
 20
0.0
  0
LINE
  5
2C6
100
AcDbEntity
  8
DIMS
100
AcDbLine
 62
2
  6
CONTINUOUS
 10
29.8959367549
 20
95.0347115248
 11
29.5240314672
 21
97.2661432508
  0
LINE
  5
2C7
100
AcDbEntity
  8
DIMS
100
AcDbLine
 62
2
  6
CONTINUOUS
 10
30.2678420425
 20
97.2661432508
 11
29.8959367549
 21
95.0347115248
  0
LINE
  5
2C8
100
AcDbEntity
  8
DIMS
100
AcDbLine
 62
2
  6
CONTINUOUS
 10
29.5240314672
 20
97.2661432508
 11
30.2678420425
 21
97.2661432508
  0
HATCH
  5
2C9
100
AcDbEntity
  8
DIMS
100
AcDbHatch
 62
2
  6
CONTINUOUS
 10
0.0
 20
0.0
 30
0.0
210
0.0
220
0.0
230
1.0
  2

 70
1
 71
1
 91
1
 92
1
 93
3
 72
1
 10
29.5240314672
 20
97.2661432508
 11
30.2678420425
 21
97.2661432508
 72
1
 10
30.2678420425
 20
97.2661432508
 11
29.8959367549
 21
95.0347115248
 72
1
 10
29.8959367549
 20
95.0347115248
 11
29.5240314672
 21
97.2661432508
 97
3
330
2C6
330
2C7
330
2C8
 75
0
 76
1
 98
1
 10
0.0
 20
0.0
  0
LINE
  5
2CA
100
AcDbEntity
  8
DIMS
100
AcDbLine
 62
2
  6
CONTINUOUS
 10
30.2678420425
 20
104.704249004
 11
29.8959367549
 21
106.93568073
  0
LINE
  5
2CB
100
AcDbEntity
  8
DIMS
100
AcDbLine
 62
2
  6
CONTINUOUS
 10
29.8959367549
 20
106.93568073
 11
29.5240314672
 21
104.704249004
  0
LINE
  5
2CC
100
AcDbEntity
  8
DIMS
100
AcDbLine
 62
2
  6
CONTINUOUS
 10
29.5240314672
 20
104.704249004
 11
30.2678420425
 21
104.704249004
  0
HATCH
  5
2CD
100
AcDbEntity
  8
DIMS
100
AcDbHatch
 62
2
  6
CONTINUOUS
 10
0.0
 20
0.0
 30
0.0
210
0.0
220
0.0
230
1.0
  2

 70
1
 71
1
 91
1
 92
1
 93
3
 72
1
 10
29.8959367549
 20
106.93568073
 11
29.5240314672
 21
104.704249004
 72
1
 10
29.5240314672
 20
104.704249004
 11
30.2678420425
 21
104.704249004
 72
1
 10
30.2678420425
 20
104.704249004
 11
29.8959367549
 21
106.93568073
 97
3
330
2CA
330
2CB
330
2CC
 75
0
 76
1
 98
1
 10
0.0
 20
0.0
  0
LINE
  5
2CE
100
AcDbEntity
  8
DIMS
100
AcDbLine
 62
6
  6
CONTINUOUS
 10
37.0530750741
 20
135.0517204772
 11
37.0530750741
 21
133.4256616263
  0
LINE
  5
2CF
100
AcDbEntity
  8
0
100
AcDbLine
 62
3
  6
CONTINUOUS
 10
37.0530750741
 20
70.8205155103
 11
37.0530750741
 21
25.4480704156
  0
LINE
  5
2D0
100
AcDbEntity
  8
DIMS
100
AcDbLine
 62
2
  6
CONTINUOUS
 10
37.0530750741
 20
22.4728281143
 11
37.0530750741
 21
16.598010598
  0
LINE
  5
2D1
100
AcDbEntity
  8
0
100
AcDbLine
 62
3
  6
CONTINUOUS
 10
37.0530750741
 20
138.0269627785
 11
37.0530750741
 21
251.2349323428
  0
LINE
  5
2D2
100
AcDbEntity
  8
DIMS
100
AcDbLine
 62
2
  6
CONTINUOUS
 10
37.0530750741
 20
254.2101746441
 11
37.0530750741
 21
271.074465181
  0
LINE
  5
2D3
100
AcDbEntity
  8
DIMS
100
AcDbLine
 62
6
  6
CONTINUOUS
 10
37.2762182467
 20
135.0517204772
 11
37.2762182467
 21
133.4256616263
  0
LINE
  5
2D4
100
AcDbEntity
  8
0
100
AcDbLine
 62
3
  6
CONTINUOUS
 10
37.2762182467
 20
95.0347115248
 11
37.2762182467
 21
138.0269627785
  0
LINE
  5
2D5
100
AcDbEntity
  8
DIMS
100
AcDbLine
 62
2
  6
CONTINUOUS
 10
39.2845068
 20
269.958749318
 11
39.2845068
 21
269.2149387427
  0
LINE
  5
2D6
100
AcDbEntity
  8
DIMS
100
AcDbLine
 62
2
  6
CONTINUOUS
 10
39.2845068
 20
269.2149387427
 11
37.0530750741
 21
269.5868440304
  0
LINE
  5
2D7
100
AcDbEntity
  8
DIMS
100
AcDbLine
 62
2
  6
CONTINUOUS
 10
37.0530750741
 20
269.5868440304
 11
39.2845068
 21
269.958749318
  0
HATCH
  5
2D8
100
AcDbEntity
  8
DIMS
100
AcDbHatch
 62
2
  6
CONTINUOUS
 10
0.0
 20
0.0
 30
0.0
210
0.0
220
0.0
230
1.0
  2

 70
1
 71
1
 91
1
 92
1
 93
3
 72
1
 10
39.2845068
 20
269.2149387427
 11
37.0530750741
 21
269.5868440304
 72
1
 10
37.0530750741
 20
269.5868440304
 11
39.2845068
 21
269.958749318
 72
1
 10
39.2845068
 20
269.958749318
 11
39.2845068
 21
269.2149387427
 97
3
330
2D5
330
2D6
330
2D7
 75
0
 76
1
 98
1
 10
0.0
 20
0.0
  0
LINE
  5
2D9
100
AcDbEntity
  8
DIMS
100
AcDbLine
 62
2
  6
CONTINUOUS
 10
39.2845068
 20
18.4575370363
 11
39.2845068
 21
17.713726461
  0
LINE
  5
2DA
100
AcDbEntity
  8
DIMS
100
AcDbLine
 62
2
  6
CONTINUOUS
 10
39.2845068
 20
17.713726461
 11
37.0530750741
 21
18.0856317486
  0
LINE
  5
2DB
100
AcDbEntity
  8
DIMS
100
AcDbLine
 62
2
  6
CONTINUOUS
 10
37.0530750741
 20
18.0856317486
 11
39.2845068
 21
18.4575370363
  0
HATCH
  5
2DC
100
AcDbEntity
  8
DIMS
100
AcDbHatch
 62
2
  6
CONTINUOUS
 10
0.0
 20
0.0
 30
0.0
210
0.0
220
0.0
230
1.0
  2

 70
1
 71
1
 91
1
 92
1
 93
3
 72
1
 10
39.2845068
 20
17.713726461
 11
37.0530750741
 21
18.0856317486
 72
1
 10
37.0530750741
 20
18.0856317486
 11
39.2845068
 21
18.4575370363
 72
1
 10
39.2845068
 20
18.4575370363
 11
39.2845068
 21
17.713726461
 97
3
330
2D9
330
2DA
330
2DB
 75
0
 76
1
 98
1
 10
0.0
 20
0.0
  0
LINE
  5
2DD
100
AcDbEntity
  8
DIMS
100
AcDbLine
 62
6
  6
CONTINUOUS
 10
40.251460548
 20
136.1529670691
 11
40.251460548
 21
135.1612196354
  0
LINE
  5
2DE
100
AcDbEntity
  8
DIMS
100
AcDbLine
 62
6
  6
CONTINUOUS
 10
40.251460548
 20
135.1612196354
 11
37.2762182467
 21
135.6570933523
  0
LINE
  5
2DF
100
AcDbEntity
  8
DIMS
100
AcDbLine
 62
6
  6
CONTINUOUS
 10
37.2762182467
 20
135.6570933523
 11
40.251460548
 21
136.1529670691
  0
HATCH
  5
2E0
100
AcDbEntity
  8
DIMS
100
AcDbHatch
 62
6
  6
CONTINUOUS
 10
0.0
 20
0.0
 30
0.0
210
0.0
220
0.0
230
1.0
  2

 70
1
 71
1
 91
1
 92
1
 93
3
 72
1
 10
40.251460548
 20
135.1612196354
 11
37.2762182467
 21
135.6570933523
 72
1
 10
37.2762182467
 20
135.6570933523
 11
40.251460548
 21
136.1529670691
 72
1
 10
40.251460548
 20
136.1529670691
 11
40.251460548
 21
135.1612196354
 97
3
330
2DD
330
2DE
330
2DF
 75
0
 76
1
 98
1
 10
0.0
 20
0.0
  0
LINE
  5
2E1
100
AcDbEntity
  8
DIMS
100
AcDbLine
 62
2
  6
CONTINUOUS
 10
41.0696521808
 20
18.4575370363
 11
41.0696521808
 21
17.713726461
  0
LINE
  5
2E2
100
AcDbEntity
  8
DIMS
100
AcDbLine
 62
2
  6
CONTINUOUS
 10
43.3010839068
 20
18.0856317486
 11
41.0696521808
 21
18.4575370363
  0
LINE
  5
2E3
100
AcDbEntity
  8
DIMS
100
AcDbLine
 62
2
  6
CONTINUOUS
 10
41.0696521808
 20
17.713726461
 11
43.3010839068
 21
18.0856317486
  0
HATCH
  5
2E4
100
AcDbEntity
  8
DIMS
100
AcDbHatch
 62
2
  6
CONTINUOUS
 10
0.0
 20
0.0
 30
0.0
210
0.0
220
0.0
230
1.0
  2

 70
1
 71
1
 91
1
 92
1
 93
3
 72
1
 10
41.0696521808
 20
17.713726461
 11
43.3010839068
 21
18.0856317486
 72
1
 10
43.3010839068
 20
18.0856317486
 11
41.0696521808
 21
18.4575370363
 72
1
 10
41.0696521808
 20
18.4575370363
 11
41.0696521808
 21
17.713726461
 97
3
330
2E1
330
2E2
330
2E3
 75
0
 76
1
 98
1
 10
0.0
 20
0.0
  0
LINE
  5
2E5
100
AcDbEntity
  8
0
100
AcDbLine
 62
3
  6
CONTINUOUS
 10
43.3010839068
 20
251.2349323428
 11
43.3010839068
 21
141.8947777702
  0
LINE
  5
2E6
100
AcDbEntity
  8
HIDDEN
100
AcDbLine
 62
1
  6
DASHED
 10
43.3010839068
 20
139.6633460442
 11
43.3010839068
 21
95.0347115248
  0
LINE
  5
2E7
100
AcDbEntity
  8
DIMS
100
AcDbLine
 62
2
  6
CONTINUOUS
 10
43.3010839068
 20
22.4728281143
 11
43.3010839068
 21
16.598010598
  0
LINE
  5
2E8
100
AcDbEntity
  8
0
100
AcDbLine
 62
3
  6
CONTINUOUS
 10
43.3010839068
 20
25.4480704156
 11
43.3010839068
 21
61.8947886064
  0
LINE
  5
2E9
100
AcDbEntity
  8
HIDDEN
100
AcDbLine
 62
1
  6
DASHED
 10
44.4911808273
 20
250.71426494
 11
44.4911808273
 21
243.9491229949
  0
LINE
  5
2EA
100
AcDbEntity
  8
DIMS
100
AcDbLine
 62
2
  6
CONTINUOUS
 10
46.2763262081
 20
103.9604384287
 11
46.2763262081
 21
87.60332434
  0
LINE
  5
2EB
100
AcDbEntity
  8
DIMS
100
AcDbLine
 62
2
  6
CONTINUOUS
 10
46.2763262081
 20
106.9222921396
 11
46.2763262081
 21
106.9490693203
  0
LINE
  5
2EC
100
AcDbEntity
  8
DIMS
100
AcDbLine
 62
2
  6
CONTINUOUS
 10
48.507757934
 20
89.4628507783
 11
48.507757934
 21
88.719040203
  0
LINE
  5
2ED
100
AcDbEntity
  8
DIMS
100
AcDbLine
 62
2
  6
CONTINUOUS
 10
48.507757934
 20
88.719040203
 11
46.2763262081
 21
89.0909454906
  0
LINE
  5
2EE
100
AcDbEntity
  8
DIMS
100
AcDbLine
 62
2
  6
CONTINUOUS
 10
46.2763262081
 20
89.0909454906
 11
48.507757934
 21
89.4628507783
  0
HATCH
  5
2EF
100
AcDbEntity
  8
DIMS
100
AcDbHatch
 62
2
  6
CONTINUOUS
 10
0.0
 20
0.0
 30
0.0
210
0.0
220
0.0
230
1.0
  2

 70
1
 71
1
 91
1
 92
1
 93
3
 72
1
 10
48.507757934
 20
88.719040203
 11
46.2763262081
 21
89.0909454906
 72
1
 10
46.2763262081
 20
89.0909454906
 11
48.507757934
 21
89.4628507783
 72
1
 10
48.507757934
 20
89.4628507783
 11
48.507757934
 21
88.719040203
 97
3
330
2EC
330
2ED
330
2EE
 75
0
 76
1
 98
1
 10
0.0
 20
0.0
  0
LINE
  5
2F0
100
AcDbEntity
  8
HIDDEN
100
AcDbLine
 62
1
  6
DASHED
 10
49.2515685094
 20
95.0347115248
 11
49.2515685094
 21
139.6633460442
  0
LINE
  5
2F1
100
AcDbEntity
  8
Format_A3
100
AcDbLine
 62
1
  6
CONTINUOUS
 10
61.5301379542
 20
290.2481681706
 11
61.5301379542
 21
285.2481781706
  0
LINE
  5
2F2
100
AcDbEntity
  8
Format_A3
100
AcDbLine
 62
1
  6
CONTINUOUS
 10
61.5301379542
 20
8.2487321705
 11
61.5301379542
 21
3.2487421705
  0
LINE
  5
2F3
100
AcDbEntity
  8
Format_A3
100
AcDbLine
 62
1
  6
CONTINUOUS
 10
421.5294179542
 20
-1.7512478295
 11
1.5302579541
 21
-1.7512478295
  0
LINE
  5
2F4
100
AcDbEntity
  8
0
100
AcDbLine
 62
7
  6
CONTINUOUS
 10
0.0
 20
-0.0
 11
420.0
 21
-0.0
  0
LINE
  5
2F5
100
AcDbEntity
  8
VIEWPORT
100
AcDbLine
 62
9
  6
CONTINUOUS
 10
416.4585921903
 20
3.2487421705
 11
6.4594121902
 21
3.2487421705
  0
LINE
  5
2F6
100
AcDbEntity
  8
Format_A3
100
AcDbLine
 62
7
  6
CONTINUOUS
 10
416.5294279542
 20
3.2487421705
 11
6.5302479541
 21
3.2487421705
  0
LINE
  5
2F7
100
AcDbEntity
  8
HIDDEN
100
AcDbLine
 62
1
  6
DASHED
 10
70.5245509636
 20
215.1601194396
 11
70.5245509636
 21
177.9695906734
  0
LINE
  5
2F8
100
AcDbEntity
  8
HIDDEN
100
AcDbLine
 62
1
  6
DASHED
 10
92.8388682233
 20
215.1601194396
 11
70.5245509636
 21
177.9695906734
  0
LINE
  5
2F9
100
AcDbEntity
  8
Format_A3
100
AcDbLine
 62
1
  6
CONTINUOUS
 10
411.5294379542
 20
8.2487321705
 11
11.5302379541
 21
8.2487321705
  0
LINE
  5
2FA
100
AcDbEntity
  8
MM_4_0_050
100
AcDbLine
 62
7
  6
CONTINUOUS
 10
221.5294279542
 20
8.2487421705
 11
411.5294279542
 21
8.2487421705
  0
LINE
  5
2FB
100
AcDbEntity
  8
DIMS
100
AcDbLine
 62
2
  6
CONTINUOUS
 10
48.2410052243
 20
18.0856317486
 11
43.3010839068
 21
18.0856317486
  0
LINE
  5
2FC
100
AcDbEntity
  8
DIMS
100
AcDbLine
 62
2
  6
CONTINUOUS
 10
39.2845068
 20
18.0856317486
 11
41.0696521808
 21
18.0856317486
  0
LINE
  5
2FD
100
AcDbEntity
  8
DIMS
100
AcDbLine
 62
2
  6
CONTINUOUS
 10
44.092834309
 20
105.1027413112
 11
44.641296919
 21
104.6003043127
  0
LINE
  5
2FE
100
AcDbEntity
  8
DIMS
100
AcDbLine
 62
2
  6
CONTINUOUS
 10
44.641296919
 20
104.6003043127
 11
45.8743766093
 21
106.496910642
  0
LINE
  5
2FF
100
AcDbEntity
  8
DIMS
100
AcDbLine
 62
2
  6
CONTINUOUS
 10
45.8743766093
 20
106.496910642
 11
44.092834309
 21
105.1027413112
  0
HATCH
  5
300
100
AcDbEntity
  8
DIMS
100
AcDbHatch
 62
2
  6
CONTINUOUS
 10
0.0
 20
0.0
 30
0.0
210
0.0
220
0.0
230
1.0
  2

 70
1
 71
1
 91
1
 92
1
 93
3
 72
1
 10
44.641296919
 20
104.6003043127
 11
45.8743766093
 21
106.496910642
 72
1
 10
45.8743766093
 20
106.496910642
 11
44.092834309
 21
105.1027413112
 72
1
 10
44.092834309
 20
105.1027413112
 11
44.641296919
 21
104.6003043127
 97
3
330
2FD
330
2FE
330
2FF
 75
0
 76
1
 98
1
 10
0.0
 20
0.0
  0
LINE
  5
301
100
AcDbEntity
  8
0
100
AcDbLine
 62
3
  6
CONTINUOUS
 10
82.2955727422
 20
58.3239274909
 11
81.6817508006
 21
61.891038611
  0
LINE
  5
302
100
AcDbEntity
  8
HIDDEN
100
AcDbLine
 62
1
  6
DASHED
 10
82.1628230837
 20
62.0843155576
 11
82.1615206714
 21
62.886158234
  0
LINE
  5
303
100
AcDbEntity
  8
HIDDEN
100
AcDbLine
 62
1
  6
DASHED
 10
82.7578181384
 20
63.3431456332
 11
82.7587380833
 21
62.7767343264
  0
LINE
  5
304
100
AcDbEntity
  8
HIDDEN
100
AcDbLine
 62
1
  6
DASHED
 10
83.7107041969
 20
62.7767343264
 11
83.709784252
 21
63.3431456332
  0
LINE
  5
305
100
AcDbEntity
  8
HIDDEN
100
AcDbLine
 62
1
  6
DASHED
 10
85.5963107166
 20
63.3431456332
 11
85.5972308103
 21
62.7767343264
  0
LINE
  5
306
100
AcDbEntity
  8
HIDDEN
100
AcDbLine
 62
1
  6
DASHED
 10
86.5482768302
 20
63.3431456332
 11
86.5491967752
 21
62.7767343264
  0
LINE
  5
307
100
AcDbEntity
  8
HIDDEN
100
AcDbLine
 62
1
  6
DASHED
 10
87.1432324629
 20
62.1752819546
 11
87.1420777714
 21
62.886158234
  0
LINE
  5
308
100
AcDbEntity
  8
HIDDEN
100
AcDbLine
 62
1
  6
DASHED
 10
82.4255201688
 20
68.5890837844
 11
82.4255201688
 21
64.6029477204
  0
LINE
  5
309
100
AcDbEntity
  8
HIDDEN
100
AcDbLine
 62
1
  6
DASHED
 10
83.0072554611
 20
66.6231232594
 11
83.0072554611
 21
63.5752743351
  0
LINE
  5
30A
100
AcDbEntity
  8
HIDDEN
100
AcDbLine
 62
1
  6
DASHED
 10
83.2303986337
 20
63.5752743351
 11
83.2303986337
 21
66.6231232594
  0
LINE
  5
30B
100
AcDbEntity
  8
DEFAULT_1
100
AcDbLine
 62
1
  6
CENTER
 10
84.6569518948
 20
58.1870168073
 11
84.6569518948
 21
65.8495435997
  0
LINE
  5
30C
100
AcDbEntity
  8
DEFAULT_1
100
AcDbLine
 62
1
  6
CENTER
 10
84.6569518948
 20
235.4661481459
 11
84.6569518948
 21
242.606729669
  0
LINE
  5
30D
100
AcDbEntity
  8
HIDDEN
100
AcDbLine
 62
1
  6
DASHED
 10
86.0568788199
 20
63.5752743351
 11
86.0568788199
 21
66.6231232594
  0
LINE
  5
30E
100
AcDbEntity
  8
HIDDEN
100
AcDbLine
 62
1
  6
DASHED
 10
86.2800219925
 20
66.6231232594
 11
86.2800219925
 21
63.5752743351
  0
LINE
  5
30F
100
AcDbEntity
  8
HIDDEN
100
AcDbLine
 62
1
  6
DASHED
 10
86.8883836208
 20
64.8700309077
 11
86.8883836208
 21
64.6029477204
  0
LINE
  5
310
100
AcDbEntity
  8
HIDDEN
100
AcDbLine
 62
1
  6
DASHED
 10
87.3760532062
 20
69.4816564747
 11
87.3760532062
 21
66.2088899433
  0
LINE
  5
311
100
AcDbEntity
  8
0
100
AcDbLine
 62
1
  6
DASHED
 10
87.7113171948
 20
241.2678706334
 11
87.7113171948
 21
236.8050071815
  0
LINE
  5
312
100
AcDbEntity
  8
HIDDEN
100
AcDbLine
 62
1
  6
DASHED
 10
88.8636743568
 20
65.6138414831
 11
88.8636743568
 21
70.076704935
  0
LINE
  5
313
100
AcDbEntity
  8
HIDDEN
100
AcDbLine
 62
1
  6
DASHED
 10
92.8388682233
 20
177.9695906734
 11
92.8388682233
 21
215.1601194396
  0
LINE
  5
314
100
AcDbEntity
  8
DIMS
100
AcDbLine
 62
2
  6
CONTINUOUS
 10
213.3361814258
 20
18.2172081568
 11
215.5676131518
 21
18.5891134444
  0
LINE
  5
315
100
AcDbEntity
  8
DIMS
100
AcDbLine
 62
2
  6
CONTINUOUS
 10
215.5676131518
 20
18.5891134444
 11
213.3361814258
 21
18.9610187321
  0
LINE
  5
316
100
AcDbEntity
  8
DIMS
100
AcDbLine
 62
2
  6
CONTINUOUS
 10
213.3361814258
 20
18.9610187321
 11
213.3361814258
 21
18.2172081568
  0
HATCH
  5
317
100
AcDbEntity
  8
DIMS
100
AcDbHatch
 62
2
  6
CONTINUOUS
 10
0.0
 20
0.0
 30
0.0
210
0.0
220
0.0
230
1.0
  2

 70
1
 71
1
 91
1
 92
1
 93
3
 72
1
 10
215.5676131518
 20
18.5891134444
 11
213.3361814258
 21
18.9610187321
 72
1
 10
213.3361814258
 20
18.9610187321
 11
213.3361814258
 21
18.2172081568
 72
1
 10
213.3361814258
 20
18.2172081568
 11
215.5676131518
 21
18.5891134444
 97
3
330
314
330
315
330
316
 75
0
 76
1
 98
1
 10
0.0
 20
0.0
  0
LINE
  5
318
100
AcDbEntity
  8
DIMS
100
AcDbLine
 62
2
  6
CONTINUOUS
 10
209.319604319
 20
18.5891134444
 11
211.551036045
 21
18.9610187321
  0
LINE
  5
319
100
AcDbEntity
  8
DIMS
100
AcDbLine
 62
2
  6
CONTINUOUS
 10
211.551036045
 20
18.2172081568
 11
209.319604319
 21
18.5891134444
  0
LINE
  5
31A
100
AcDbEntity
  8
DIMS
100
AcDbLine
 62
2
  6
CONTINUOUS
 10
211.551036045
 20
18.9610187321
 11
211.551036045
 21
18.2172081568
  0
HATCH
  5
31B
100
AcDbEntity
  8
DIMS
100
AcDbHatch
 62
2
  6
CONTINUOUS
 10
0.0
 20
0.0
 30
0.0
210
0.0
220
0.0
230
1.0
  2

 70
1
 71
1
 91
1
 92
1
 93
3
 72
1
 10
211.551036045
 20
18.9610187321
 11
211.551036045
 21
18.2172081568
 72
1
 10
211.551036045
 20
18.2172081568
 11
209.319604319
 21
18.5891134444
 72
1
 10
209.319604319
 20
18.5891134444
 11
211.551036045
 21
18.9610187321
 97
3
330
318
330
319
330
31A
 75
0
 76
1
 98
1
 10
0.0
 20
0.0
  0
LINE
  5
31C
100
AcDbEntity
  8
DIMS
100
AcDbLine
 62
2
  6
CONTINUOUS
 10
213.3361814258
 20
18.5891134444
 11
211.551036045
 21
18.5891134444
  0
LINE
  5
31D
100
AcDbEntity
  8
DIMS
100
AcDbLine
 62
2
  6
CONTINUOUS
 10
206.5461977107
 20
18.5891134444
 11
209.319604319
 21
18.5891134444
  0
LINE
  5
31E
100
AcDbEntity
  8
MM_4_0_025
100
AcDbLine
 62
1
  6
CONTINUOUS
 10
411.5294279542
 20
18.814169204
 11
275.9785805215
 21
18.814169204
  0
LINE
  5
31F
100
AcDbEntity
  8
0
100
AcDbLine
 62
1
  6
CONTINUOUS
 10
169.1338695245
 20
19.7566443255
 11
171.8105983276
 21
19.7566443255
  0
LINE
  5
320
100
AcDbEntity
  8
DIMS
100
AcDbLine
 62
2
  6
CONTINUOUS
 10
41.9258263671
 20
25.4480704156
 11
17.8716665558
 21
25.4480704156
  0
LINE
  5
321
100
AcDbEntity
  8
0
100
AcDbLine
 62
3
  6
CONTINUOUS
 10
37.0530750741
 20
25.4480704156
 11
215.5676131518
 21
25.4480704156
  0
LINE
  5
322
100
AcDbEntity
  8
0
100
AcDbLine
 62
3
  6
CONTINUOUS
 10
87.0558945227
 20
58.3489698079
 11
87.6344120905
 21
61.9223533338
  0
LINE
  5
323
100
AcDbEntity
  8
MM_4_0_025
100
AcDbLine
 62
1
  6
CONTINUOUS
 10
284.557023736
 20
53.4098401854
 11
290.057023736
 21
54.2098401854
  0
LINE
  5
324
100
AcDbEntity
  8
0
100
AcDbLine
 62
3
  6
CONTINUOUS
 10
209.319604319
 20
34.5225594345
 11
43.3010839068
 21
34.5225594345
  0
LINE
  5
325
100
AcDbEntity
  8
DIMS
100
AcDbLine
 62
2
  6
CONTINUOUS
 10
40.3258416055
 20
34.5225594345
 11
24.9187221265
 21
34.5225594345
  0
LINE
  5
326
100
AcDbEntity
  8
0
100
AcDbLine
 62
3
  6
CONTINUOUS
 10
43.3010839068
 20
38.2416123111
 11
209.319604319
 21
38.2416123111
  0
LINE
  5
327
100
AcDbEntity
  8
MM_4_0_025
100
AcDbLine
 62
1
  6
CONTINUOUS
 10
320.3294279542
 20
40.775561677
 11
411.3723075016
 21
40.775561677
  0
LINE
  5
328
100
AcDbEntity
  8
MM_4_0_025
100
AcDbLine
 62
1
  6
CONTINUOUS
 10
320.3294279542
 20
45.4729346836
 11
275.9785805215
 21
45.4729346836
  0
LINE
  5
329
100
AcDbEntity
  8
DEFAULT_1
100
AcDbLine
 62
1
  6
CENTER
 10
187.7490976347
 20
46.7210528698
 11
201.5095932781
 21
46.7210528698
  0
LINE
  5
32A
100
AcDbEntity
  8
DIMS
100
AcDbLine
 62
6
  6
CONTINUOUS
 10
114.6620404112
 20
64.8700309077
 11
114.1661666943
 21
67.845273209
  0
LINE
  5
32B
100
AcDbEntity
  8
DIMS
100
AcDbLine
 62
6
  6
CONTINUOUS
 10
114.1661666943
 20
67.845273209
 11
113.6702929774
 21
64.8700309077
  0
LINE
  5
32C
100
AcDbEntity
  8
DIMS
100
AcDbLine
 62
6
  6
CONTINUOUS
 10
113.6702929774
 20
64.8700309077
 11
114.6620404112
 21
64.8700309077
  0
HATCH
  5
32D
100
AcDbEntity
  8
DIMS
100
AcDbHatch
 62
6
  6
CONTINUOUS
 10
0.0
 20
0.0
 30
0.0
210
0.0
220
0.0
230
1.0
  2

 70
1
 71
1
 91
1
 92
1
 93
3
 72
1
 10
114.1661666943
 20
67.845273209
 11
113.6702929774
 21
64.8700309077
 72
1
 10
113.6702929774
 20
64.8700309077
 11
114.6620404112
 21
64.8700309077
 72
1
 10
114.6620404112
 20
64.8700309077
 11
114.1661666943
 21
67.845273209
 97
3
330
32A
330
32B
330
32C
 75
0
 76
1
 98
1
 10
0.0
 20
0.0
  0
LINE
  5
32E
100
AcDbEntity
  8
DIMS
100
AcDbLine
 62
6
  6
CONTINUOUS
 10
114.1661666943
 20
70.8205155103
 11
113.6702929774
 21
73.7957578116
  0
LINE
  5
32F
100
AcDbEntity
  8
DIMS
100
AcDbLine
 62
6
  6
CONTINUOUS
 10
114.6620404112
 20
73.7957578116
 11
114.1661666943
 21
70.8205155103
  0
LINE
  5
330
100
AcDbEntity
  8
DIMS
100
AcDbLine
 62
6
  6
CONTINUOUS
 10
113.6702929774
 20
73.7957578116
 11
114.6620404112
 21
73.7957578116
  0
HATCH
  5
331
100
AcDbEntity
  8
DIMS
100
AcDbHatch
 62
6
  6
CONTINUOUS
 10
0.0
 20
0.0
 30
0.0
210
0.0
220
0.0
230
1.0
  2

 70
1
 71
1
 91
1
 92
1
 93
3
 72
1
 10
113.6702929774
 20
73.7957578116
 11
114.6620404112
 21
73.7957578116
 72
1
 10
114.6620404112
 20
73.7957578116
 11
114.1661666943
 21
70.8205155103
 72
1
 10
114.1661666943
 20
70.8205155103
 11
113.6702929774
 21
73.7957578116
 97
3
330
32E
330
32F
330
330
 75
0
 76
1
 98
1
 10
0.0
 20
0.0
  0
LINE
  5
332
100
AcDbEntity
  8
Format_A3
100
AcDbLine
 62
1
  6
CONTINUOUS
 10
111.5300379542
 20
290.2481681706
 11
111.5300379542
 21
285.2481781706
  0
LINE
  5
333
100
AcDbEntity
  8
Format_A3
100
AcDbLine
 62
1
  6
CONTINUOUS
 10
111.5300379542
 20
8.2487321705
 11
111.5300379542
 21
3.2487421705
  0
LINE
  5
334
100
AcDbEntity
  8
DIMS
100
AcDbLine
 62
6
  6
CONTINUOUS
 10
114.1661666943
 20
64.8700309077
 11
114.1661666943
 21
61.8947886064
  0
LINE
  5
335
100
AcDbEntity
  8
DIMS
100
AcDbLine
 62
6
  6
CONTINUOUS
 10
114.1661666943
 20
67.845273209
 11
114.1661666943
 21
70.8205155103
  0
LINE
  5
336
100
AcDbEntity
  8
DIMS
100
AcDbLine
 62
6
  6
CONTINUOUS
 10
114.1661666943
 20
73.7957578116
 11
114.1661666943
 21
82.7214847155
  0
LINE
  5
337
100
AcDbEntity
  8
HIDDEN
100
AcDbLine
 62
1
  6
DASHED
 10
115.1531854831
 20
215.1601194396
 11
115.1531854831
 21
177.9695906734
  0
LINE
  5
338
100
AcDbEntity
  8
HIDDEN
100
AcDbLine
 62
1
  6
DASHED
 10
121.1036700856
 20
65.6138414831
 11
121.1036700856
 21
70.076704935
  0
LINE
  5
339
100
AcDbEntity
  8
HIDDEN
100
AcDbLine
 62
1
  6
DASHED
 10
121.1036700856
 20
236.8050071815
 11
121.1036700856
 21
241.2678706334
  0
LINE
  5
33A
100
AcDbEntity
  8
HIDDEN
100
AcDbLine
 62
1
  6
DASHED
 10
137.4675027428
 20
215.1601194396
 11
115.1531854831
 21
177.9695906734
  0
LINE
  5
33B
100
AcDbEntity
  8
DIMS
100
AcDbLine
 62
2
  6
CONTINUOUS
 10
32.9612516651
 20
92.4008822198
 11
44.367065614
 21
104.851522812
  0
LINE
  5
33C
100
AcDbEntity
  8
DIMS
100
AcDbLine
 62
6
  6
CONTINUOUS
 10
316.0895308457
 20
77.0814823788
 11
319.064773147
 21
77.5773560956
  0
LINE
  5
33D
100
AcDbEntity
  8
DIMS
100
AcDbLine
 62
6
  6
CONTINUOUS
 10
319.064773147
 20
77.5773560956
 11
316.0895308457
 21
78.0732298125
  0
LINE
  5
33E
100
AcDbEntity
  8
DIMS
100
AcDbLine
 62
6
  6
CONTINUOUS
 10
316.0895308457
 20
78.0732298125
 11
316.0895308457
 21
77.0814823788
  0
HATCH
  5
33F
100
AcDbEntity
  8
DIMS
100
AcDbHatch
 62
6
  6
CONTINUOUS
 10
0.0
 20
0.0
 30
0.0
210
0.0
220
0.0
230
1.0
  2

 70
1
 71
1
 91
1
 92
1
 93
3
 72
1
 10
319.064773147
 20
77.5773560956
 11
316.0895308457
 21
78.0732298125
 72
1
 10
316.0895308457
 20
78.0732298125
 11
316.0895308457
 21
77.0814823788
 72
1
 10
316.0895308457
 20
77.0814823788
 11
319.064773147
 21
77.5773560956
 97
3
330
33C
330
33D
330
33E
 75
0
 76
1
 98
1
 10
0.0
 20
0.0
  0
LINE
  5
340
100
AcDbEntity
  8
DIMS
100
AcDbLine
 62
6
  6
CONTINUOUS
 10
308.6514250924
 20
76.9610126279
 11
311.6266673937
 21
77.4568863448
  0
LINE
  5
341
100
AcDbEntity
  8
DIMS
100
AcDbLine
 62
6
  6
CONTINUOUS
 10
311.6266673937
 20
77.4568863448
 11
308.6514250924
 21
77.9527600617
  0
LINE
  5
342
100
AcDbEntity
  8
DIMS
100
AcDbLine
 62
6
  6
CONTINUOUS
 10
308.6514250924
 20
77.9527600617
 11
308.6514250924
 21
76.9610126279
  0
HATCH
  5
343
100
AcDbEntity
  8
DIMS
100
AcDbHatch
 62
6
  6
CONTINUOUS
 10
0.0
 20
0.0
 30
0.0
210
0.0
220
0.0
230
1.0
  2

 70
1
 71
1
 91
1
 92
1
 93
3
 72
1
 10
311.6266673937
 20
77.4568863448
 11
308.6514250924
 21
77.9527600617
 72
1
 10
308.6514250924
 20
77.9527600617
 11
308.6514250924
 21
76.9610126279
 72
1
 10
308.6514250924
 20
76.9610126279
 11
311.6266673937
 21
77.4568863448
 97
3
330
340
330
341
330
342
 75
0
 76
1
 98
1
 10
0.0
 20
0.0
  0
LINE
  5
344
100
AcDbEntity
  8
DIMS
100
AcDbLine
 62
6
  6
CONTINUOUS
 10
311.6266673937
 20
77.5773560956
 11
314.601909695
 21
78.0732298125
  0
LINE
  5
345
100
AcDbEntity
  8
DIMS
100
AcDbLine
 62
6
  6
CONTINUOUS
 10
314.601909695
 20
77.0814823788
 11
311.6266673937
 21
77.5773560956
  0
LINE
  5
346
100
AcDbEntity
  8
DIMS
100
AcDbLine
 62
6
  6
CONTINUOUS
 10
314.601909695
 20
78.0732298125
 11
314.601909695
 21
77.0814823788
  0
HATCH
  5
347
100
AcDbEntity
  8
DIMS
100
AcDbHatch
 62
6
  6
CONTINUOUS
 10
0.0
 20
0.0
 30
0.0
210
0.0
220
0.0
230
1.0
  2

 70
1
 71
1
 91
1
 92
1
 93
3
 72
1
 10
314.601909695
 20
78.0732298125
 11
314.601909695
 21
77.0814823788
 72
1
 10
314.601909695
 20
77.0814823788
 11
311.6266673937
 21
77.5773560956
 72
1
 10
311.6266673937
 20
77.5773560956
 11
314.601909695
 21
78.0732298125
 97
3
330
344
330
345
330
346
 75
0
 76
1
 98
1
 10
0.0
 20
0.0
  0
LINE
  5
348
100
AcDbEntity
  8
0
100
AcDbLine
 62
3
  6
CONTINUOUS
 10
87.0558945227
 20
58.3489698079
 11
82.2955727422
 21
58.3239274909
  0
LINE
  5
349
100
AcDbEntity
  8
MM_4_0_025
100
AcDbLine
 62
1
  6
CONTINUOUS
 10
275.9785805215
 20
49.0967467745
 11
411.5294279542
 21
49.0967467745
  0
LINE
  5
34A
100
AcDbEntity
  8
MM_4_0_025
100
AcDbLine
 62
1
  6
DOT
 10
292.1185459908
 20
52.2075487502
 11
297.3435399591
 21
52.2075487502
  0
LINE
  5
34B
100
AcDbEntity
  8
MM_4_0_025
100
AcDbLine
 62
1
  6
DOT
 10
291.6188637078
 20
52.2098401854
 11
283.8985147485
 21
52.2098401854
  0
LINE
  5
34C
100
AcDbEntity
  8
Format_A3
100
AcDbLine
 62
1
  6
CONTINUOUS
 10
416.5294279542
 20
54.4146398385
 11
411.5294379542
 21
54.4146398385
  0
LINE
  5
34D
100
AcDbEntity
  8
Format_A3
100
AcDbLine
 62
1
  6
CONTINUOUS
 10
11.5302379541
 20
54.4146398385
 11
6.5302479541
 21
54.4146398385
  0
LINE
  5
34E
100
AcDbEntity
  8
0
100
AcDbLine
 62
3
  6
CONTINUOUS
 10
43.3010839068
 20
55.2004934285
 11
209.319604319
 21
55.2004934285
  0
LINE
  5
34F
100
AcDbEntity
  8
MM_4_0_050
100
AcDbLine
 62
7
  6
CONTINUOUS
 10
320.3294279542
 20
55.4701256401
 11
411.5294279542
 21
55.4701256401
  0
LINE
  5
350
100
AcDbEntity
  8
MM_4_0_050
100
AcDbLine
 62
7
  6
CONTINUOUS
 10
221.5294279542
 20
55.4729346836
 11
320.3294279542
 21
55.4729346836
  0
LINE
  5
351
100
AcDbEntity
  8
MM_4_0_025
100
AcDbLine
 62
1
  6
CONTINUOUS
 10
221.5294279542
 20
59.7229346836
 11
320.3294279542
 21
59.7229346836
  0
LINE
  5
352
100
AcDbEntity
  8
MM_4_0_025
100
AcDbLine
 62
1
  6
CONTINUOUS
 10
320.3294279542
 20
61.8463135492
 11
411.5294279542
 21
61.8463135492
  0
LINE
  5
353
100
AcDbEntity
  8
DIMS
100
AcDbLine
 62
2
  6
CONTINUOUS
 10
40.3258416055
 20
61.8947886064
 11
24.9187221265
 21
61.8947886064
  0
LINE
  5
354
100
AcDbEntity
  8
0
100
AcDbLine
 62
3
  6
CONTINUOUS
 10
43.3010839068
 20
61.8947886064
 11
209.319604319
 21
61.8947886064
  0
LINE
  5
355
100
AcDbEntity
  8
0
100
AcDbLine
 62
3
  6
CONTINUOUS
 10
165.5647937031
 20
58.3489698079
 11
170.3251154836
 21
58.3239274909
  0
LINE
  5
356
100
AcDbEntity
  8
HIDDEN
100
AcDbLine
 62
1
  6
DASHED
 10
170.9389374252
 20
61.891038611
 11
164.9862759866
 21
61.9223533338
  0
LINE
  5
357
100
AcDbEntity
  8
0
100
AcDbLine
 62
1
  6
CONTINUOUS
 10
188.6432608896
 20
39.6518793934
 11
188.1846072059
 21
40.0310304374
  0
LINE
  5
358
100
AcDbEntity
  8
HIDDEN
100
AcDbLine
 62
1
  6
DASHED
 10
124.0789123869
 20
70.8205155103
 11
124.0789123869
 21
73.2007093514
  0
LINE
  5
359
100
AcDbEntity
  8
LASER
100
AcDbLine
 62
7
  6
CONTINUOUS
 10
126.2731535841
 20
70.0020031712
 11
126.2731535841
 21
69.9276107352
  0
LINE
  5
35A
100
AcDbEntity
  8
LASER
100
AcDbLine
 62
7
  6
CONTINUOUS
 10
126.2731535841
 20
65.7629356829
 11
126.2731535841
 21
65.688543098
  0
LINE
  5
35B
100
AcDbEntity
  8
HIDDEN
100
AcDbLine
 62
1
  6
DASHED
 10
126.3103441129
 20
245.1356856251
 11
126.3103441129
 21
234.5735754555
  0
LINE
  5
35C
100
AcDbEntity
  8
DEFAULT_1
100
AcDbLine
 62
1
  6
CENTER
 10
126.3103441129
 20
74.2603827959
 11
126.3103441129
 21
65.334655892
  0
LINE
  5
35D
100
AcDbEntity
  8
CENTRELINES
100
AcDbLine
 62
1
  6
CONTINUOUS
 10
126.3103441129
 20
65.3080464512
 11
126.3103441129
 21
70.3824999668
  0
LINE
  5
35E
100
AcDbEntity
  8
HIDDEN
100
AcDbLine
 62
1
  6
DASHED
 10
126.3103441129
 20
65.0559835516
 11
126.3103441129
 21
70.6345628665
  0
LINE
  5
35F
100
AcDbEntity
  8
LASER
100
AcDbLine
 62
7
  6
CONTINUOUS
 10
126.3475346417
 20
65.688543098
 11
126.3475346417
 21
65.7629356829
  0
LINE
  5
360
100
AcDbEntity
  8
LASER
100
AcDbLine
 62
7
  6
CONTINUOUS
 10
126.3475346417
 20
69.9276107352
 11
126.3475346417
 21
70.0020031712
  0
LINE
  5
361
100
AcDbEntity
  8
Format_A3
100
AcDbLine
 62
1
  6
CONTINUOUS
 10
126.5300079542
 20
-1.7512478295
 11
126.5300079542
 21
3.2487421705
  0
LINE
  5
362
100
AcDbEntity
  8
HIDDEN
100
AcDbLine
 62
1
  6
DASHED
 10
128.5417758389
 20
70.8205155103
 11
128.5417758389
 21
73.2007093514
  0
LINE
  5
363
100
AcDbEntity
  8
HIDDEN
100
AcDbLine
 62
1
  6
DASHED
 10
131.5170181402
 20
65.6138414831
 11
131.5170181402
 21
70.076704935
  0
LINE
  5
364
100
AcDbEntity
  8
HIDDEN
100
AcDbLine
 62
1
  6
DASHED
 10
131.5170181402
 20
236.8050071815
 11
131.5170181402
 21
241.2678706334
  0
LINE
  5
365
100
AcDbEntity
  8
HIDDEN
100
AcDbLine
 62
1
  6
DASHED
 10
137.4675027428
 20
177.9695906734
 11
137.4675027428
 21
215.1601194396
  0
LINE
  5
366
100
AcDbEntity
  8
0
100
AcDbLine
 62
2
  6
CONTINUOUS
 10
138.2185959674
 20
147.0110768786
 11
138.2345867047
 21
147.6059368573
  0
LINE
  5
367
100
AcDbEntity
  8
DIMS
100
AcDbLine
 62
6
  6
CONTINUOUS
 10
273.9154712248
 20
77.4568863448
 11
276.8907135261
 21
77.9527600617
  0
LINE
  5
368
100
AcDbEntity
  8
DIMS
100
AcDbLine
 62
6
  6
CONTINUOUS
 10
276.8907135261
 20
76.9610126279
 11
273.9154712248
 21
77.4568863448
  0
LINE
  5
369
100
AcDbEntity
  8
DIMS
100
AcDbLine
 62
6
  6
CONTINUOUS
 10
276.8907135261
 20
77.9527600617
 11
276.8907135261
 21
76.9610126279
  0
HATCH
  5
36A
100
AcDbEntity
  8
DIMS
100
AcDbHatch
 62
6
  6
CONTINUOUS
 10
0.0
 20
0.0
 30
0.0
210
0.0
220
0.0
230
1.0
  2

 70
1
 71
1
 91
1
 92
1
 93
3
 72
1
 10
276.8907135261
 20
77.9527600617
 11
276.8907135261
 21
76.9610126279
 72
1
 10
276.8907135261
 20
76.9610126279
 11
273.9154712248
 21
77.4568863448
 72
1
 10
273.9154712248
 20
77.4568863448
 11
276.8907135261
 21
77.9527600617
 97
3
330
367
330
368
330
369
 75
0
 76
1
 98
1
 10
0.0
 20
0.0
  0
LINE
  5
36B
100
AcDbEntity
  8
DIMS
100
AcDbLine
 62
6
  6
CONTINUOUS
 10
295.039691564
 20
85.8757661954
 11
298.0149338653
 21
86.3716399123
  0
LINE
  5
36C
100
AcDbEntity
  8
DIMS
100
AcDbLine
 62
6
  6
CONTINUOUS
 10
298.0149338653
 20
86.3716399123
 11
295.039691564
 21
86.8675136292
  0
LINE
  5
36D
100
AcDbEntity
  8
DIMS
100
AcDbLine
 62
6
  6
CONTINUOUS
 10
295.039691564
 20
86.8675136292
 11
295.039691564
 21
85.8757661954
  0
HATCH
  5
36E
100
AcDbEntity
  8
DIMS
100
AcDbHatch
 62
6
  6
CONTINUOUS
 10
0.0
 20
0.0
 30
0.0
210
0.0
220
0.0
230
1.0
  2

 70
1
 71
1
 91
1
 92
1
 93
3
 72
1
 10
298.0149338653
 20
86.3716399123
 11
295.039691564
 21
86.8675136292
 72
1
 10
295.039691564
 20
86.8675136292
 11
295.039691564
 21
85.8757661954
 72
1
 10
295.039691564
 20
85.8757661954
 11
298.0149338653
 21
86.3716399123
 97
3
330
36B
330
36C
330
36D
 75
0
 76
1
 98
1
 10
0.0
 20
0.0
  0
LINE
  5
36F
100
AcDbEntity
  8
DIMS
100
AcDbLine
 62
6
  6
CONTINUOUS
 10
273.9154712248
 20
86.3716399123
 11
276.8907135261
 21
86.8675136292
  0
LINE
  5
370
100
AcDbEntity
  8
DIMS
100
AcDbLine
 62
6
  6
CONTINUOUS
 10
276.8907135261
 20
85.8757661954
 11
273.9154712248
 21
86.3716399123
  0
LINE
  5
371
100
AcDbEntity
  8
DIMS
100
AcDbLine
 62
6
  6
CONTINUOUS
 10
276.8907135261
 20
86.8675136292
 11
276.8907135261
 21
85.8757661954
  0
HATCH
  5
372
100
AcDbEntity
  8
DIMS
100
AcDbHatch
 62
6
  6
CONTINUOUS
 10
0.0
 20
0.0
 30
0.0
210
0.0
220
0.0
230
1.0
  2

 70
1
 71
1
 91
1
 92
1
 93
3
 72
1
 10
276.8907135261
 20
86.8675136292
 11
276.8907135261
 21
85.8757661954
 72
1
 10
276.8907135261
 20
85.8757661954
 11
273.9154712248
 21
86.3716399123
 72
1
 10
273.9154712248
 20
86.3716399123
 11
276.8907135261
 21
86.8675136292
 97
3
330
36F
330
370
330
371
 75
0
 76
1
 98
1
 10
0.0
 20
0.0
  0
LINE
  5
373
100
AcDbEntity
  8
HIDDEN
100
AcDbLine
 62
1
  6
DASHED
 10
81.6817508006
 20
61.891038611
 11
87.6344120905
 21
61.9223533338
  0
LINE
  5
374
100
AcDbEntity
  8
HIDDEN
100
AcDbLine
 62
1
  6
DASHED
 10
170.4591675544
 20
62.886158234
 11
165.4786103057
 21
62.886158234
  0
LINE
  5
375
100
AcDbEntity
  8
HIDDEN
100
AcDbLine
 62
1
  6
DASHED
 10
82.1615206714
 20
62.886158234
 11
87.1420777714
 21
62.886158234
  0
LINE
  5
376
100
AcDbEntity
  8
HIDDEN
100
AcDbLine
 62
1
  6
DASHED
 10
86.0722938478
 20
63.5752743351
 11
83.2338012696
 21
63.5752743351
  0
LINE
  5
377
100
AcDbEntity
  8
HIDDEN
100
AcDbLine
 62
1
  6
DASHED
 10
166.548394378
 20
63.5752743351
 11
169.3868869563
 21
63.5752743351
  0
LINE
  5
378
100
AcDbEntity
  8
MM_4_0_025
100
AcDbLine
 62
1
  6
CONTINUOUS
 10
221.5294279542
 20
63.9729346836
 11
320.3294279542
 21
63.9729346836
  0
LINE
  5
379
100
AcDbEntity
  8
HIDDEN
100
AcDbLine
 62
1
  6
DASHED
 10
170.195168057
 20
64.6029477204
 11
165.7323046051
 21
64.6029477204
  0
LINE
  5
37A
100
AcDbEntity
  8
HIDDEN
100
AcDbLine
 62
1
  6
DASHED
 10
82.4255201688
 20
64.6029477204
 11
86.8883836208
 21
64.6029477204
  0
LINE
  5
37B
100
AcDbEntity
  8
HIDDEN
100
AcDbLine
 62
1
  6
DASHED
 10
88.8636743568
 20
65.6138414831
 11
87.6321941961
 21
65.6138414831
  0
LINE
  5
37C
100
AcDbEntity
  8
HIDDEN
100
AcDbLine
 62
1
  6
DASHED
 10
121.1036700856
 20
65.6138414831
 11
131.5170181402
 21
65.6138414831
  0
LINE
  5
37D
100
AcDbEntity
  8
HIDDEN
100
AcDbLine
 62
1
  6
DASHED
 10
163.7570137203
 20
65.6138414831
 11
164.9884940297
 21
65.6138414831
  0
LINE
  5
37E
100
AcDbEntity
  8
HIDDEN
100
AcDbLine
 62
1
  6
DASHED
 10
87.3760532062
 20
66.2088899433
 11
121.1036700856
 21
66.2088899433
  0
LINE
  5
37F
100
AcDbEntity
  8
HIDDEN
100
AcDbLine
 62
1
  6
DASHED
 10
131.5170181402
 20
66.2088899433
 11
165.2446348709
 21
66.2088899433
  0
LINE
  5
380
100
AcDbEntity
  8
HIDDEN
100
AcDbLine
 62
1
  6
DASHED
 10
169.613432616
 20
66.6231232594
 11
166.3406660845
 21
66.6231232594
  0
LINE
  5
381
100
AcDbEntity
  8
HIDDEN
100
AcDbLine
 62
1
  6
DASHED
 10
83.0072554611
 20
66.6231232594
 11
86.2800219925
 21
66.6231232594
  0
LINE
  5
382
100
AcDbEntity
  8
LASER
100
AcDbLine
 62
7
  6
CONTINUOUS
 10
124.1536140763
 20
67.8080826059
 11
124.2280065881
 21
67.8080826059
  0
LINE
  5
383
100
AcDbEntity
  8
LASER
100
AcDbLine
 62
7
  6
CONTINUOUS
 10
128.3926816377
 20
67.8080826059
 11
128.4670741495
 21
67.8080826059
  0
LINE
  5
384
100
AcDbEntity
  8
CENTRELINES
100
AcDbLine
 62
1
  6
CONTINUOUS
 10
128.8475709451
 20
67.8452731346
 11
123.7731172807
 21
67.8452731346
  0
LINE
  5
385
100
AcDbEntity
  8
DIMS
100
AcDbLine
 62
6
  6
CONTINUOUS
 10
113.9608235154
 20
67.845273209
 11
111.9347349683
 21
67.845273209
  0
LINE
  5
386
100
AcDbEntity
  8
DEFAULT_1
100
AcDbLine
 62
1
  6
CENTER
 10
164.3934455695
 20
67.845273209
 11
88.2272426563
 21
67.845273209
  0
LINE
  5
387
100
AcDbEntity
  8
HIDDEN
100
AcDbLine
 62
1
  6
DASHED
 10
123.5210544554
 20
67.845273209
 11
129.0996337704
 21
67.845273209
  0
LINE
  5
388
100
AcDbEntity
  8
LASER
100
AcDbLine
 62
7
  6
CONTINUOUS
 10
124.1536140763
 20
67.8824636634
 11
124.2280065854
 21
67.8824636634
  0
LINE
  5
389
100
AcDbEntity
  8
LASER
100
AcDbLine
 62
7
  6
CONTINUOUS
 10
128.3926816404
 20
67.8824636634
 11
128.4670741495
 21
67.8824636634
  0
LINE
  5
38A
100
AcDbEntity
  8
MM_4_0_050
100
AcDbLine
 62
7
  6
CONTINUOUS
 10
411.5294279542
 20
68.2229346836
 11
221.5294279542
 21
68.2229346836
  0
LINE
  5
38B
100
AcDbEntity
  8
HIDDEN
100
AcDbLine
 62
1
  6
DASHED
 10
87.3760532062
 20
69.4816564747
 11
121.1036700856
 21
69.4816564747
  0
LINE
  5
38C
100
AcDbEntity
  8
HIDDEN
100
AcDbLine
 62
1
  6
DASHED
 10
131.5170181402
 20
69.4816564747
 11
165.2446348709
 21
69.4816564747
  0
LINE
  5
38D
100
AcDbEntity
  8
HIDDEN
100
AcDbLine
 62
1
  6
DASHED
 10
88.8636743568
 20
70.076704935
 11
83.9131413195
 21
70.076704935
  0
LINE
  5
38E
100
AcDbEntity
  8
HIDDEN
100
AcDbLine
 62
1
  6
DASHED
 10
121.1036700856
 20
70.076704935
 11
123.3351018116
 21
70.076704935
  0
LINE
  5
38F
100
AcDbEntity
  8
HIDDEN
100
AcDbLine
 62
1
  6
DASHED
 10
129.2855864142
 20
70.076704935
 11
131.5170181402
 21
70.076704935
  0
LINE
  5
390
100
AcDbEntity
  8
HIDDEN
100
AcDbLine
 62
1
  6
DASHED
 10
163.7570137203
 20
70.076704935
 11
168.7075469064
 21
70.076704935
  0
LINE
  5
391
100
AcDbEntity
  8
DIMS
100
AcDbLine
 62
6
  6
CONTINUOUS
 10
116.9243726341
 20
70.8205155103
 11
111.9347349683
 21
70.8205155103
  0
LINE
  5
392
100
AcDbEntity
  8
0
100
AcDbLine
 62
3
  6
CONTINUOUS
 10
215.5676131518
 20
70.8205155103
 11
37.0530750741
 21
70.8205155103
  0
LINE
  5
393
100
AcDbEntity
  8
DIMS
100
AcDbLine
 62
2
  6
CONTINUOUS
 10
41.9258263671
 20
70.8205155103
 11
17.8716665558
 21
70.8205155103
  0
LINE
  5
394
100
AcDbEntity
  8
HIDDEN
100
AcDbLine
 62
1
  6
DASHED
 10
128.5417758389
 20
73.2007093514
 11
124.0789123869
 21
73.2007093514
  0
LINE
  5
395
100
AcDbEntity
  8
MM_4_0_025
100
AcDbLine
 62
1
  6
CONTINUOUS
 10
284.557023736
 20
51.0098401854
 11
290.057023736
 21
50.2098401854
  0
LINE
  5
396
100
AcDbEntity
  8
HIDDEN
100
AcDbLine
 62
1
  6
DASHED
 10
70.5245509636
 20
215.1601194396
 11
92.8388682233
 21
177.9695906734
  0
LINE
  5
397
100
AcDbEntity
  8
HIDDEN
100
AcDbLine
 62
1
  6
DASHED
 10
182.0961372622
 20
215.1601194396
 11
159.7818200025
 21
177.9695906734
  0
LINE
  5
398
100
AcDbEntity
  8
DIMS
100
AcDbLine
 62
6
  6
CONTINUOUS
 10
212.3692276779
 20
78.8708237289
 11
215.3444699792
 21
79.3666974458
  0
LINE
  5
399
100
AcDbEntity
  8
DIMS
100
AcDbLine
 62
6
  6
CONTINUOUS
 10
215.3444699792
 20
79.3666974458
 11
212.3692276779
 21
79.8625711627
  0
LINE
  5
39A
100
AcDbEntity
  8
DIMS
100
AcDbLine
 62
6
  6
CONTINUOUS
 10
212.3692276779
 20
79.8625711627
 11
212.3692276779
 21
78.8708237289
  0
HATCH
  5
39B
100
AcDbEntity
  8
DIMS
100
AcDbHatch
 62
6
  6
CONTINUOUS
 10
0.0
 20
0.0
 30
0.0
210
0.0
220
0.0
230
1.0
  2

 70
1
 71
1
 91
1
 92
1
 93
3
 72
1
 10
215.3444699792
 20
79.3666974458
 11
212.3692276779
 21
79.8625711627
 72
1
 10
212.3692276779
 20
79.8625711627
 11
212.3692276779
 21
78.8708237289
 72
1
 10
212.3692276779
 20
78.8708237289
 11
215.3444699792
 21
79.3666974458
 97
3
330
398
330
399
330
39A
 75
0
 76
1
 98
1
 10
0.0
 20
0.0
  0
LINE
  5
39C
100
AcDbEntity
  8
DIMS
100
AcDbLine
 62
6
  6
CONTINUOUS
 10
194.4433928126
 20
79.3666974458
 11
197.4186351139
 21
79.8625711627
  0
LINE
  5
39D
100
AcDbEntity
  8
DIMS
100
AcDbLine
 62
6
  6
CONTINUOUS
 10
197.4186351139
 20
78.8708237289
 11
194.4433928126
 21
79.3666974458
  0
LINE
  5
39E
100
AcDbEntity
  8
DIMS
100
AcDbLine
 62
6
  6
CONTINUOUS
 10
197.4186351139
 20
79.8625711627
 11
197.4186351139
 21
78.8708237289
  0
HATCH
  5
39F
100
AcDbEntity
  8
DIMS
100
AcDbHatch
 62
6
  6
CONTINUOUS
 10
0.0
 20
0.0
 30
0.0
210
0.0
220
0.0
230
1.0
  2

 70
1
 71
1
 91
1
 92
1
 93
3
 72
1
 10
197.4186351139
 20
79.8625711627
 11
197.4186351139
 21
78.8708237289
 72
1
 10
197.4186351139
 20
78.8708237289
 11
194.4433928126
 21
79.3666974458
 72
1
 10
194.4433928126
 20
79.3666974458
 11
197.4186351139
 21
79.8625711627
 97
3
330
39C
330
39D
330
39E
 75
0
 76
1
 98
1
 10
0.0
 20
0.0
  0
LINE
  5
3A0
100
AcDbEntity
  8
DIMS
100
AcDbLine
 62
2
  6
CONTINUOUS
 10
213.1130382532
 20
88.719040203
 11
215.3444699792
 21
89.0909454906
  0
LINE
  5
3A1
100
AcDbEntity
  8
DIMS
100
AcDbLine
 62
2
  6
CONTINUOUS
 10
215.3444699792
 20
89.0909454906
 11
213.1130382532
 21
89.4628507783
  0
LINE
  5
3A2
100
AcDbEntity
  8
DIMS
100
AcDbLine
 62
2
  6
CONTINUOUS
 10
213.1130382532
 20
89.4628507783
 11
213.1130382532
 21
88.719040203
  0
HATCH
  5
3A3
100
AcDbEntity
  8
DIMS
100
AcDbHatch
 62
2
  6
CONTINUOUS
 10
0.0
 20
0.0
 30
0.0
210
0.0
220
0.0
230
1.0
  2

 70
1
 71
1
 91
1
 92
1
 93
3
 72
1
 10
215.3444699792
 20
89.0909454906
 11
213.1130382532
 21
89.4628507783
 72
1
 10
213.1130382532
 20
89.4628507783
 11
213.1130382532
 21
88.719040203
 72
1
 10
213.1130382532
 20
88.719040203
 11
215.3444699792
 21
89.0909454906
 97
3
330
3A0
330
3A1
330
3A2
 75
0
 76
1
 98
1
 10
0.0
 20
0.0
  0
LINE
  5
3A4
100
AcDbEntity
  8
DIMS
100
AcDbLine
 62
2
  6
CONTINUOUS
 10
204.1129302918
 20
88.719040203
 11
206.3443620177
 21
89.0909454906
  0
LINE
  5
3A5
100
AcDbEntity
  8
DIMS
100
AcDbLine
 62
2
  6
CONTINUOUS
 10
206.3443620177
 20
89.0909454906
 11
204.1129302918
 21
89.4628507783
  0
LINE
  5
3A6
100
AcDbEntity
  8
DIMS
100
AcDbLine
 62
2
  6
CONTINUOUS
 10
204.1129302918
 20
89.4628507783
 11
204.1129302918
 21
88.719040203
  0
HATCH
  5
3A7
100
AcDbEntity
  8
DIMS
100
AcDbHatch
 62
2
  6
CONTINUOUS
 10
0.0
 20
0.0
 30
0.0
210
0.0
220
0.0
230
1.0
  2

 70
1
 71
1
 91
1
 92
1
 93
3
 72
1
 10
206.3443620177
 20
89.0909454906
 11
204.1129302918
 21
89.4628507783
 72
1
 10
204.1129302918
 20
89.4628507783
 11
204.1129302918
 21
88.719040203
 72
1
 10
204.1129302918
 20
88.719040203
 11
206.3443620177
 21
89.0909454906
 97
3
330
3A4
330
3A5
330
3A6
 75
0
 76
1
 98
1
 10
0.0
 20
0.0
  0
LINE
  5
3A8
100
AcDbEntity
  8
DIMS
100
AcDbLine
 62
2
  6
CONTINUOUS
 10
206.3443620177
 20
89.0909454906
 11
208.5757937437
 21
89.4628507783
  0
LINE
  5
3A9
100
AcDbEntity
  8
DIMS
100
AcDbLine
 62
2
  6
CONTINUOUS
 10
208.5757937437
 20
88.719040203
 11
206.3443620177
 21
89.0909454906
  0
LINE
  5
3AA
100
AcDbEntity
  8
DIMS
100
AcDbLine
 62
2
  6
CONTINUOUS
 10
208.5757937437
 20
89.4628507783
 11
208.5757937437
 21
88.719040203
  0
HATCH
  5
3AB
100
AcDbEntity
  8
DIMS
100
AcDbHatch
 62
2
  6
CONTINUOUS
 10
0.0
 20
0.0
 30
0.0
210
0.0
220
0.0
230
1.0
  2

 70
1
 71
1
 91
1
 92
1
 93
3
 72
1
 10
208.5757937437
 20
89.4628507783
 11
208.5757937437
 21
88.719040203
 72
1
 10
208.5757937437
 20
88.719040203
 11
206.3443620177
 21
89.0909454906
 72
1
 10
206.3443620177
 20
89.0909454906
 11
208.5757937437
 21
89.4628507783
 97
3
330
3A8
330
3A9
330
3AA
 75
0
 76
1
 98
1
 10
0.0
 20
0.0
  0
LINE
  5
3AC
100
AcDbEntity
  8
DIMS
100
AcDbLine
 62
6
  6
CONTINUOUS
 10
308.6514250924
 20
77.4568863448
 11
276.8907135261
 21
77.4568863448
  0
LINE
  5
3AD
100
AcDbEntity
  8
DIMS
100
AcDbLine
 62
6
  6
CONTINUOUS
 10
314.601909695
 20
77.5773560956
 11
316.0895308457
 21
77.5773560956
  0
LINE
  5
3AE
100
AcDbEntity
  8
DIMS
100
AcDbLine
 62
6
  6
CONTINUOUS
 10
197.4186351139
 20
79.3666974458
 11
212.3692276779
 21
79.3666974458
  0
LINE
  5
3AF
100
AcDbEntity
  8
DIMS
100
AcDbLine
 62
6
  6
CONTINUOUS
 10
295.039691564
 20
86.3716399123
 11
276.8907135261
 21
86.3716399123
  0
LINE
  5
3B0
100
AcDbEntity
  8
DIMS
100
AcDbLine
 62
2
  6
CONTINUOUS
 10
219.2407042878
 20
89.0909454906
 11
215.3444699792
 21
89.0909454906
  0
LINE
  5
3B1
100
AcDbEntity
  8
DIMS
100
AcDbLine
 62
2
  6
CONTINUOUS
 10
213.1130382532
 20
89.0909454906
 11
208.5757937437
 21
89.0909454906
  0
LINE
  5
3B2
100
AcDbEntity
  8
DIMS
100
AcDbLine
 62
2
  6
CONTINUOUS
 10
204.1129302918
 20
89.0909454906
 11
131.6161928836
 21
89.0909454906
  0
LINE
  5
3B3
100
AcDbEntity
  8
DIMS
100
AcDbLine
 62
2
  6
CONTINUOUS
 10
48.507757934
 20
89.0909454906
 11
121.0044953423
 21
89.0909454906
  0
LINE
  5
3B4
100
AcDbEntity
  8
0
100
AcDbLine
 62
3
  6
CONTINUOUS
 10
165.5647937031
 20
58.3489698079
 11
164.9862759866
 21
61.9223533338
  0
LINE
  5
3B5
100
AcDbEntity
  8
HIDDEN
100
AcDbLine
 62
1
  6
DASHED
 10
159.7818200025
 20
215.1601194396
 11
159.7818200025
 21
177.9695906734
  0
LINE
  5
3B6
100
AcDbEntity
  8
Format_A3
100
AcDbLine
 62
1
  6
CONTINUOUS
 10
161.5299379542
 20
290.2481681706
 11
161.5299379542
 21
285.2481781706
  0
LINE
  5
3B7
100
AcDbEntity
  8
Format_A3
100
AcDbLine
 62
1
  6
CONTINUOUS
 10
161.5299379542
 20
8.2487321705
 11
161.5299379542
 21
3.2487421705
  0
LINE
  5
3B8
100
AcDbEntity
  8
HIDDEN
100
AcDbLine
 62
1
  6
DASHED
 10
163.7570137203
 20
65.6138414831
 11
163.7570137203
 21
70.076704935
  0
LINE
  5
3B9
100
AcDbEntity
  8
0
100
AcDbLine
 62
1
  6
DASHED
 10
164.909371031
 20
241.2678706334
 11
164.909371031
 21
236.8050071815
  0
LINE
  5
3BA
100
AcDbEntity
  8
HIDDEN
100
AcDbLine
 62
1
  6
DASHED
 10
165.2446348709
 20
69.4816564747
 11
165.2446348709
 21
66.2088899433
  0
LINE
  5
3BB
100
AcDbEntity
  8
HIDDEN
100
AcDbLine
 62
1
  6
DASHED
 10
165.7323046051
 20
64.8700309077
 11
165.7323046051
 21
64.6029477204
  0
LINE
  5
3BC
100
AcDbEntity
  8
HIDDEN
100
AcDbLine
 62
1
  6
DASHED
 10
166.3406660845
 20
66.6231232594
 11
166.3406660845
 21
63.5752743351
  0
LINE
  5
3BD
100
AcDbEntity
  8
HIDDEN
100
AcDbLine
 62
1
  6
DASHED
 10
166.5638092571
 20
63.5752743351
 11
166.5638092571
 21
66.6231232594
  0
LINE
  5
3BE
100
AcDbEntity
  8
DEFAULT_1
100
AcDbLine
 62
1
  6
CENTER
 10
167.963736331
 20
58.1870168073
 11
167.963736331
 21
65.8495435997
  0
LINE
  5
3BF
100
AcDbEntity
  8
DEFAULT_1
100
AcDbLine
 62
1
  6
CENTER
 10
167.963736331
 20
235.4661481459
 11
167.963736331
 21
242.606729669
  0
LINE
  5
3C0
100
AcDbEntity
  8
HIDDEN
100
AcDbLine
 62
1
  6
DASHED
 10
165.4774557629
 20
62.1752819546
 11
165.4786103057
 21
62.886158234
  0
LINE
  5
3C1
100
AcDbEntity
  8
HIDDEN
100
AcDbLine
 62
1
  6
DASHED
 10
166.0724112468
 20
63.3431456332
 11
166.0714913019
 21
62.7767343264
  0
LINE
  5
3C2
100
AcDbEntity
  8
HIDDEN
100
AcDbLine
 62
1
  6
DASHED
 10
167.0243773604
 20
63.3431456332
 11
167.0234574155
 21
62.7767343264
  0
LINE
  5
3C3
100
AcDbEntity
  8
0
100
AcDbLine
 62
1
  6
CONTINUOUS
 10
273.2000855194
 20
243.9305256479
 11
271.3464754992
 21
242.9353680906
  0
LINE
  5
3C4
100
AcDbEntity
  8
0
100
AcDbLine
 62
3
  6
CONTINUOUS
 10
311.6266673937
 20
95.0347115248
 11
308.6514250924
 21
95.0347115248
  0
LINE
  5
3C5
100
AcDbEntity
  8
0
100
AcDbLine
 62
3
  6
CONTINUOUS
 10
307.5357092294
 20
95.0347115248
 11
273.9154712248
 21
95.0347115248
  0
LINE
  5
3C6
100
AcDbEntity
  8
DIMS
100
AcDbLine
 62
6
  6
CONTINUOUS
 10
270.9402289235
 20
95.0347115248
 11
251.4851274655
 21
95.0347115248
  0
LINE
  5
3C7
100
AcDbEntity
  8
0
100
AcDbLine
 62
3
  6
CONTINUOUS
 10
215.3444699792
 20
95.0347115248
 11
37.2762182467
 21
95.0347115248
  0
LINE
  5
3C8
100
AcDbEntity
  8
DIMS
100
AcDbLine
 62
2
  6
CONTINUOUS
 10
34.3009759454
 20
95.0347115248
 11
18.5593237544
 21
95.0347115248
  0
LINE
  5
3C9
100
AcDbEntity
  8
DIMS
100
AcDbLine
 62
6
  6
CONTINUOUS
 10
225.0319351185
 20
95.0347115248
 11
232.9266344575
 21
95.0347115248
  0
LINE
  5
3CA
100
AcDbEntity
  8
DIMS
100
AcDbLine
 62
2
  6
CONTINUOUS
 10
218.3197122805
 20
95.0347115248
 11
225.0319351185
 21
95.0347115248
  0
LINE
  5
3CB
100
AcDbEntity
  8
0
100
AcDbLine
 62
3
  6
CONTINUOUS
 10
308.6514250924
 20
95.2578546974
 11
311.4035242211
 21
95.2578546974
  0
LINE
  5
3CC
100
AcDbEntity
  8
0
100
AcDbLine
 62
3
  6
CONTINUOUS
 10
307.5357092294
 20
96.5223326754
 11
311.4035242211
 21
96.5223326754
  0
LINE
  5
3CD
100
AcDbEntity
  8
DIMS
100
AcDbLine
 62
2
  6
CONTINUOUS
 10
223.1724086802
 20
97.2661432508
 11
223.9162192555
 21
97.2661432508
  0
LINE
  5
3CE
100
AcDbEntity
  8
DIMS
100
AcDbLine
 62
2
  6
CONTINUOUS
 10
223.5443139678
 20
95.0347115248
 11
223.1724086802
 21
97.2661432508
  0
LINE
  5
3CF
100
AcDbEntity
  8
DIMS
100
AcDbLine
 62
2
  6
CONTINUOUS
 10
223.9162192555
 20
97.2661432508
 11
223.5443139678
 21
95.0347115248
  0
HATCH
  5
3D0
100
AcDbEntity
  8
DIMS
100
AcDbHatch
 62
2
  6
CONTINUOUS
 10
0.0
 20
0.0
 30
0.0
210
0.0
220
0.0
230
1.0
  2

 70
1
 71
1
 91
1
 92
1
 93
3
 72
1
 10
223.9162192555
 20
97.2661432508
 11
223.5443139678
 21
95.0347115248
 72
1
 10
223.5443139678
 20
95.0347115248
 11
223.1724086802
 21
97.2661432508
 72
1
 10
223.1724086802
 20
97.2661432508
 11
223.9162192555
 21
97.2661432508
 97
3
330
3CD
330
3CE
330
3CF
 75
0
 76
1
 98
1
 10
0.0
 20
0.0
  0
LINE
  5
3D1
100
AcDbEntity
  8
DIMS
100
AcDbLine
 62
6
  6
CONTINUOUS
 10
231.1910764484
 20
98.0099538261
 11
230.1993290146
 21
98.0099538261
  0
LINE
  5
3D2
100
AcDbEntity
  8
DIMS
100
AcDbLine
 62
6
  6
CONTINUOUS
 10
230.1993290146
 20
98.0099538261
 11
230.6952027315
 21
95.0347115248
  0
LINE
  5
3D3
100
AcDbEntity
  8
DIMS
100
AcDbLine
 62
6
  6
CONTINUOUS
 10
230.6952027315
 20
95.0347115248
 11
231.1910764484
 21
98.0099538261
  0
HATCH
  5
3D4
100
AcDbEntity
  8
DIMS
100
AcDbHatch
 62
6
  6
CONTINUOUS
 10
0.0
 20
0.0
 30
0.0
210
0.0
220
0.0
230
1.0
  2

 70
1
 71
1
 91
1
 92
1
 93
3
 72
1
 10
230.1993290146
 20
98.0099538261
 11
230.6952027315
 21
95.0347115248
 72
1
 10
230.6952027315
 20
95.0347115248
 11
231.1910764484
 21
98.0099538261
 72
1
 10
231.1910764484
 20
98.0099538261
 11
230.1993290146
 21
98.0099538261
 97
3
330
3D1
330
3D2
330
3D3
 75
0
 76
1
 98
1
 10
0.0
 20
0.0
  0
LINE
  5
3D5
100
AcDbEntity
  8
DIMS
100
AcDbLine
 62
6
  6
CONTINUOUS
 10
253.2206854746
 20
98.0099538261
 11
254.2124329084
 21
98.0099538261
  0
LINE
  5
3D6
100
AcDbEntity
  8
DIMS
100
AcDbLine
 62
6
  6
CONTINUOUS
 10
253.7165591915
 20
95.0347115248
 11
253.2206854746
 21
98.0099538261
  0
LINE
  5
3D7
100
AcDbEntity
  8
DIMS
100
AcDbLine
 62
6
  6
CONTINUOUS
 10
254.2124329084
 20
98.0099538261
 11
253.7165591915
 21
95.0347115248
  0
HATCH
  5
3D8
100
AcDbEntity
  8
DIMS
100
AcDbHatch
 62
6
  6
CONTINUOUS
 10
0.0
 20
0.0
 30
0.0
210
0.0
220
0.0
230
1.0
  2

 70
1
 71
1
 91
1
 92
1
 93
3
 72
1
 10
254.2124329084
 20
98.0099538261
 11
253.7165591915
 21
95.0347115248
 72
1
 10
253.7165591915
 20
95.0347115248
 11
253.2206854746
 21
98.0099538261
 72
1
 10
253.2206854746
 20
98.0099538261
 11
254.2124329084
 21
98.0099538261
 97
3
330
3D5
330
3D6
330
3D7
 75
0
 76
1
 98
1
 10
0.0
 20
0.0
  0
LINE
  5
3D9
100
AcDbEntity
  8
DIMS
100
AcDbLine
 62
6
  6
CONTINUOUS
 10
263.1153936001
 20
98.0099538261
 11
264.1071410339
 21
98.0099538261
  0
LINE
  5
3DA
100
AcDbEntity
  8
DIMS
100
AcDbLine
 62
6
  6
CONTINUOUS
 10
263.611267317
 20
95.0347115248
 11
263.1153936001
 21
98.0099538261
  0
LINE
  5
3DB
100
AcDbEntity
  8
DIMS
100
AcDbLine
 62
6
  6
CONTINUOUS
 10
264.1071410339
 20
98.0099538261
 11
263.611267317
 21
95.0347115248
  0
HATCH
  5
3DC
100
AcDbEntity
  8
DIMS
100
AcDbHatch
 62
6
  6
CONTINUOUS
 10
0.0
 20
0.0
 30
0.0
210
0.0
220
0.0
230
1.0
  2

 70
1
 71
1
 91
1
 92
1
 93
3
 72
1
 10
264.1071410339
 20
98.0099538261
 11
263.611267317
 21
95.0347115248
 72
1
 10
263.611267317
 20
95.0347115248
 11
263.1153936001
 21
98.0099538261
 72
1
 10
263.1153936001
 20
98.0099538261
 11
264.1071410339
 21
98.0099538261
 97
3
330
3D9
330
3DA
330
3DB
 75
0
 76
1
 98
1
 10
0.0
 20
0.0
  0
LINE
  5
3DD
100
AcDbEntity
  8
Format_A3
100
AcDbLine
 62
1
  6
CONTINUOUS
 10
416.5294279542
 20
100.5805475065
 11
411.5294379542
 21
100.5805475065
  0
LINE
  5
3DE
100
AcDbEntity
  8
Format_A3
100
AcDbLine
 62
1
  6
CONTINUOUS
 10
11.5302379541
 20
100.5805475065
 11
6.5302479541
 21
100.5805475065
  0
LINE
  5
3DF
100
AcDbEntity
  8
DIMS
100
AcDbLine
 62
6
  6
CONTINUOUS
 10
263.1153936001
 20
101.7290067027
 11
264.1071410339
 21
101.7290067027
  0
LINE
  5
3E0
100
AcDbEntity
  8
DIMS
100
AcDbLine
 62
6
  6
CONTINUOUS
 10
264.1071410339
 20
101.7290067027
 11
263.611267317
 21
104.704249004
  0
LINE
  5
3E1
100
AcDbEntity
  8
DIMS
100
AcDbLine
 62
6
  6
CONTINUOUS
 10
263.611267317
 20
104.704249004
 11
263.1153936001
 21
101.7290067027
  0
HATCH
  5
3E2
100
AcDbEntity
  8
DIMS
100
AcDbHatch
 62
6
  6
CONTINUOUS
 10
0.0
 20
0.0
 30
0.0
210
0.0
220
0.0
230
1.0
  2

 70
1
 71
1
 91
1
 92
1
 93
3
 72
1
 10
264.1071410339
 20
101.7290067027
 11
263.611267317
 21
104.704249004
 72
1
 10
263.611267317
 20
104.704249004
 11
263.1153936001
 21
101.7290067027
 72
1
 10
263.1153936001
 20
101.7290067027
 11
264.1071410339
 21
101.7290067027
 97
3
330
3DF
330
3E0
330
3E1
 75
0
 76
1
 98
1
 10
0.0
 20
0.0
  0
LINE
  5
3E3
100
AcDbEntity
  8
DEFAULT_1
100
AcDbLine
 62
1
  6
CENTER
 10
309.1720924952
 20
104.704249004
 11
286.8577752354
 21
104.704249004
  0
LINE
  5
3E4
100
AcDbEntity
  8
DIMS
100
AcDbLine
 62
6
  6
CONTINUOUS
 10
283.8825329341
 20
104.704249004
 11
261.379835591
 21
104.704249004
  0
LINE
  5
3E5
100
AcDbEntity
  8
DIMS
100
AcDbLine
 62
2
  6
CONTINUOUS
 10
223.1724086802
 20
104.704249004
 11
223.9162192555
 21
104.704249004
  0
LINE
  5
3E6
100
AcDbEntity
  8
DIMS
100
AcDbLine
 62
2
  6
CONTINUOUS
 10
223.9162192555
 20
104.704249004
 11
223.5443139678
 21
106.93568073
  0
LINE
  5
3E7
100
AcDbEntity
  8
DIMS
100
AcDbLine
 62
2
  6
CONTINUOUS
 10
223.5443139678
 20
106.93568073
 11
223.1724086802
 21
104.704249004
  0
HATCH
  5
3E8
100
AcDbEntity
  8
DIMS
100
AcDbHatch
 62
2
  6
CONTINUOUS
 10
0.0
 20
0.0
 30
0.0
210
0.0
220
0.0
230
1.0
  2

 70
1
 71
1
 91
1
 92
1
 93
3
 72
1
 10
223.9162192555
 20
104.704249004
 11
223.5443139678
 21
106.93568073
 72
1
 10
223.5443139678
 20
106.93568073
 11
223.1724086802
 21
104.704249004
 72
1
 10
223.1724086802
 20
104.704249004
 11
223.9162192555
 21
104.704249004
 97
3
330
3E5
330
3E6
330
3E7
 75
0
 76
1
 98
1
 10
0.0
 20
0.0
  0
LINE
  5
3E9
100
AcDbEntity
  8
HIDDEN
100
AcDbLine
 62
1
  6
DASHED
 10
115.1531854831
 20
215.1601194396
 11
137.4675027428
 21
177.9695906734
  0
LINE
  5
3EA
100
AcDbEntity
  8
HIDDEN
100
AcDbLine
 62
1
  6
DASHED
 10
169.3902894434
 20
63.5752743351
 11
169.3902894434
 21
66.6231232594
  0
LINE
  5
3EB
100
AcDbEntity
  8
HIDDEN
100
AcDbLine
 62
1
  6
DASHED
 10
169.613432616
 20
66.6231232594
 11
169.613432616
 21
63.5752743351
  0
LINE
  5
3EC
100
AcDbEntity
  8
HIDDEN
100
AcDbLine
 62
1
  6
DASHED
 10
170.195168057
 20
68.5890837844
 11
170.195168057
 21
64.6029477204
  0
LINE
  5
3ED
100
AcDbEntity
  8
HIDDEN
100
AcDbLine
 62
1
  6
DASHED
 10
182.0961372622
 20
177.9695906734
 11
182.0961372622
 21
215.1601194396
  0
LINE
  5
3EE
100
AcDbEntity
  8
HIDDEN
100
AcDbLine
 62
1
  6
DASHED
 10
168.9099838802
 20
62.7767343264
 11
168.9109039739
 21
63.3431456332
  0
LINE
  5
3EF
100
AcDbEntity
  8
HIDDEN
100
AcDbLine
 62
1
  6
DASHED
 10
169.8628699387
 20
63.3431456332
 11
169.8619499938
 21
62.7767343264
  0
LINE
  5
3F0
100
AcDbEntity
  8
HIDDEN
100
AcDbLine
 62
1
  6
DASHED
 10
170.4578651421
 20
62.0843155576
 11
170.4591675544
 21
62.886158234
  0
LINE
  5
3F1
100
AcDbEntity
  8
0
100
AcDbLine
 62
1
  6
CONTINUOUS
 10
267.8328096978
 20
239.9791569266
 11
273.2000855194
 21
243.9305256479
  0
LINE
  5
3F2
100
AcDbEntity
  8
DIMS
100
AcDbLine
 62
2
  6
CONTINUOUS
 10
43.3010839068
 20
106.93568073
 11
28.4083156042
 21
106.93568073
  0
LINE
  5
3F3
100
AcDbEntity
  8
DIMS
100
AcDbLine
 62
2
  6
CONTINUOUS
 10
46.2629376177
 20
106.93568073
 11
46.2897147984
 21
106.93568073
  0
LINE
  5
3F4
100
AcDbEntity
  8
DIMS
100
AcDbLine
 62
2
  6
CONTINUOUS
 10
209.319604319
 20
106.93568073
 11
225.0319351185
 21
106.93568073
  0
LINE
  5
3F5
100
AcDbEntity
  8
HIDDEN
100
AcDbLine
 62
1
  6
DASHED
 10
203.3691197165
 20
107.2332049601
 11
196.9723487687
 21
107.2332049601
  0
LINE
  5
3F6
100
AcDbEntity
  8
HIDDEN
100
AcDbLine
 62
1
  6
DASHED
 10
198.0136835741
 20
108.5720639957
 11
196.6376340098
 21
108.5720639957
  0
LINE
  5
3F7
100
AcDbEntity
  8
HIDDEN
100
AcDbLine
 62
1
  6
DASHED
 10
49.2515685094
 20
109.9109230313
 11
43.3010839068
 21
109.9109230313
  0
LINE
  5
3F8
100
AcDbEntity
  8
HIDDEN
100
AcDbLine
 62
1
  6
DASHED
 10
196.9723487687
 20
109.9109230313
 11
209.319604319
 21
109.9109230313
  0
LINE
  5
3F9
100
AcDbEntity
  8
0
100
AcDbLine
 62
3
  6
CONTINUOUS
 10
273.9154712248
 20
109.9109230313
 11
279.8659558274
 21
109.9109230313
  0
LINE
  5
3FA
100
AcDbEntity
  8
HIDDEN
100
AcDbLine
 62
1
  6
DASHED
 10
190.2780535908
 20
112.5027077741
 11
198.6087320344
 21
112.5027077741
  0
LINE
  5
3FB
100
AcDbEntity
  8
HIDDEN
100
AcDbLine
 62
1
  6
DASHED
 10
198.7946846782
 20
112.6886604179
 11
190.0921009469
 21
112.6886604179
  0
LINE
  5
3FC
100
AcDbEntity
  8
0
100
AcDbLine
 62
3
  6
CONTINUOUS
 10
215.3444699792
 20
119.5804605105
 11
37.2762182467
 21
119.5804605105
  0
LINE
  5
3FD
100
AcDbEntity
  8
DIMS
100
AcDbLine
 62
6
  6
CONTINUOUS
 10
305.1758129283
 20
102.6924765911
 11
308.1742827144
 21
102.3651595634
  0
LINE
  5
3FE
100
AcDbEntity
  8
DIMS
100
AcDbLine
 62
6
  6
CONTINUOUS
 10
307.9060463926
 20
101.4103756884
 11
305.1758129283
 21
102.6924765911
  0
LINE
  5
3FF
100
AcDbEntity
  8
DIMS
100
AcDbLine
 62
6
  6
CONTINUOUS
 10
308.1742827144
 20
102.3651595634
 11
307.9060463926
 21
101.4103756884
  0
HATCH
  5
400
100
AcDbEntity
  8
DIMS
100
AcDbHatch
 62
6
  6
CONTINUOUS
 10
0.0
 20
0.0
 30
0.0
210
0.0
220
0.0
230
1.0
  2

 70
1
 71
1
 91
1
 92
1
 93
3
 72
1
 10
308.1742827144
 20
102.3651595634
 11
307.9060463926
 21
101.4103756884
 72
1
 10
307.9060463926
 20
101.4103756884
 11
305.1758129283
 21
102.6924765911
 72
1
 10
305.1758129283
 20
102.6924765911
 11
308.1742827144
 21
102.3651595634
 97
3
330
3FD
330
3FE
330
3FF
 75
0
 76
1
 98
1
 10
0.0
 20
0.0
  0
LINE
  5
401
100
AcDbEntity
  8
DIMS
100
AcDbLine
 62
6
  6
CONTINUOUS
 10
287.8555850162
 20
107.0433384445
 11
290.8540548023
 21
106.7160214169
  0
LINE
  5
402
100
AcDbEntity
  8
DIMS
100
AcDbLine
 62
6
  6
CONTINUOUS
 10
290.8540548023
 20
106.7160214169
 11
288.1238213379
 21
107.9981223196
  0
LINE
  5
403
100
AcDbEntity
  8
DIMS
100
AcDbLine
 62
6
  6
CONTINUOUS
 10
288.1238213379
 20
107.9981223196
 11
287.8555850162
 21
107.0433384445
  0
HATCH
  5
404
100
AcDbEntity
  8
DIMS
100
AcDbHatch
 62
6
  6
CONTINUOUS
 10
0.0
 20
0.0
 30
0.0
210
0.0
220
0.0
230
1.0
  2

 70
1
 71
1
 91
1
 92
1
 93
3
 72
1
 10
290.8540548023
 20
106.7160214169
 11
288.1238213379
 21
107.9981223196
 72
1
 10
288.1238213379
 20
107.9981223196
 11
287.8555850162
 21
107.0433384445
 72
1
 10
287.8555850162
 20
107.0433384445
 11
290.8540548023
 21
106.7160214169
 97
3
330
401
330
402
330
403
 75
0
 76
1
 98
1
 10
0.0
 20
0.0
  0
LINE
  5
405
100
AcDbEntity
  8
HIDDEN
100
AcDbLine
 62
1
  6
DASHED
 10
188.1953839798
 20
126.5607276477
 11
188.8648134976
 21
126.18882236
  0
LINE
  5
406
100
AcDbEntity
  8
DIMS
100
AcDbLine
 62
6
  6
CONTINUOUS
 10
194.8754777172
 20
105.7298880674
 11
195.3061376435
 21
105.3192436374
  0
LINE
  5
407
100
AcDbEntity
  8
HIDDEN
100
AcDbLine
 62
1
  6
DASHED
 10
190.2780535908
 20
112.5027077741
 11
190.0921009469
 21
112.6886604179
  0
LINE
  5
408
100
AcDbEntity
  8
HIDDEN
100
AcDbLine
 62
1
  6
DASHED
 10
187.5918443268
 20
125.9656791874
 11
187.1892748531
 21
127.092873684
  0
LINE
  5
409
100
AcDbEntity
  8
HIDDEN
100
AcDbLine
 62
1
  6
DASHED
 10
188.0466218648
 20
124.924344382
 11
188.0466218648
 21
125.9656791874
  0
LINE
  5
40A
100
AcDbEntity
  8
HIDDEN
100
AcDbLine
 62
1
  6
DASHED
 10
188.1953839798
 20
126.5607276477
 11
188.1953839798
 21
126.7838708203
  0
LINE
  5
40B
100
AcDbEntity
  8
HIDDEN
100
AcDbLine
 62
1
  6
DASHED
 10
189.5342430154
 20
123.4367232313
 11
189.5342430154
 21
124.924344382
  0
LINE
  5
40C
100
AcDbEntity
  8
HIDDEN
100
AcDbLine
 62
1
  6
DASHED
 10
189.5342430154
 20
125.9656791874
 11
189.5342430154
 21
126.18882236
  0
LINE
  5
40D
100
AcDbEntity
  8
HIDDEN
100
AcDbLine
 62
1
  6
DASHED
 10
190.0921009469
 20
112.6886604179
 11
190.0921009469
 21
126.18882236
  0
LINE
  5
40E
100
AcDbEntity
  8
HIDDEN
100
AcDbLine
 62
1
  6
DASHED
 10
190.2780535908
 20
112.5027077741
 11
190.2780535908
 21
126.18882236
  0
LINE
  5
40F
100
AcDbEntity
  8
HIDDEN
100
AcDbLine
 62
1
  6
DASHED
 10
190.5011967634
 20
112.5027077741
 11
190.5011967634
 21
126.7838708203
  0
LINE
  5
410
100
AcDbEntity
  8
HIDDEN
100
AcDbLine
 62
1
  6
DASHED
 10
190.6499588784
 20
126.7838708203
 11
190.6499588784
 21
127.4533003381
  0
LINE
  5
411
100
AcDbEntity
  8
HIDDEN
100
AcDbLine
 62
1
  6
DASHED
 10
191.0218641661
 20
127.4533003381
 11
191.0218641661
 21
126.7838708203
  0
LINE
  5
412
100
AcDbEntity
  8
DIMS
100
AcDbLine
 62
6
  6
CONTINUOUS
 10
194.4433928126
 20
120.524220162
 11
194.4433928126
 21
77.1352657198
  0
LINE
  5
413
100
AcDbEntity
  8
DEFAULT_1
100
AcDbLine
 62
1
  6
CENTER
 10
194.4433928126
 20
39.6548524043
 11
194.4433928126
 21
53.7872533354
  0
LINE
  5
414
100
AcDbEntity
  8
HIDDEN
100
AcDbLine
 62
1
  6
DASHED
 10
194.4433928126
 20
123.4367232313
 11
194.4433928126
 21
131.2467342722
  0
LINE
  5
415
100
AcDbEntity
  8
HIDDEN
100
AcDbLine
 62
1
  6
DASHED
 10
196.2285381933
 20
109.1671124559
 11
196.2285381933
 21
107.9770155354
  0
LINE
  5
416
100
AcDbEntity
  8
HIDDEN
100
AcDbLine
 62
1
  6
DASHED
 10
197.26987285
 20
107.8282532716
 11
197.26987285
 21
109.3158744222
  0
LINE
  5
417
100
AcDbEntity
  8
HIDDEN
100
AcDbLine
 62
1
  6
DASHED
 10
194.2946306975
 20
130.8004479271
 11
193.8483443523
 21
126.7838708203
  0
LINE
  5
418
100
AcDbEntity
  8
0
100
AcDbLine
 62
3
  6
CONTINUOUS
 10
170.3251154836
 20
58.3239274909
 11
170.9389374252
 21
61.891038611
  0
LINE
  5
419
100
AcDbEntity
  8
0
100
AcDbLine
 62
1
  6
CONTINUOUS
 10
271.6992639625
 20
242.4561635158
 11
273.2000855194
 21
243.9305256479
  0
LINE
  5
41A
100
AcDbEntity
  8
DIMS
100
AcDbLine
 62
6
  6
CONTINUOUS
 10
285.81644043
 20
135.2367600192
 11
288.7916827313
 21
135.7326337361
  0
LINE
  5
41B
100
AcDbEntity
  8
DIMS
100
AcDbLine
 62
6
  6
CONTINUOUS
 10
288.7916827313
 20
134.7408863023
 11
285.81644043
 21
135.2367600192
  0
LINE
  5
41C
100
AcDbEntity
  8
DIMS
100
AcDbLine
 62
6
  6
CONTINUOUS
 10
288.7916827313
 20
135.7326337361
 11
288.7916827313
 21
134.7408863023
  0
HATCH
  5
41D
100
AcDbEntity
  8
DIMS
100
AcDbHatch
 62
6
  6
CONTINUOUS
 10
0.0
 20
0.0
 30
0.0
210
0.0
220
0.0
230
1.0
  2

 70
1
 71
1
 91
1
 92
1
 93
3
 72
1
 10
288.7916827313
 20
135.7326337361
 11
288.7916827313
 21
134.7408863023
 72
1
 10
288.7916827313
 20
134.7408863023
 11
285.81644043
 21
135.2367600192
 72
1
 10
285.81644043
 20
135.2367600192
 11
288.7916827313
 21
135.7326337361
 97
3
330
41A
330
41B
330
41C
 75
0
 76
1
 98
1
 10
0.0
 20
0.0
  0
LINE
  5
41E
100
AcDbEntity
  8
DIMS
100
AcDbLine
 62
6
  6
CONTINUOUS
 10
279.8659558274
 20
134.7408863023
 11
282.8411981287
 21
135.2367600192
  0
LINE
  5
41F
100
AcDbEntity
  8
DIMS
100
AcDbLine
 62
6
  6
CONTINUOUS
 10
282.8411981287
 20
135.2367600192
 11
279.8659558274
 21
135.7326337361
  0
LINE
  5
420
100
AcDbEntity
  8
DIMS
100
AcDbLine
 62
6
  6
CONTINUOUS
 10
279.8659558274
 20
135.7326337361
 11
279.8659558274
 21
134.7408863023
  0
HATCH
  5
421
100
AcDbEntity
  8
DIMS
100
AcDbHatch
 62
6
  6
CONTINUOUS
 10
0.0
 20
0.0
 30
0.0
210
0.0
220
0.0
230
1.0
  2

 70
1
 71
1
 91
1
 92
1
 93
3
 72
1
 10
282.8411981287
 20
135.2367600192
 11
279.8659558274
 21
135.7326337361
 72
1
 10
279.8659558274
 20
135.7326337361
 11
279.8659558274
 21
134.7408863023
 72
1
 10
279.8659558274
 20
134.7408863023
 11
282.8411981287
 21
135.2367600192
 97
3
330
41E
330
41F
330
420
 75
0
 76
1
 98
1
 10
0.0
 20
0.0
  0
LINE
  5
422
100
AcDbEntity
  8
0
100
AcDbLine
 62
3
  6
CONTINUOUS
 10
318.8416299744
 20
140.2066005939
 11
310.5749101657
 21
139.3934807078
  0
LINE
  5
423
100
AcDbEntity
  8
0
100
AcDbLine
 62
3
  6
CONTINUOUS
 10
310.5530671268
 20
139.6155521982
 11
319.064773147
 21
140.4527691667
  0
LINE
  5
424
100
AcDbEntity
  8
0
100
AcDbLine
 62
3
  6
CONTINUOUS
 10
319.064773147
 20
141.6486091974
 11
310.4365704732
 21
140.7999335295
  0
LINE
  5
425
100
AcDbEntity
  8
0
100
AcDbLine
 62
3
  6
CONTINUOUS
 10
310.2134273006
 20
141.0022050798
 11
319.2879163196
 21
141.8947777702
  0
LINE
  5
426
100
AcDbEntity
  8
DEFAULT_1
100
AcDbLine
 62
1
  6
CENTER
 10
282.2684639857
 20
122.5557028118
 11
280.4386899704
 21
122.5557028118
  0
LINE
  5
427
100
AcDbEntity
  8
DIMS
100
AcDbLine
 62
6
  6
CONTINUOUS
 10
253.2206854746
 20
123.2995133871
 11
254.2124329084
 21
123.2995133871
  0
LINE
  5
428
100
AcDbEntity
  8
DIMS
100
AcDbLine
 62
6
  6
CONTINUOUS
 10
254.2124329084
 20
123.2995133871
 11
253.7165591915
 21
126.2747556884
  0
LINE
  5
429
100
AcDbEntity
  8
DIMS
100
AcDbLine
 62
6
  6
CONTINUOUS
 10
253.7165591915
 20
126.2747556884
 11
253.2206854746
 21
123.2995133871
  0
HATCH
  5
42A
100
AcDbEntity
  8
DIMS
100
AcDbHatch
 62
6
  6
CONTINUOUS
 10
0.0
 20
0.0
 30
0.0
210
0.0
220
0.0
230
1.0
  2

 70
1
 71
1
 91
1
 92
1
 93
3
 72
1
 10
254.2124329084
 20
123.2995133871
 11
253.7165591915
 21
126.2747556884
 72
1
 10
253.7165591915
 20
126.2747556884
 11
253.2206854746
 21
123.2995133871
 72
1
 10
253.2206854746
 20
123.2995133871
 11
254.2124329084
 21
123.2995133871
 97
3
330
427
330
428
330
429
 75
0
 76
1
 98
1
 10
0.0
 20
0.0
  0
LINE
  5
42B
100
AcDbEntity
  8
HIDDEN
100
AcDbLine
 62
1
  6
DASHED
 10
199.3525426097
 20
123.4367232313
 11
189.5342430154
 21
123.4367232313
  0
LINE
  5
42C
100
AcDbEntity
  8
HIDDEN
100
AcDbLine
 62
1
  6
DASHED
 10
188.0466218648
 20
124.924344382
 11
200.8401637604
 21
124.924344382
  0
LINE
  5
42D
100
AcDbEntity
  8
HIDDEN
100
AcDbLine
 62
1
  6
DASHED
 10
200.8401637604
 20
125.5193928423
 11
188.0466218648
 21
125.5193928423
  0
LINE
  5
42E
100
AcDbEntity
  8
0
100
AcDbLine
 62
3
  6
CONTINUOUS
 10
311.4035242211
 20
125.6797072281
 11
285.81644043
 21
125.6797072281
  0
LINE
  5
42F
100
AcDbEntity
  8
0
100
AcDbLine
 62
3
  6
CONTINUOUS
 10
304.866482351
 20
125.7657301113
 11
291.1633855283
 21
125.7657301113
  0
LINE
  5
430
100
AcDbEntity
  8
HIDDEN
100
AcDbLine
 62
1
  6
DASHED
 10
187.5918443268
 20
125.9656791874
 11
201.2949412983
 21
125.9656791874
  0
LINE
  5
431
100
AcDbEntity
  8
0
100
AcDbLine
 62
3
  6
CONTINUOUS
 10
304.7092290432
 20
125.9888732839
 11
291.3206386874
 21
125.9888732839
  0
LINE
  5
432
100
AcDbEntity
  8
HIDDEN
100
AcDbLine
 62
1
  6
DASHED
 10
200.0219721275
 20
126.18882236
 11
188.8648134976
 21
126.18882236
  0
LINE
  5
433
100
AcDbEntity
  8
DIMS
100
AcDbLine
 62
6
  6
CONTINUOUS
 10
276.8907135261
 20
126.2747556884
 11
251.4851274655
 21
126.2747556884
  0
LINE
  5
434
100
AcDbEntity
  8
0
100
AcDbLine
 62
3
  6
CONTINUOUS
 10
279.8659558274
 20
126.2747556884
 11
311.4035242211
 21
126.2747556884
  0
LINE
  5
435
100
AcDbEntity
  8
HIDDEN
100
AcDbLine
 62
1
  6
DASHED
 10
188.1953839798
 20
126.5607276477
 11
200.6914016453
 21
126.5607276477
  0
LINE
  5
436
100
AcDbEntity
  8
HIDDEN
100
AcDbLine
 62
1
  6
DASHED
 10
200.6914016453
 20
126.7838708203
 11
188.1953839798
 21
126.7838708203
  0
LINE
  5
437
100
AcDbEntity
  8
0
100
AcDbLine
 62
3
  6
CONTINUOUS
 10
289.4430644293
 20
126.7954230911
 11
306.5868034501
 21
126.7954230911
  0
LINE
  5
438
100
AcDbEntity
  8
0
100
AcDbLine
 62
3
  6
CONTINUOUS
 10
215.3444699792
 20
127.0185662637
 11
37.2762182467
 21
127.0185662637
  0
LINE
  5
439
100
AcDbEntity
  8
0
100
AcDbLine
 62
3
  6
CONTINUOUS
 10
289.5354933066
 20
127.0185662637
 11
306.494374424
 21
127.0185662637
  0
LINE
  5
43A
100
AcDbEntity
  8
HIDDEN
100
AcDbLine
 62
1
  6
DASHED
 10
194.5921549276
 20
130.8004479271
 11
194.2946306975
 21
130.8004479271
  0
LINE
  5
43B
100
AcDbEntity
  8
HIDDEN
100
AcDbLine
 62
1
  6
DASHED
 10
193.802048392
 20
130.8004479271
 11
193.4002084477
 21
130.8004479271
  0
LINE
  5
43C
100
AcDbEntity
  8
HIDDEN
100
AcDbLine
 62
1
  6
DASHED
 10
193.0930962018
 20
130.8004479271
 11
192.8707045754
 21
130.8004479271
  0
LINE
  5
43D
100
AcDbEntity
  8
HIDDEN
100
AcDbLine
 62
1
  6
DASHED
 10
195.0847373819
 20
130.8004479271
 11
195.4865773262
 21
130.8004479271
  0
LINE
  5
43E
100
AcDbEntity
  8
HIDDEN
100
AcDbLine
 62
1
  6
DASHED
 10
195.7936894234
 20
130.8004479271
 11
196.0160810498
 21
130.8004479271
  0
LINE
  5
43F
100
AcDbEntity
  8
HIDDEN
100
AcDbLine
 62
1
  6
DASHED
 10
195.1872033879
 20
131.1730970253
 11
193.6995822372
 21
131.1730970253
  0
LINE
  5
440
100
AcDbEntity
  8
0
100
AcDbLine
 62
3
  6
CONTINUOUS
 10
289.4430644293
 20
131.2582865431
 11
306.5868034501
 21
131.2582865431
  0
LINE
  5
441
100
AcDbEntity
  8
0
100
AcDbLine
 62
3
  6
CONTINUOUS
 10
289.5354933066
 20
131.4814297156
 11
306.494374424
 21
131.4814297156
  0
LINE
  5
442
100
AcDbEntity
  8
DIMS
100
AcDbLine
 62
6
  6
CONTINUOUS
 10
279.8659558274
 20
135.2367600192
 11
276.8907135261
 21
135.2367600192
  0
LINE
  5
443
100
AcDbEntity
  8
DIMS
100
AcDbLine
 62
6
  6
CONTINUOUS
 10
282.8411981287
 20
135.2367600192
 11
285.81644043
 21
135.2367600192
  0
LINE
  5
444
100
AcDbEntity
  8
DIMS
100
AcDbLine
 62
6
  6
CONTINUOUS
 10
288.7916827313
 20
135.2367600192
 11
297.7174096352
 21
135.2367600192
  0
LINE
  5
445
100
AcDbEntity
  8
DIMS
100
AcDbLine
 62
6
  6
CONTINUOUS
 10
37.2762182467
 20
135.6570933523
 11
37.0530750741
 21
135.6570933523
  0
LINE
  5
446
100
AcDbEntity
  8
DIMS
100
AcDbLine
 62
6
  6
CONTINUOUS
 10
34.0778327728
 20
135.6570933523
 11
23.5993121069
 21
135.6570933523
  0
LINE
  5
447
100
AcDbEntity
  8
DIMS
100
AcDbLine
 62
6
  6
CONTINUOUS
 10
40.251460548
 20
135.6570933523
 11
43.2267028492
 21
135.6570933523
  0
LINE
  5
448
100
AcDbEntity
  8
HIDDEN
100
AcDbLine
 62
1
  6
DASHED
 10
209.319604319
 20
126.7954230911
 11
43.3010839068
 21
131.2582865431
  0
LINE
  5
449
100
AcDbEntity
  8
HIDDEN
100
AcDbLine
 62
1
  6
DASHED
 10
43.4010222957
 20
134.9759963953
 11
209.4195427079
 21
130.5131329434
  0
LINE
  5
44A
100
AcDbEntity
  8
0
100
AcDbLine
 62
2
  6
CONTINUOUS
 10
138.2345867047
 20
147.6059368573
 11
140.3086013358
 21
147.2525393619
  0
LINE
  5
44B
100
AcDbEntity
  8
DIMS
100
AcDbLine
 62
6
  6
CONTINUOUS
 10
331.1694346882
 20
95.3898464659
 11
308.0401645535
 21
101.8877676259
  0
LINE
  5
44C
100
AcDbEntity
  8
DIMS
100
AcDbLine
 62
6
  6
CONTINUOUS
 10
287.9897031771
 20
107.5207303821
 11
285.1253515519
 21
108.3254393472
  0
LINE
  5
44D
100
AcDbEntity
  8
DIMS
100
AcDbLine
 62
6
  6
CONTINUOUS
 10
290.8540548023
 20
106.7160214169
 11
305.1758129283
 21
102.6924765911
  0
LINE
  5
44E
100
AcDbEntity
  8
HIDDEN
100
AcDbLine
 62
1
  6
DASHED
 10
194.5921549276
 20
130.8004479271
 11
195.0384412728
 21
126.7838708203
  0
LINE
  5
44F
100
AcDbEntity
  8
HIDDEN
100
AcDbLine
 62
1
  6
DASHED
 10
197.8649214591
 20
127.4533003381
 11
197.8649214591
 21
126.7838708203
  0
LINE
  5
450
100
AcDbEntity
  8
HIDDEN
100
AcDbLine
 62
1
  6
DASHED
 10
198.2368267467
 20
126.7838708203
 11
198.2368267467
 21
127.4533003381
  0
LINE
  5
451
100
AcDbEntity
  8
HIDDEN
100
AcDbLine
 62
1
  6
DASHED
 10
198.3855888618
 20
112.5027077741
 11
198.3855888618
 21
126.7838708203
  0
LINE
  5
452
100
AcDbEntity
  8
HIDDEN
100
AcDbLine
 62
1
  6
DASHED
 10
198.6087320344
 20
112.5027077741
 11
198.6087320344
 21
126.18882236
  0
LINE
  5
453
100
AcDbEntity
  8
HIDDEN
100
AcDbLine
 62
1
  6
DASHED
 10
198.7946846782
 20
112.6886604179
 11
198.7946846782
 21
126.18882236
  0
LINE
  5
454
100
AcDbEntity
  8
HIDDEN
100
AcDbLine
 62
1
  6
DASHED
 10
199.3525426097
 20
123.4367232313
 11
199.3525426097
 21
124.924344382
  0
LINE
  5
455
100
AcDbEntity
  8
HIDDEN
100
AcDbLine
 62
1
  6
DASHED
 10
199.3525426097
 20
125.9656791874
 11
199.3525426097
 21
126.18882236
  0
LINE
  5
456
100
AcDbEntity
  8
HIDDEN
100
AcDbLine
 62
1
  6
DASHED
 10
200.6914016453
 20
126.5607276477
 11
200.6914016453
 21
126.7838708203
  0
LINE
  5
457
100
AcDbEntity
  8
HIDDEN
100
AcDbLine
 62
1
  6
DASHED
 10
200.8401637604
 20
124.924344382
 11
200.8401637604
 21
125.9656791874
  0
LINE
  5
458
100
AcDbEntity
  8
HIDDEN
100
AcDbLine
 62
1
  6
DASHED
 10
203.3691197165
 20
95.0347115248
 11
203.3691197165
 21
139.6633460442
  0
LINE
  5
459
100
AcDbEntity
  8
DIMS
100
AcDbLine
 62
2
  6
CONTINUOUS
 10
206.3443620177
 20
103.9604384287
 11
206.3443620177
 21
87.60332434
  0
LINE
  5
45A
100
AcDbEntity
  8
HIDDEN
100
AcDbLine
 62
1
  6
DASHED
 10
208.1295073985
 20
250.71426494
 11
208.1295073985
 21
243.9491229949
  0
LINE
  5
45B
100
AcDbEntity
  8
HIDDEN
100
AcDbLine
 62
1
  6
DASHED
 10
209.319604319
 20
139.6633460442
 11
209.319604319
 21
95.0347115248
  0
LINE
  5
45C
100
AcDbEntity
  8
0
100
AcDbLine
 62
1
  6
DASHED
 10
209.319604319
 20
126.7954230911
 11
209.319604319
 21
123.8053045783
  0
LINE
  5
45D
100
AcDbEntity
  8
DIMS
100
AcDbLine
 62
2
  6
CONTINUOUS
 10
209.319604319
 20
22.4728281143
 11
209.319604319
 21
17.1014922938
  0
LINE
  5
45E
100
AcDbEntity
  8
0
100
AcDbLine
 62
3
  6
CONTINUOUS
 10
209.319604319
 20
25.4480704156
 11
209.319604319
 21
61.8947886064
  0
LINE
  5
45F
100
AcDbEntity
  8
0
100
AcDbLine
 62
3
  6
CONTINUOUS
 10
209.319604319
 20
141.8947777702
 11
209.319604319
 21
251.2349323428
  0
LINE
  5
460
100
AcDbEntity
  8
Format_A3
100
AcDbLine
 62
2
  6
CONTINUOUS
 10
211.5298379542
 20
290.2481681706
 11
211.5298379542
 21
275.2481981706
  0
LINE
  5
461
100
AcDbEntity
  8
Format_A3
100
AcDbLine
 62
2
  6
CONTINUOUS
 10
211.5298379542
 20
3.2487421705
 11
211.5298379542
 21
18.2487121705
  0
LINE
  5
462
100
AcDbEntity
  8
DIMS
100
AcDbLine
 62
6
  6
CONTINUOUS
 10
221.4367399751
 20
251.2349323428
 11
221.932613692
 21
254.2101746441
  0
LINE
  5
463
100
AcDbEntity
  8
DIMS
100
AcDbLine
 62
6
  6
CONTINUOUS
 10
220.9408662582
 20
254.2101746441
 11
221.4367399751
 21
251.2349323428
  0
LINE
  5
464
100
AcDbEntity
  8
DIMS
100
AcDbLine
 62
6
  6
CONTINUOUS
 10
221.932613692
 20
254.2101746441
 11
220.9408662582
 21
254.2101746441
  0
HATCH
  5
465
100
AcDbEntity
  8
DIMS
100
AcDbHatch
 62
6
  6
CONTINUOUS
 10
0.0
 20
0.0
 30
0.0
210
0.0
220
0.0
230
1.0
  2

 70
1
 71
1
 91
1
 92
1
 93
3
 72
1
 10
221.932613692
 20
254.2101746441
 11
220.9408662582
 21
254.2101746441
 72
1
 10
220.9408662582
 20
254.2101746441
 11
221.4367399751
 21
251.2349323428
 72
1
 10
221.4367399751
 20
251.2349323428
 11
221.932613692
 21
254.2101746441
 97
3
330
462
330
463
330
464
 75
0
 76
1
 98
1
 10
0.0
 20
0.0
  0
LINE
  5
466
100
AcDbEntity
  8
DIMS
100
AcDbLine
 62
6
  6
CONTINUOUS
 10
220.9408662582
 20
243.2053124196
 11
221.4367399751
 21
246.1805547209
  0
LINE
  5
467
100
AcDbEntity
  8
DIMS
100
AcDbLine
 62
6
  6
CONTINUOUS
 10
221.4367399751
 20
246.1805547209
 11
221.932613692
 21
243.2053124196
  0
LINE
  5
468
100
AcDbEntity
  8
DIMS
100
AcDbLine
 62
6
  6
CONTINUOUS
 10
221.932613692
 20
243.2053124196
 11
220.9408662582
 21
243.2053124196
  0
HATCH
  5
469
100
AcDbEntity
  8
DIMS
100
AcDbHatch
 62
6
  6
CONTINUOUS
 10
0.0
 20
0.0
 30
0.0
210
0.0
220
0.0
230
1.0
  2

 70
1
 71
1
 91
1
 92
1
 93
3
 72
1
 10
221.4367399751
 20
246.1805547209
 11
221.932613692
 21
243.2053124196
 72
1
 10
221.932613692
 20
243.2053124196
 11
220.9408662582
 21
243.2053124196
 72
1
 10
220.9408662582
 20
243.2053124196
 11
221.4367399751
 21
246.1805547209
 97
3
330
466
330
467
330
468
 75
0
 76
1
 98
1
 10
0.0
 20
0.0
  0
LINE
  5
46A
100
AcDbEntity
  8
HIDDEN
100
AcDbLine
 62
1
  6
DASHED
 10
201.2949412983
 20
125.9656791874
 11
201.6281993786
 21
126.898802199
  0
LINE
  5
46B
100
AcDbEntity
  8
0
100
AcDbLine
 62
3
  6
CONTINUOUS
 10
37.0530750741
 20
138.0269627785
 11
215.5676131518
 21
138.0269627785
  0
LINE
  5
46C
100
AcDbEntity
  8
DIMS
100
AcDbLine
 62
6
  6
CONTINUOUS
 10
231.1910764484
 20
138.9195354689
 11
230.1993290146
 21
138.9195354689
  0
LINE
  5
46D
100
AcDbEntity
  8
DIMS
100
AcDbLine
 62
6
  6
CONTINUOUS
 10
230.1993290146
 20
138.9195354689
 11
230.6952027315
 21
141.8947777702
  0
LINE
  5
46E
100
AcDbEntity
  8
DIMS
100
AcDbLine
 62
6
  6
CONTINUOUS
 10
230.6952027315
 20
141.8947777702
 11
231.1910764484
 21
138.9195354689
  0
HATCH
  5
46F
100
AcDbEntity
  8
DIMS
100
AcDbHatch
 62
6
  6
CONTINUOUS
 10
0.0
 20
0.0
 30
0.0
210
0.0
220
0.0
230
1.0
  2

 70
1
 71
1
 91
1
 92
1
 93
3
 72
1
 10
230.1993290146
 20
138.9195354689
 11
230.6952027315
 21
141.8947777702
 72
1
 10
230.6952027315
 20
141.8947777702
 11
231.1910764484
 21
138.9195354689
 72
1
 10
231.1910764484
 20
138.9195354689
 11
230.1993290146
 21
138.9195354689
 97
3
330
46C
330
46D
330
46E
 75
0
 76
1
 98
1
 10
0.0
 20
0.0
  0
LINE
  5
470
100
AcDbEntity
  8
0
100
AcDbLine
 62
3
  6
CONTINUOUS
 10
316.6994555174
 20
139.6633460442
 11
319.2879163196
 21
139.6633460442
  0
LINE
  5
471
100
AcDbEntity
  8
HIDDEN
100
AcDbLine
 62
1
  6
DASHED
 10
215.5676131518
 20
140.4527691667
 11
37.0530750741
 21
140.4527691667
  0
LINE
  5
472
100
AcDbEntity
  8
0
100
AcDbLine
 62
3
  6
CONTINUOUS
 10
209.319604319
 20
141.8947777702
 11
43.3010839068
 21
141.8947777702
  0
LINE
  5
473
100
AcDbEntity
  8
DIMS
100
AcDbLine
 62
6
  6
CONTINUOUS
 10
212.2948466203
 20
141.8947777702
 11
232.9266344575
 21
141.8947777702
  0
LINE
  5
474
100
AcDbEntity
  8
DIMS
100
AcDbLine
 62
6
  6
CONTINUOUS
 10
231.1910764484
 20
144.8700200715
 11
230.1993290146
 21
144.8700200715
  0
LINE
  5
475
100
AcDbEntity
  8
DIMS
100
AcDbLine
 62
6
  6
CONTINUOUS
 10
230.6952027315
 20
141.8947777702
 11
231.1910764484
 21
144.8700200715
  0
LINE
  5
476
100
AcDbEntity
  8
DIMS
100
AcDbLine
 62
6
  6
CONTINUOUS
 10
230.1993290146
 20
144.8700200715
 11
230.6952027315
 21
141.8947777702
  0
HATCH
  5
477
100
AcDbEntity
  8
DIMS
100
AcDbHatch
 62
6
  6
CONTINUOUS
 10
0.0
 20
0.0
 30
0.0
210
0.0
220
0.0
230
1.0
  2

 70
1
 71
1
 91
1
 92
1
 93
3
 72
1
 10
230.1993290146
 20
144.8700200715
 11
230.6952027315
 21
141.8947777702
 72
1
 10
230.6952027315
 20
141.8947777702
 11
231.1910764484
 21
144.8700200715
 72
1
 10
231.1910764484
 20
144.8700200715
 11
230.1993290146
 21
144.8700200715
 97
3
330
474
330
475
330
476
 75
0
 76
1
 98
1
 10
0.0
 20
0.0
  0
LINE
  5
478
100
AcDbEntity
  8
Format_A3
100
AcDbLine
 62
2
  6
CONTINUOUS
 10
416.5294279542
 20
146.7484551706
 11
401.5294579542
 21
146.7484551706
  0
LINE
  5
479
100
AcDbEntity
  8
Format_A3
100
AcDbLine
 62
2
  6
CONTINUOUS
 10
6.5302479541
 20
146.7484551706
 11
21.5302179541
 21
146.7484551706
  0
LINE
  5
47A
100
AcDbEntity
  8
0
100
AcDbLine
 62
2
  6
CONTINUOUS
 10
118.4303942
 20
147.8406632432
 11
140.3086013358
 21
147.2525393619
  0
LINE
  5
47B
100
AcDbEntity
  8
HIDDEN
100
AcDbLine
 62
1
  6
DASHED
 10
159.7818200025
 20
215.1601194396
 11
182.0961372622
 21
177.9695906734
  0
LINE
  5
47C
100
AcDbEntity
  8
DIMS
100
AcDbLine
 62
2
  6
CONTINUOUS
 10
213.3361814258
 20
269.958749318
 11
213.3361814258
 21
269.2149387427
  0
LINE
  5
47D
100
AcDbEntity
  8
DIMS
100
AcDbLine
 62
2
  6
CONTINUOUS
 10
213.3361814258
 20
269.2149387427
 11
215.5676131518
 21
269.5868440304
  0
LINE
  5
47E
100
AcDbEntity
  8
DIMS
100
AcDbLine
 62
2
  6
CONTINUOUS
 10
215.5676131518
 20
269.5868440304
 11
213.3361814258
 21
269.958749318
  0
HATCH
  5
47F
100
AcDbEntity
  8
DIMS
100
AcDbHatch
 62
2
  6
CONTINUOUS
 10
0.0
 20
0.0
 30
0.0
210
0.0
220
0.0
230
1.0
  2

 70
1
 71
1
 91
1
 92
1
 93
3
 72
1
 10
213.3361814258
 20
269.2149387427
 11
215.5676131518
 21
269.5868440304
 72
1
 10
215.5676131518
 20
269.5868440304
 11
213.3361814258
 21
269.958749318
 72
1
 10
213.3361814258
 20
269.958749318
 11
213.3361814258
 21
269.2149387427
 97
3
330
47C
330
47D
330
47E
 75
0
 76
1
 98
1
 10
0.0
 20
0.0
  0
LINE
  5
480
100
AcDbEntity
  8
DIMS
100
AcDbLine
 62
6
  6
CONTINUOUS
 10
215.3444699792
 20
87.60332434
 11
215.3444699792
 21
77.1352657198
  0
LINE
  5
481
100
AcDbEntity
  8
DIMS
100
AcDbLine
 62
2
  6
CONTINUOUS
 10
215.3444699792
 20
92.0594692235
 11
215.3444699792
 21
87.60332434
  0
LINE
  5
482
100
AcDbEntity
  8
0
100
AcDbLine
 62
3
  6
CONTINUOUS
 10
215.3444699792
 20
95.0347115248
 11
215.3444699792
 21
138.0269627785
  0
LINE
  5
483
100
AcDbEntity
  8
0
100
AcDbLine
 62
3
  6
CONTINUOUS
 10
215.5676131518
 20
251.2349323428
 11
215.5676131518
 21
138.0269627785
  0
LINE
  5
484
100
AcDbEntity
  8
0
100
AcDbLine
 62
3
  6
CONTINUOUS
 10
215.5676131518
 20
70.8205155103
 11
215.5676131518
 21
25.4480704156
  0
LINE
  5
485
100
AcDbEntity
  8
DIMS
100
AcDbLine
 62
2
  6
CONTINUOUS
 10
215.5676131518
 20
22.4728281143
 11
215.5676131518
 21
17.1014922938
  0
LINE
  5
486
100
AcDbEntity
  8
DIMS
100
AcDbLine
 62
2
  6
CONTINUOUS
 10
215.5676131518
 20
254.2101746441
 11
215.5676131518
 21
271.074465181
  0
LINE
  5
487
100
AcDbEntity
  8
DIMS
100
AcDbLine
 62
6
  6
CONTINUOUS
 10
221.4367399751
 20
243.2053124196
 11
221.4367399751
 21
240.2300701183
  0
LINE
  5
488
100
AcDbEntity
  8
DIMS
100
AcDbLine
 62
6
  6
CONTINUOUS
 10
221.4367399751
 20
246.1805547209
 11
221.4367399751
 21
251.2349323428
  0
LINE
  5
489
100
AcDbEntity
  8
DIMS
100
AcDbLine
 62
6
  6
CONTINUOUS
 10
221.4367399751
 20
254.2101746441
 11
221.4367399751
 21
263.6317752648
  0
LINE
  5
48A
100
AcDbEntity
  8
MM_4_0_050
100
AcDbLine
 62
7
  6
CONTINUOUS
 10
221.5294279542
 20
68.2229346836
 11
221.5294279542
 21
8.2487421705
  0
LINE
  5
48B
100
AcDbEntity
  8
DIMS
100
AcDbLine
 62
2
  6
CONTINUOUS
 10
223.5443139678
 20
104.704249004
 11
223.5443139678
 21
103.8116763136
  0
LINE
  5
48C
100
AcDbEntity
  8
DIMS
100
AcDbLine
 62
2
  6
CONTINUOUS
 10
223.5443139678
 20
97.2661432508
 11
223.5443139678
 21
98.1587159411
  0
LINE
  5
48D
100
AcDbEntity
  8
DIMS
100
AcDbLine
 62
6
  6
CONTINUOUS
 10
230.1993290146
 20
248.2596900415
 11
230.6952027315
 21
251.2349323428
  0
LINE
  5
48E
100
AcDbEntity
  8
DIMS
100
AcDbLine
 62
6
  6
CONTINUOUS
 10
230.6952027315
 20
251.2349323428
 11
231.1910764484
 21
248.2596900415
  0
LINE
  5
48F
100
AcDbEntity
  8
DIMS
100
AcDbLine
 62
6
  6
CONTINUOUS
 10
231.1910764484
 20
248.2596900415
 11
230.1993290146
 21
248.2596900415
  0
HATCH
  5
490
100
AcDbEntity
  8
DIMS
100
AcDbHatch
 62
6
  6
CONTINUOUS
 10
0.0
 20
0.0
 30
0.0
210
0.0
220
0.0
230
1.0
  2

 70
1
 71
1
 91
1
 92
1
 93
3
 72
1
 10
230.6952027315
 20
251.2349323428
 11
231.1910764484
 21
248.2596900415
 72
1
 10
231.1910764484
 20
248.2596900415
 11
230.1993290146
 21
248.2596900415
 72
1
 10
230.1993290146
 20
248.2596900415
 11
230.6952027315
 21
251.2349323428
 97
3
330
48D
330
48E
330
48F
 75
0
 76
1
 98
1
 10
0.0
 20
0.0
  0
LINE
  5
491
100
AcDbEntity
  8
DIMS
100
AcDbLine
 62
6
  6
CONTINUOUS
 10
195.3061376435
 20
105.3192436374
 11
196.5280631111
 21
107.0318758178
  0
LINE
  5
492
100
AcDbEntity
  8
DIMS
100
AcDbLine
 62
6
  6
CONTINUOUS
 10
176.2501060574
 20
81.818750713
 11
196.5280631111
 21
107.0318758178
  0
LINE
  5
493
100
AcDbEntity
  8
HIDDEN
100
AcDbLine
 62
1
  6
DASHED
 10
200.6914016453
 20
126.5607276477
 11
200.0219721275
 21
126.18882236
  0
LINE
  5
494
100
AcDbEntity
  8
0
100
AcDbLine
 62
2
  6
CONTINUOUS
 10
140.3086013358
 20
147.2525393619
 11
138.2185959674
 21
147.0110768786
  0
LINE
  5
495
100
AcDbEntity
  8
DIMS
100
AcDbLine
 62
6
  6
CONTINUOUS
 10
230.6952027315
 20
248.2596900415
 11
230.6952027315
 21
144.8700200715
  0
LINE
  5
496
100
AcDbEntity
  8
DIMS
100
AcDbLine
 62
6
  6
CONTINUOUS
 10
230.6952027315
 20
138.9195354689
 11
230.6952027315
 21
98.0099538261
  0
LINE
  5
497
100
AcDbEntity
  8
Format_A3
100
AcDbLine
 62
1
  6
CONTINUOUS
 10
231.5297979542
 20
3.2487421705
 11
231.5297979542
 21
-1.7512478295
  0
LINE
  5
498
100
AcDbEntity
  8
MM_4_0_025
100
AcDbLine
 62
1
  6
CONTINUOUS
 10
236.3785805215
 20
55.4729346836
 11
236.3785805215
 21
68.2229346836
  0
LINE
  5
499
100
AcDbEntity
  8
0
100
AcDbLine
 62
3
  6
CONTINUOUS
 10
274.2873765125
 20
248.2596900415
 11
273.9154712248
 21
247.1772608918
  0
LINE
  5
49A
100
AcDbEntity
  8
0
100
AcDbLine
 62
3
  6
CONTINUOUS
 10
274.1386143974
 20
247.1399954923
 11
274.5105196851
 21
248.2224246419
  0
LINE
  5
49B
100
AcDbEntity
  8
HIDDEN
100
AcDbLine
 62
1
  6
DASHED
 10
198.7946846782
 20
112.6886604179
 11
198.6087320344
 21
112.5027077741
  0
LINE
  5
49C
100
AcDbEntity
  8
DIMS
100
AcDbLine
 62
6
  6
CONTINUOUS
 10
196.5280631111
 20
107.0318758178
 11
194.8754777172
 21
105.7298880674
  0
LINE
  5
49D
100
AcDbEntity
  8
HIDDEN
100
AcDbLine
 62
1
  6
DASHED
 10
182.0961372622
 20
177.9695906734
 11
159.7818200025
 21
177.9695906734
  0
LINE
  5
49E
100
AcDbEntity
  8
HIDDEN
100
AcDbLine
 62
1
  6
DASHED
 10
137.4675027428
 20
177.9695906734
 11
115.1531854831
 21
177.9695906734
  0
LINE
  5
49F
100
AcDbEntity
  8
HIDDEN
100
AcDbLine
 62
1
  6
DASHED
 10
92.8388682233
 20
177.9695906734
 11
70.5245509636
 21
177.9695906734
  0
LINE
  5
4A0
100
AcDbEntity
  8
MM_4_0_025
100
AcDbLine
 62
1
  6
CONTINUOUS
 10
252.3785805215
 20
55.4729346836
 11
252.3785805215
 21
68.1987421705
  0
LINE
  5
4A1
100
AcDbEntity
  8
DIMS
100
AcDbLine
 62
6
  6
CONTINUOUS
 10
253.7165591915
 20
123.2995133871
 11
253.7165591915
 21
98.0099538261
  0
LINE
  5
4A2
100
AcDbEntity
  8
0
100
AcDbLine
 62
1
  6
CONTINUOUS
 10
189.7409628505
 20
41.4467432544
 11
188.6432608896
 21
39.6518793934
  0
LINE
  5
4A3
100
AcDbEntity
  8
Format_A3
100
AcDbLine
 62
1
  6
CONTINUOUS
 10
416.5294279542
 20
192.9123628426
 11
411.5294379542
 21
192.9123628426
  0
LINE
  5
4A4
100
AcDbEntity
  8
Format_A3
100
AcDbLine
 62
1
  6
CONTINUOUS
 10
11.5302379541
 20
192.9123628426
 11
6.5302479541
 21
192.9123628426
  0
LINE
  5
4A5
100
AcDbEntity
  8
0
100
AcDbLine
 62
3
  6
CONTINUOUS
 10
285.5949790131
 20
130.6435085073
 11
289.4430644293
 21
126.7954230911
  0
LINE
  5
4A6
100
AcDbEntity
  8
0
100
AcDbLine
 62
3
  6
CONTINUOUS
 10
289.5354933066
 20
127.0185662637
 11
285.81644043
 21
130.7376191403
  0
LINE
  5
4A7
100
AcDbEntity
  8
0
100
AcDbLine
 62
3
  6
CONTINUOUS
 10
285.5949790131
 20
135.1063719592
 11
289.4430644293
 21
131.2582865431
  0
LINE
  5
4A8
100
AcDbEntity
  8
0
100
AcDbLine
 62
3
  6
CONTINUOUS
 10
289.5354933066
 20
131.4814297156
 11
285.81644043
 21
135.2004825923
  0
LINE
  5
4A9
100
AcDbEntity
  8
Format_A3
100
AcDbLine
 62
1
  6
CONTINUOUS
 10
261.5297379542
 20
290.2481681706
 11
261.5297379542
 21
285.2481781706
  0
LINE
  5
4AA
100
AcDbEntity
  8
Format_A3
100
AcDbLine
 62
1
  6
CONTINUOUS
 10
261.5297379542
 20
8.2487321705
 11
261.5297379542
 21
3.2487421705
  0
LINE
  5
4AB
100
AcDbEntity
  8
DIMS
100
AcDbLine
 62
6
  6
CONTINUOUS
 10
263.611267317
 20
101.7290067027
 11
263.611267317
 21
98.0099538261
  0
LINE
  5
4AC
100
AcDbEntity
  8
0
100
AcDbLine
 62
1
  6
CONTINUOUS
 10
171.8105983276
 20
19.7566443255
 11
189.7409628505
 21
41.4467432544
  0
LINE
  5
4AD
100
AcDbEntity
  8
0
100
AcDbLine
 62
3
  6
CONTINUOUS
 10
285.5949790131
 20
130.6435085073
 11
282.6220934012
 21
251.0117891702
  0
LINE
  5
4AE
100
AcDbEntity
  8
0
100
AcDbLine
 62
1
  6
DASHED
 10
283.079653237
 20
236.0612376645
 11
283.0483383655
 21
242.0138991031
  0
LINE
  5
4AF
100
AcDbEntity
  8
0
100
AcDbLine
 62
1
  6
DASHED
 10
271.5352773838
 20
236.8050071815
 11
271.5352773838
 21
241.2678706334
  0
LINE
  5
4B0
100
AcDbEntity
  8
0
100
AcDbLine
 62
3
  6
CONTINUOUS
 10
273.9154712248
 20
251.2349323428
 11
273.9154712248
 21
248.2596900415
  0
LINE
  5
4B1
100
AcDbEntity
  8
0
100
AcDbLine
 62
3
  6
CONTINUOUS
 10
273.9154712248
 20
247.1772608918
 11
273.9154712248
 21
243.9491229949
  0
LINE
  5
4B2
100
AcDbEntity
  8
DIMS
100
AcDbLine
 62
6
  6
CONTINUOUS
 10
273.9154712248
 20
240.9006323108
 11
273.9154712248
 21
111.3985441819
  0
LINE
  5
4B3
100
AcDbEntity
  8
DIMS
100
AcDbLine
 62
6
  6
CONTINUOUS
 10
273.9154712248
 20
92.0594692235
 11
273.9154712248
 21
75.2254546189
  0
LINE
  5
4B4
100
AcDbEntity
  8
0
100
AcDbLine
 62
3
  6
CONTINUOUS
 10
273.9154712248
 20
95.0347115248
 11
273.9154712248
 21
109.9109230313
  0
LINE
  5
4B5
100
AcDbEntity
  8
DIMS
100
AcDbLine
 62
6
  6
CONTINUOUS
 10
273.9154712248
 20
254.2101746441
 11
273.9154712248
 21
266.0363182604
  0
LINE
  5
4B6
100
AcDbEntity
  8
0
100
AcDbLine
 62
3
  6
CONTINUOUS
 10
274.1386143974
 20
109.9109230313
 11
274.1386143974
 21
95.0347115248
  0
LINE
  5
4B7
100
AcDbEntity
  8
0
100
AcDbLine
 62
3
  6
CONTINUOUS
 10
274.1386143974
 20
243.9491229949
 11
274.1386143974
 21
247.1399954923
  0
LINE
  5
4B8
100
AcDbEntity
  8
0
100
AcDbLine
 62
3
  6
CONTINUOUS
 10
274.1386143974
 20
248.2596900415
 11
274.1386143974
 21
251.0117891702
  0
LINE
  5
4B9
100
AcDbEntity
  8
0
100
AcDbLine
 62
3
  6
CONTINUOUS
 10
274.2873765125
 20
250.71426494
 11
274.2873765125
 21
248.2596900415
  0
LINE
  5
4BA
100
AcDbEntity
  8
0
100
AcDbLine
 62
3
  6
CONTINUOUS
 10
274.5105196851
 20
248.2224246419
 11
274.5105196851
 21
250.71426494
  0
LINE
  5
4BB
100
AcDbEntity
  8
MM_4_0_050
100
AcDbLine
 62
7
  6
CONTINUOUS
 10
275.9785805215
 20
8.2487421705
 11
275.9785805215
 21
68.2229346836
  0
LINE
  5
4BC
100
AcDbEntity
  8
DIMS
100
AcDbLine
 62
6
  6
CONTINUOUS
 10
276.8907135261
 20
264.3007602513
 11
276.8907135261
 21
263.3090128175
  0
LINE
  5
4BD
100
AcDbEntity
  8
DIMS
100
AcDbLine
 62
6
  6
CONTINUOUS
 10
273.9154712248
 20
263.8048865344
 11
276.8907135261
 21
264.3007602513
  0
LINE
  5
4BE
100
AcDbEntity
  8
DIMS
100
AcDbLine
 62
6
  6
CONTINUOUS
 10
276.8907135261
 20
263.3090128175
 11
273.9154712248
 21
263.8048865344
  0
HATCH
  5
4BF
100
AcDbEntity
  8
DIMS
100
AcDbHatch
 62
6
  6
CONTINUOUS
 10
0.0
 20
0.0
 30
0.0
210
0.0
220
0.0
230
1.0
  2

 70
1
 71
1
 91
1
 92
1
 93
3
 72
1
 10
276.8907135261
 20
263.3090128175
 11
273.9154712248
 21
263.8048865344
 72
1
 10
273.9154712248
 20
263.8048865344
 11
276.8907135261
 21
264.3007602513
 72
1
 10
276.8907135261
 20
264.3007602513
 11
276.8907135261
 21
263.3090128175
 97
3
330
4BC
330
4BD
330
4BE
 75
0
 76
1
 98
1
 10
0.0
 20
0.0
  0
LINE
  5
4C0
100
AcDbEntity
  8
DEFAULT_1
100
AcDbLine
 62
1
  6
CENTER
 10
276.8907135261
 20
254.2101746441
 11
276.8907135261
 21
236.8050071815
  0
LINE
  5
4C1
100
AcDbEntity
  8
0
100
AcDbLine
 62
1
  6
CONTINUOUS
 10
278.3475684399
 20
237.3867424738
 11
278.3475684399
 21
240.6595090052
  0
LINE
  5
4C2
100
AcDbEntity
  8
0
100
AcDbLine
 62
3
  6
CONTINUOUS
 10
279.8659558274
 20
126.2747556884
 11
279.8659558274
 21
109.9109230313
  0
LINE
  5
4C3
100
AcDbEntity
  8
0
100
AcDbLine
 62
1
  6
DASHED
 10
279.9450788261
 20
241.2678706334
 11
279.9450788261
 21
236.8050071815
  0
LINE
  5
4C4
100
AcDbEntity
  8
DEFAULT_1
100
AcDbLine
 62
1
  6
CENTER
 10
281.353576978
 20
121.6408158041
 11
281.353576978
 21
123.4705898194
  0
LINE
  5
4C5
100
AcDbEntity
  8
0
100
AcDbLine
 62
1
  6
DASHED
 10
281.3954173642
 20
240.4517808605
 11
281.3954173642
 21
237.6132882822
  0
LINE
  5
4C6
100
AcDbEntity
  8
0
100
AcDbLine
 62
1
  6
DASHED
 10
282.0845334653
 20
236.5410076841
 11
282.0845334653
 21
241.5215647841
  0
LINE
  5
4C7
100
AcDbEntity
  8
DIMS
100
AcDbLine
 62
6
  6
CONTINUOUS
 10
282.8411981287
 20
248.2596900415
 11
282.8411981287
 21
133.0053282932
  0
LINE
  5
4C8
100
AcDbEntity
  8
MM_4_0_025
100
AcDbLine
 62
1
  6
CONTINUOUS
 10
283.4785805215
 20
55.4729346836
 11
283.4785805215
 21
49.0967467745
  0
LINE
  5
4C9
100
AcDbEntity
  8
MM_4_0_025
100
AcDbLine
 62
1
  6
CONTINUOUS
 10
284.557023736
 20
53.4098401854
 11
284.557023736
 21
51.0098401854
  0
LINE
  5
4CA
100
AcDbEntity
  8
0
100
AcDbLine
 62
1
  6
CONTINUOUS
 10
188.1846072059
 20
40.0310304374
 11
189.7409628505
 21
41.4467432544
  0
LINE
  5
4CB
100
AcDbEntity
  8
0
100
AcDbLine
 62
3
  6
CONTINUOUS
 10
286.6467642084
 20
236.6750597549
 11
283.079653237
 21
236.0612376645
  0
LINE
  5
4CC
100
AcDbEntity
  8
HIDDEN
100
AcDbLine
 62
1
  6
DASHED
 10
182.0961372622
 20
215.1601194396
 11
159.7818200025
 21
215.1601194396
  0
LINE
  5
4CD
100
AcDbEntity
  8
HIDDEN
100
AcDbLine
 62
1
  6
DASHED
 10
137.4675027428
 20
215.1601194396
 11
115.1531854831
 21
215.1601194396
  0
LINE
  5
4CE
100
AcDbEntity
  8
HIDDEN
100
AcDbLine
 62
1
  6
DASHED
 10
92.8388682233
 20
215.1601194396
 11
70.5245509636
 21
215.1601194396
  0
LINE
  5
4CF
100
AcDbEntity
  8
0
100
AcDbLine
 62
3
  6
CONTINUOUS
 10
291.1633855283
 20
125.7657301113
 11
290.795637993
 21
126.7954230911
  0
LINE
  5
4D0
100
AcDbEntity
  8
0
100
AcDbLine
 62
3
  6
CONTINUOUS
 10
290.9528913008
 20
127.0185662637
 11
291.3206386874
 21
125.9888732839
  0
LINE
  5
4D1
100
AcDbEntity
  8
0
100
AcDbLine
 62
3
  6
CONTINUOUS
 10
282.8411981287
 20
251.2349323428
 11
285.81644043
 21
130.7376191403
  0
LINE
  5
4D2
100
AcDbEntity
  8
0
100
AcDbLine
 62
3
  6
CONTINUOUS
 10
286.6217218914
 20
241.4353815354
 11
286.6467642084
 21
236.6750597549
  0
LINE
  5
4D3
100
AcDbEntity
  8
0
100
AcDbLine
 62
3
  6
CONTINUOUS
 10
285.81644043
 20
130.7376191403
 11
285.81644043
 21
125.6797072281
  0
LINE
  5
4D4
100
AcDbEntity
  8
DIMS
100
AcDbLine
 62
6
  6
CONTINUOUS
 10
285.81644043
 20
133.7128614416
 11
285.81644043
 21
137.4681917451
  0
LINE
  5
4D5
100
AcDbEntity
  8
MM_4_0_025
100
AcDbLine
 62
1
  6
CONTINUOUS
 10
290.057023736
 20
54.2098401854
 11
290.057023736
 21
50.2098401854
  0
LINE
  5
4D6
100
AcDbEntity
  8
0
100
AcDbLine
 62
3
  6
CONTINUOUS
 10
293.1801651257
 20
125.9888732839
 11
293.1801651257
 21
125.7657301113
  0
LINE
  5
4D7
100
AcDbEntity
  8
MM_4_0_025
100
AcDbLine
 62
1
  6
CONTINUOUS
 10
293.3348605879
 20
55.4729346836
 11
293.3348605879
 21
68.2229346836
  0
LINE
  5
4D8
100
AcDbEntity
  8
MM_4_0_025
100
AcDbLine
 62
1
  6
DOT
 10
294.723670684
 20
54.7137722927
 11
294.723670684
 21
49.5089573737
  0
LINE
  5
4D9
100
AcDbEntity
  8
DIMS
100
AcDbLine
 62
6
  6
CONTINUOUS
 10
298.0149338653
 20
90.5718480728
 11
298.0149338653
 21
84.1402081864
  0
LINE
  5
4DA
100
AcDbEntity
  8
DEFAULT_1
100
AcDbLine
 62
1
  6
CENTER
 10
298.0149338653
 20
93.5470903741
 11
298.0149338653
 21
115.8614076339
  0
LINE
  5
4DB
100
AcDbEntity
  8
DEFAULT_1
100
AcDbLine
 62
1
  6
CENTER
 10
298.0149338653
 20
123.2995133871
 11
298.0149338653
 21
130.7376191403
  0
LINE
  5
4DC
100
AcDbEntity
  8
MM_4_0_025
100
AcDbLine
 62
1
  6
CONTINUOUS
 10
298.4785805215
 20
55.4729346836
 11
298.4785805215
 21
49.0967467745
  0
LINE
  5
4DD
100
AcDbEntity
  8
0
100
AcDbLine
 62
3
  6
CONTINUOUS
 10
306.494374424
 20
131.4814297156
 11
310.2134273006
 21
135.2004825923
  0
LINE
  5
4DE
100
AcDbEntity
  8
0
100
AcDbLine
 62
3
  6
CONTINUOUS
 10
310.4365704732
 20
135.1080535662
 11
306.5868034501
 21
131.2582865431
  0
LINE
  5
4DF
100
AcDbEntity
  8
0
100
AcDbLine
 62
3
  6
CONTINUOUS
 10
306.494374424
 20
127.0185662637
 11
310.2134273006
 21
130.7376191403
  0
LINE
  5
4E0
100
AcDbEntity
  8
0
100
AcDbLine
 62
3
  6
CONTINUOUS
 10
310.4365704732
 20
130.6451901142
 11
306.5868034501
 21
126.7954230911
  0
LINE
  5
4E1
100
AcDbEntity
  8
0
100
AcDbLine
 62
1
  6
DASHED
 10
282.8863761417
 20
236.5423100964
 11
282.0845334653
 21
236.5410076841
  0
LINE
  5
4E2
100
AcDbEntity
  8
0
100
AcDbLine
 62
1
  6
DASHED
 10
281.6275460661
 20
237.1373051511
 11
282.1939573729
 21
237.138225096
  0
LINE
  5
4E3
100
AcDbEntity
  8
0
100
AcDbLine
 62
1
  6
DASHED
 10
282.1939573729
 20
238.0901912096
 11
281.6275460661
 21
238.0892712647
  0
LINE
  5
4E4
100
AcDbEntity
  8
0
100
AcDbLine
 62
1
  6
DASHED
 10
167.963736331
 20
236.8050071815
 11
164.909371031
 21
236.8050071815
  0
LINE
  5
4E5
100
AcDbEntity
  8
0
100
AcDbLine
 62
1
  6
DASHED
 10
84.6569518948
 20
236.8050071815
 11
87.7113171948
 21
236.8050071815
  0
LINE
  5
4E6
100
AcDbEntity
  8
HIDDEN
100
AcDbLine
 62
1
  6
DASHED
 10
121.1036700856
 20
236.8050071815
 11
131.5170181402
 21
236.8050071815
  0
LINE
  5
4E7
100
AcDbEntity
  8
0
100
AcDbLine
 62
1
  6
DASHED
 10
271.5352773838
 20
236.8050071815
 11
279.9450788261
 21
236.8050071815
  0
LINE
  5
4E8
100
AcDbEntity
  8
0
100
AcDbLine
 62
1
  6
CONTINUOUS
 10
278.3475684399
 20
237.3867424738
 11
281.3954173642
 21
237.3867424738
  0
LINE
  5
4E9
100
AcDbEntity
  8
HIDDEN
100
AcDbLine
 62
1
  6
DASHED
 10
87.7113171948
 20
237.4000556418
 11
121.1036700856
 21
237.4000556418
  0
LINE
  5
4EA
100
AcDbEntity
  8
HIDDEN
100
AcDbLine
 62
1
  6
DASHED
 10
131.5170181402
 20
237.4000556418
 11
164.909371031
 21
237.4000556418
  0
LINE
  5
4EB
100
AcDbEntity
  8
0
100
AcDbLine
 62
1
  6
DASHED
 10
281.3954173642
 20
237.6098856464
 11
278.3475684399
 21
237.6098856464
  0
LINE
  5
4EC
100
AcDbEntity
  8
0
100
AcDbLine
 62
1
  6
CONTINUOUS
 10
310.5530671268
 20
139.6155521982
 11
310.5749101657
 21
139.3934807078
  0
LINE
  5
4ED
100
AcDbEntity
  8
0
100
AcDbLine
 62
3
  6
CONTINUOUS
 10
302.8497026049
 20
125.9888732839
 11
302.8497026049
 21
125.7657301113
  0
LINE
  5
4EE
100
AcDbEntity
  8
0
100
AcDbLine
 62
3
  6
CONTINUOUS
 10
307.5357092294
 20
95.0347115248
 11
307.5357092294
 21
96.5223326754
  0
LINE
  5
4EF
100
AcDbEntity
  8
0
100
AcDbLine
 62
3
  6
CONTINUOUS
 10
308.6514250924
 20
95.2578546974
 11
308.6514250924
 21
95.0347115248
  0
LINE
  5
4F0
100
AcDbEntity
  8
0
100
AcDbLine
 62
3
  6
CONTINUOUS
 10
310.2134273006
 20
130.7376191403
 11
310.2134273006
 21
141.0022050798
  0
LINE
  5
4F1
100
AcDbEntity
  8
0
100
AcDbLine
 62
3
  6
CONTINUOUS
 10
310.4365704732
 20
140.7999335295
 11
310.4365704732
 21
130.6451901142
  0
LINE
  5
4F2
100
AcDbEntity
  8
0
100
AcDbLine
 62
3
  6
CONTINUOUS
 10
311.105999991
 20
125.6797072281
 11
311.105999991
 21
140.8657790631
  0
LINE
  5
4F3
100
AcDbEntity
  8
0
100
AcDbLine
 62
3
  6
CONTINUOUS
 10
311.1803810485
 20
96.5223326754
 11
311.1803810485
 21
126.2747556884
  0
LINE
  5
4F4
100
AcDbEntity
  8
0
100
AcDbLine
 62
3
  6
CONTINUOUS
 10
311.4035242211
 20
95.2578546974
 11
311.4035242211
 21
126.2747556884
  0
LINE
  5
4F5
100
AcDbEntity
  8
Format_A3
100
AcDbLine
 62
1
  6
CONTINUOUS
 10
311.5296379542
 20
290.2481681706
 11
311.5296379542
 21
285.2481781706
  0
LINE
  5
4F6
100
AcDbEntity
  8
Format_A3
100
AcDbLine
 62
1
  6
CONTINUOUS
 10
311.5296379542
 20
8.2487321705
 11
311.5296379542
 21
3.2487421705
  0
LINE
  5
4F7
100
AcDbEntity
  8
DIMS
100
AcDbLine
 62
6
  6
CONTINUOUS
 10
311.6266673937
 20
92.0594692235
 11
311.6266673937
 21
75.2254546189
  0
LINE
  5
4F8
100
AcDbEntity
  8
0
100
AcDbLine
 62
3
  6
CONTINUOUS
 10
311.6266673937
 20
95.0347115248
 11
311.6266673937
 21
119.5804605105
  0
LINE
  5
4F9
100
AcDbEntity
  8
0
100
AcDbLine
 62
3
  6
CONTINUOUS
 10
305.0769765785
 20
127.0185662637
 11
304.7092290432
 21
125.9888732839
  0
LINE
  5
4FA
100
AcDbEntity
  8
0
100
AcDbLine
 62
3
  6
CONTINUOUS
 10
304.866482351
 20
125.7657301113
 11
305.2342298863
 21
126.7954230911
  0
LINE
  5
4FB
100
AcDbEntity
  8
0
100
AcDbLine
 62
3
  6
CONTINUOUS
 10
318.8416299744
 20
127.110995141
 11
311.4035242211
 21
119.6728893878
  0
LINE
  5
4FC
100
AcDbEntity
  8
0
100
AcDbLine
 62
3
  6
CONTINUOUS
 10
311.6266673937
 20
119.5804605105
 11
319.064773147
 21
127.0185662637
  0
LINE
  5
4FD
100
AcDbEntity
  8
DIMS
100
AcDbLine
 62
6
  6
CONTINUOUS
 10
316.3126740183
 20
263.3090128175
 11
319.2879163196
 21
263.8048865344
  0
LINE
  5
4FE
100
AcDbEntity
  8
DIMS
100
AcDbLine
 62
6
  6
CONTINUOUS
 10
316.3126740183
 20
264.3007602513
 11
316.3126740183
 21
263.3090128175
  0
LINE
  5
4FF
100
AcDbEntity
  8
DIMS
100
AcDbLine
 62
6
  6
CONTINUOUS
 10
319.2879163196
 20
263.8048865344
 11
316.3126740183
 21
264.3007602513
  0
HATCH
  5
500
100
AcDbEntity
  8
DIMS
100
AcDbHatch
 62
6
  6
CONTINUOUS
 10
0.0
 20
0.0
 30
0.0
210
0.0
220
0.0
230
1.0
  2

 70
1
 71
1
 91
1
 92
1
 93
3
 72
1
 10
319.2879163196
 20
263.8048865344
 11
316.3126740183
 21
264.3007602513
 72
1
 10
316.3126740183
 20
264.3007602513
 11
316.3126740183
 21
263.3090128175
 72
1
 10
316.3126740183
 20
263.3090128175
 11
319.2879163196
 21
263.8048865344
 97
3
330
4FD
330
4FE
330
4FF
 75
0
 76
1
 98
1
 10
0.0
 20
0.0
  0
LINE
  5
501
100
AcDbEntity
  8
0
100
AcDbLine
 62
1
  6
DASHED
 10
281.6275460661
 20
239.9757977293
 11
282.1939573729
 21
239.976717823
  0
LINE
  5
502
100
AcDbEntity
  8
0
100
AcDbLine
 62
1
  6
DASHED
 10
281.6275460661
 20
240.9277638429
 11
282.1939573729
 21
240.9286837878
  0
LINE
  5
503
100
AcDbEntity
  8
0
100
AcDbLine
 62
1
  6
DASHED
 10
282.7954097447
 20
241.5227194756
 11
282.0845334653
 21
241.5215647841
  0
LINE
  5
504
100
AcDbEntity
  8
DEFAULT_1
100
AcDbLine
 62
1
  6
CENTER
 10
286.783674892
 20
239.0364389075
 11
274.6592818001
 21
239.0364389075
  0
LINE
  5
505
100
AcDbEntity
  8
HIDDEN
100
AcDbLine
 62
1
  6
DASHED
 10
164.3934455695
 20
239.0364389075
 11
88.2272426563
 21
239.0364389075
  0
LINE
  5
506
100
AcDbEntity
  8
DIMS
100
AcDbLine
 62
6
  6
CONTINUOUS
 10
78.1114188319
 20
239.0364389075
 11
26.7693300432
 21
239.0364389075
  0
LINE
  5
507
100
AcDbEntity
  8
DEFAULT_1
100
AcDbLine
 62
1
  6
CENTER
 10
81.0866611332
 20
239.0364389075
 11
88.2272426563
 21
239.0364389075
  0
LINE
  5
508
100
AcDbEntity
  8
DEFAULT_1
100
AcDbLine
 62
1
  6
CENTER
 10
164.3934455695
 20
239.0364389075
 11
171.5340270926
 21
239.0364389075
  0
LINE
  5
509
100
AcDbEntity
  8
Format_A3
100
AcDbLine
 62
1
  6
CONTINUOUS
 10
416.5294279542
 20
239.0782705106
 11
411.5294379542
 21
239.0782705106
  0
LINE
  5
50A
100
AcDbEntity
  8
Format_A3
100
AcDbLine
 62
1
  6
CONTINUOUS
 10
11.5302379541
 20
239.0782705106
 11
6.5302479541
 21
239.0782705106
  0
LINE
  5
50B
100
AcDbEntity
  8
0
100
AcDbLine
 62
1
  6
CONTINUOUS
 10
266.7132551772
 20
239.9791569266
 11
267.8328096978
 21
239.9791569266
  0
LINE
  5
50C
100
AcDbEntity
  8
0
100
AcDbLine
 62
1
  6
DASHED
 10
281.3954173642
 20
240.4363658326
 11
278.3475684399
 21
240.4363658326
  0
LINE
  5
50D
100
AcDbEntity
  8
0
100
AcDbLine
 62
1
  6
CONTINUOUS
 10
278.3475684399
 20
240.6595090052
 11
281.3954173642
 21
240.6595090052
  0
LINE
  5
50E
100
AcDbEntity
  8
HIDDEN
100
AcDbLine
 62
1
  6
DASHED
 10
87.7113171948
 20
240.6728221732
 11
121.1036700856
 21
240.6728221732
  0
LINE
  5
50F
100
AcDbEntity
  8
HIDDEN
100
AcDbLine
 62
1
  6
DASHED
 10
131.5170181402
 20
240.6728221732
 11
164.909371031
 21
240.6728221732
  0
LINE
  5
510
100
AcDbEntity
  8
0
100
AcDbLine
 62
1
  6
DASHED
 10
167.963736331
 20
241.2678706334
 11
164.909371031
 21
241.2678706334
  0
LINE
  5
511
100
AcDbEntity
  8
0
100
AcDbLine
 62
1
  6
DASHED
 10
84.6569518948
 20
241.2678706334
 11
87.7113171948
 21
241.2678706334
  0
LINE
  5
512
100
AcDbEntity
  8
HIDDEN
100
AcDbLine
 62
1
  6
DASHED
 10
121.1036700856
 20
241.2678706334
 11
131.5170181402
 21
241.2678706334
  0
LINE
  5
513
100
AcDbEntity
  8
0
100
AcDbLine
 62
1
  6
DASHED
 10
271.5352773838
 20
241.2678706334
 11
279.9450788261
 21
241.2678706334
  0
LINE
  5
514
100
AcDbEntity
  8
HIDDEN
100
AcDbLine
 62
1
  6
DASHED
 10
44.4911808273
 20
243.9491229949
 11
208.1295073985
 21
243.9491229949
  0
LINE
  5
515
100
AcDbEntity
  8
0
100
AcDbLine
 62
3
  6
CONTINUOUS
 10
273.9154712248
 20
243.9491229949
 11
274.1386143974
 21
243.9491229949
  0
LINE
  5
516
100
AcDbEntity
  8
DIMS
100
AcDbLine
 62
6
  6
CONTINUOUS
 10
207.3856968232
 20
246.1805547209
 11
223.6681717011
 21
246.1805547209
  0
LINE
  5
517
100
AcDbEntity
  8
DEFAULT_1
100
AcDbLine
 62
1
  6
CENTER
 10
270.4195615208
 20
246.1805547209
 11
278.0808104466
 21
246.1805547209
  0
LINE
  5
518
100
AcDbEntity
  8
HIDDEN
100
AcDbLine
 62
1
  6
DASHED
 10
44.4911808273
 20
248.2596900415
 11
208.1295073985
 21
248.2596900415
  0
LINE
  5
519
100
AcDbEntity
  8
0
100
AcDbLine
 62
3
  6
CONTINUOUS
 10
273.9154712248
 20
248.2596900415
 11
274.1386143974
 21
248.2596900415
  0
LINE
  5
51A
100
AcDbEntity
  8
HIDDEN
100
AcDbLine
 62
1
  6
DASHED
 10
316.6994555174
 20
248.6464715406
 11
274.5105196851
 21
248.6464715406
  0
LINE
  5
51B
100
AcDbEntity
  8
HIDDEN
100
AcDbLine
 62
1
  6
DASHED
 10
44.4911808273
 20
250.71426494
 11
208.1295073985
 21
250.71426494
  0
LINE
  5
51C
100
AcDbEntity
  8
0
100
AcDbLine
 62
3
  6
CONTINUOUS
 10
274.2873765125
 20
250.71426494
 11
274.5105196851
 21
250.71426494
  0
LINE
  5
51D
100
AcDbEntity
  8
0
100
AcDbLine
 62
3
  6
CONTINUOUS
 10
319.064773147
 20
251.0117891702
 11
282.8411981287
 21
251.0117891702
  0
LINE
  5
51E
100
AcDbEntity
  8
0
100
AcDbLine
 62
3
  6
CONTINUOUS
 10
282.6220934012
 20
251.0117891702
 11
274.1386143974
 21
251.0117891702
  0
LINE
  5
51F
100
AcDbEntity
  8
0
100
AcDbLine
 62
3
  6
CONTINUOUS
 10
215.5676131518
 20
251.2349323428
 11
37.0530750741
 21
251.2349323428
  0
LINE
  5
520
100
AcDbEntity
  8
DIMS
100
AcDbLine
 62
2
  6
CONTINUOUS
 10
34.0778327728
 20
251.2349323428
 11
18.5593237544
 21
251.2349323428
  0
LINE
  5
521
100
AcDbEntity
  8
DIMS
100
AcDbLine
 62
6
  6
CONTINUOUS
 10
218.5428554531
 20
251.2349323428
 11
232.9266344575
 21
251.2349323428
  0
LINE
  5
522
100
AcDbEntity
  8
0
100
AcDbLine
 62
3
  6
CONTINUOUS
 10
273.9154712248
 20
251.2349323428
 11
319.2879163196
 21
251.2349323428
  0
LINE
  5
523
100
AcDbEntity
  8
0
100
AcDbLine
 62
3
  6
CONTINUOUS
 10
286.6217218914
 20
241.4353815354
 11
283.0483383655
 21
242.0138991031
  0
LINE
  5
524
100
AcDbEntity
  8
HIDDEN
100
AcDbLine
 62
1
  6
DASHED
 10
316.6994555174
 20
248.6464715406
 11
316.6994555174
 21
141.8947777702
  0
LINE
  5
525
100
AcDbEntity
  8
0
100
AcDbLine
 62
3
  6
CONTINUOUS
 10
316.6994555174
 20
141.4159550678
 11
316.6994555174
 21
139.6633460442
  0
LINE
  5
526
100
AcDbEntity
  8
0
100
AcDbLine
 62
3
  6
CONTINUOUS
 10
318.8416299744
 20
127.110995141
 11
318.8416299744
 21
140.2066005939
  0
LINE
  5
527
100
AcDbEntity
  8
0
100
AcDbLine
 62
3
  6
CONTINUOUS
 10
319.064773147
 20
251.0117891702
 11
319.064773147
 21
141.8947777702
  0
LINE
  5
528
100
AcDbEntity
  8
DIMS
100
AcDbLine
 62
6
  6
CONTINUOUS
 10
319.064773147
 20
124.0433239624
 11
319.064773147
 21
75.3459243697
  0
LINE
  5
529
100
AcDbEntity
  8
0
100
AcDbLine
 62
3
  6
CONTINUOUS
 10
319.064773147
 20
127.0185662637
 11
319.064773147
 21
141.6486091974
  0
LINE
  5
52A
100
AcDbEntity
  8
0
100
AcDbLine
 62
3
  6
CONTINUOUS
 10
319.2879163196
 20
139.6633460442
 11
319.2879163196
 21
251.2349323428
  0
LINE
  5
52B
100
AcDbEntity
  8
DIMS
100
AcDbLine
 62
6
  6
CONTINUOUS
 10
319.2879163196
 20
254.2101746441
 11
319.2879163196
 21
266.0363182604
  0
LINE
  5
52C
100
AcDbEntity
  8
MM_4_0_050
100
AcDbLine
 62
7
  6
CONTINUOUS
 10
320.3294279542
 20
8.2487421705
 11
320.3294279542
 21
68.2229346836
  0
LINE
  5
52D
100
AcDbEntity
  8
DIMS
100
AcDbLine
 62
6
  6
CONTINUOUS
 10
316.3126740183
 20
263.8048865344
 11
276.8907135261
 21
263.8048865344
  0
LINE
  5
52E
100
AcDbEntity
  8
0
100
AcDbLine
 62
1
  6
CONTINUOUS
 10
271.3464754992
 20
242.9353680906
 11
271.6992639625
 21
242.4561635158
  0
LINE
  5
52F
100
AcDbEntity
  8
MM_4_0_025
100
AcDbLine
 62
1
  6
CONTINUOUS
 10
334.3281348578
 20
68.2227650897
 11
334.3281348578
 21
55.4699560462
  0
LINE
  5
530
100
AcDbEntity
  8
MM_4_0_025
100
AcDbLine
 62
1
  6
CONTINUOUS
 10
335.3294279542
 20
8.2750140181
 11
335.3294279542
 21
18.814169204
  0
LINE
  5
531
100
AcDbEntity
  8
DIMS
100
AcDbLine
 62
2
  6
CONTINUOUS
 10
213.3361814258
 20
269.5868440304
 11
140.293982929
 21
269.5868440304
  0
LINE
  5
532
100
AcDbEntity
  8
DIMS
100
AcDbLine
 62
2
  6
CONTINUOUS
 10
39.2845068
 20
269.5868440304
 11
112.3267052968
 21
269.5868440304
  0
LINE
  5
533
100
AcDbEntity
  8
Format_A3
100
AcDbLine
 62
1
  6
CONTINUOUS
 10
11.5302379541
 20
285.2481781706
 11
411.5294379542
 21
285.2481781706
  0
LINE
  5
534
100
AcDbEntity
  8
VIEWPORT
100
AcDbLine
 62
9
  6
CONTINUOUS
 10
6.4594121902
 20
290.2481681705
 11
416.4585921903
 21
290.2481681705
  0
LINE
  5
535
100
AcDbEntity
  8
Format_A3
100
AcDbLine
 62
7
  6
CONTINUOUS
 10
6.5302479541
 20
290.2481681706
 11
416.5294279542
 21
290.2481681706
  0
LINE
  5
536
100
AcDbEntity
  8
Format_A3
100
AcDbLine
 62
1
  6
CONTINUOUS
 10
1.5302579541
 20
295.2481581706
 11
421.5294179542
 21
295.2481581706
  0
LINE
  5
537
100
AcDbEntity
  8
0
100
AcDbLine
 62
7
  6
CONTINUOUS
 10
0.0
 20
297.0
 11
420.0
 21
297.0
  0
LINE
  5
538
100
AcDbEntity
  8
Format_A3
100
AcDbLine
 62
1
  6
CONTINUOUS
 10
361.5295379542
 20
290.2481681706
 11
361.5295379542
 21
285.2481781706
  0
LINE
  5
539
100
AcDbEntity
  8
Format_A3
100
AcDbLine
 62
1
  6
CONTINUOUS
 10
361.5295379542
 20
8.2487321705
 11
361.5295379542
 21
3.2487421705
  0
LINE
  5
53A
100
AcDbEntity
  8
MM_4_0_025
100
AcDbLine
 62
1
  6
CONTINUOUS
 10
365.9294279542
 20
55.4701256401
 11
365.9294279542
 21
40.775561677
  0
LINE
  5
53B
100
AcDbEntity
  8
MM_4_0_025
100
AcDbLine
 62
1
  6
CONTINUOUS
 10
380.6732058782
 20
68.2229346836
 11
380.6732058782
 21
55.4701256401
  0
LINE
  5
53C
100
AcDbEntity
  8
MM_4_0_025
100
AcDbLine
 62
1
  6
CONTINUOUS
 10
398.7231759114
 20
18.814169204
 11
398.7231759114
 21
8.2750140181
  0
LINE
  5
53D
100
AcDbEntity
  8
MM_4_0_050
100
AcDbLine
 62
7
  6
CONTINUOUS
 10
411.5294279542
 20
8.2487421705
 11
411.5294279542
 21
68.2229346836
  0
LINE
  5
53E
100
AcDbEntity
  8
Format_A3
100
AcDbLine
 62
1
  6
CONTINUOUS
 10
411.5294379542
 20
285.2481781706
 11
411.5294379542
 21
8.2487321705
  0
LINE
  5
53F
100
AcDbEntity
  8
VIEWPORT
100
AcDbLine
 62
9
  6
CONTINUOUS
 10
416.4585921903
 20
290.2481681705
 11
416.4585921903
 21
3.2487421705
  0
LINE
  5
540
100
AcDbEntity
  8
Format_A3
100
AcDbLine
 62
7
  6
CONTINUOUS
 10
416.5294279542
 20
290.2481681706
 11
416.5294279542
 21
3.2487421705
  0
LINE
  5
541
100
AcDbEntity
  8
TEXT
100
AcDbLine
 62
7
  6
CONTINUOUS
 10
416.5294279542
 20
146.7484551705
 11
416.5294279542
 21
290.2481681705
  0
LINE
  5
542
100
AcDbEntity
  8
0
100
AcDbLine
 62
7
  6
CONTINUOUS
 10
420.0
 20
-0.0
 11
420.0
 21
297.0
  0
LINE
  5
543
100
AcDbEntity
  8
Format_A3
100
AcDbLine
 62
1
  6
CONTINUOUS
 10
421.5294179542
 20
295.2481581706
 11
421.5294179542
 21
-1.7512478295
  0
ARC
  5
544
100
AcDbEntity
  8
HIDDEN
100
AcDbCircle
 62
1
  6
DASHED
 10
135.3110736024
 20
121.3629250492
 40
60.5141117359
100
AcDbArc
 50
5.1395319999
 51
8.9719620001
  0
ARC
  5
545
100
AcDbEntity
  8
HIDDEN
100
AcDbCircle
 62
1
  6
DASHED
 10
164.5693231503
 20
121.8462921367
 40
32.1877851356
100
AcDbArc
 50
8.823964
 51
16.1519040001
  0
ARC
  5
546
100
AcDbEntity
  8
LASER
100
AcDbCircle
 62
7
  6
CONTINUOUS
 10
126.3103441129
 20
67.8452731346
 40
2.1570506684
100
AcDbArc
 50
90.9879072167
 51
179.0120927833
  0
ARC
  5
547
100
AcDbEntity
  8
LASER
100
AcDbCircle
 62
7
  6
CONTINUOUS
 10
126.3103441129
 20
67.8452731346
 40
2.1570506684
100
AcDbArc
 50
180.9879072167
 51
269.0120927833
  0
ARC
  5
548
100
AcDbEntity
  8
LASER
100
AcDbCircle
 62
7
  6
CONTINUOUS
 10
126.3103441129
 20
67.8452731346
 40
2.1570506684
100
AcDbArc
 50
270.9879072167
 51
359.0120927833
  0
ARC
  5
549
100
AcDbEntity
  8
LASER
100
AcDbCircle
 62
7
  6
CONTINUOUS
 10
126.3103441129
 20
67.8452731346
 40
2.1570506684
100
AcDbArc
 50
0.9879072167
 51
89.0120927833
  0
ARC
  5
54A
100
AcDbEntity
  8
LASER
100
AcDbCircle
 62
7
  6
CONTINUOUS
 10
126.3103441129
 20
67.845273209
 40
2.0826696109
100
AcDbArc
 50
91.0231933038
 51
178.9768087428
  0
ARC
  5
54B
100
AcDbEntity
  8
LASER
100
AcDbCircle
 62
7
  6
CONTINUOUS
 10
126.3103441129
 20
67.845273209
 40
2.0826696109
100
AcDbArc
 50
181.0231953504
 51
268.9768066962
  0
ARC
  5
54C
100
AcDbEntity
  8
LASER
100
AcDbCircle
 62
7
  6
CONTINUOUS
 10
126.3103441129
 20
67.845273209
 40
2.0826696109
100
AcDbArc
 50
271.0231933038
 51
358.9768046496
  0
ARC
  5
54D
100
AcDbEntity
  8
LASER
100
AcDbCircle
 62
7
  6
CONTINUOUS
 10
126.3103441129
 20
67.845273209
 40
2.0826696109
100
AcDbArc
 50
1.0231912572
 51
88.9768066962
  0
ARC
  5
54E
100
AcDbEntity
  8
HIDDEN
100
AcDbCircle
 62
1
  6
DASHED
 10
167.9676405928
 20
61.5427176228
 40
2.0325567123
100
AcDbArc
 50
62.3494819999
 51
117.6505180002
  0
ARC
  5
54F
100
AcDbEntity
  8
HIDDEN
100
AcDbCircle
 62
1
  6
DASHED
 10
84.6530474843
 20
61.5427176228
 40
2.0325567123
100
AcDbArc
 50
62.3494819998
 51
117.6505180002
  0
ARC
  5
550
100
AcDbEntity
  8
HIDDEN
100
AcDbCircle
 62
1
  6
DASHED
 10
168.7075469064
 20
68.5890837844
 40
1.4876211506
100
AcDbArc
 50
0.0
 51
90.0
  0
ARC
  5
551
100
AcDbEntity
  8
HIDDEN
100
AcDbCircle
 62
1
  6
DASHED
 10
83.9131413195
 20
68.5890837844
 40
1.4876211506
100
AcDbArc
 50
90.0
 51
180.0
  0
ARC
  5
552
100
AcDbEntity
  8
HIDDEN
100
AcDbCircle
 62
1
  6
DASHED
 10
164.9884940297
 20
64.8700309077
 40
0.7438105753
100
AcDbArc
 50
0.0
 51
90.0
  0
ARC
  5
553
100
AcDbEntity
  8
HIDDEN
100
AcDbCircle
 62
1
  6
DASHED
 10
87.6321941961
 20
64.8700309077
 40
0.7438105753
100
AcDbArc
 50
90.0
 51
180.0
  0
ARC
  5
554
100
AcDbEntity
  8
HIDDEN
100
AcDbCircle
 62
1
  6
DASHED
 10
129.2855864142
 20
70.8205155103
 40
0.7438105753
100
AcDbArc
 50
180.0
 51
270.0
  0
ARC
  5
555
100
AcDbEntity
  8
HIDDEN
100
AcDbCircle
 62
1
  6
DASHED
 10
123.3351018116
 20
70.8205155103
 40
0.7438105753
100
AcDbArc
 50
270.0
 51
360.0
  0
ARC
  5
556
100
AcDbEntity
  8
HIDDEN
100
AcDbCircle
 62
1
  6
DASHED
 10
169.3868869563
 20
62.9712050889
 40
0.6040692462
100
AcDbArc
 50
38.004626
 51
141.995374
  0
ARC
  5
557
100
AcDbEntity
  8
HIDDEN
100
AcDbCircle
 62
1
  6
DASHED
 10
166.548394378
 20
62.9712050889
 40
0.6040692462
100
AcDbArc
 50
38.004626
 51
141.995374
  0
ARC
  5
558
100
AcDbEntity
  8
HIDDEN
100
AcDbCircle
 62
1
  6
DASHED
 10
83.2338012696
 20
62.9712050889
 40
0.6040692462
100
AcDbArc
 50
38.004626
 51
141.995374
  0
ARC
  5
559
100
AcDbEntity
  8
HIDDEN
100
AcDbCircle
 62
1
  6
DASHED
 10
86.0722938478
 20
62.9712050889
 40
0.6040692462
100
AcDbArc
 50
38.004626
 51
141.995374
  0
CIRCLE
  5
55A
100
AcDbEntity
  8
HIDDEN
100
AcDbCircle
 62
1
  6
DASHED
 10
46.2763262081
 20
106.93568073
 40
0.5950484603
  0
CIRCLE
  5
55B
100
AcDbEntity
  8
0
100
AcDbCircle
 62
3
  6
CONTINUOUS
 10
84.6569518948
 20
239.0364389075
 40
2.9752423013
  0
CIRCLE
  5
55C
100
AcDbEntity
  8
0
100
AcDbCircle
 62
3
  6
CONTINUOUS
 10
167.963736331
 20
239.0364389075
 40
2.9752423013
  0
CIRCLE
  5
55D
100
AcDbEntity
  8
0
100
AcDbCircle
 62
3
  6
CONTINUOUS
 10
84.6569518948
 20
239.0364389075
 40
2.380193841
  0
CIRCLE
  5
55E
100
AcDbEntity
  8
0
100
AcDbCircle
 62
3
  6
CONTINUOUS
 10
167.963736331
 20
239.0364389075
 40
2.380193841
  0
CIRCLE
  5
55F
100
AcDbEntity
  8
0
100
AcDbCircle
 62
1
  6
DASHED
 10
167.963736331
 20
239.0364389075
 40
2.231431726
  0
CIRCLE
  5
560
100
AcDbEntity
  8
0
100
AcDbCircle
 62
1
  6
DASHED
 10
84.6569518948
 20
239.0364389075
 40
2.231431726
  0
CIRCLE
  5
561
100
AcDbEntity
  8
HIDDEN
100
AcDbCircle
 62
1
  6
DASHED
 10
159.7818200025
 20
246.1805547209
 40
0.5950484603
  0
CIRCLE
  5
562
100
AcDbEntity
  8
HIDDEN
100
AcDbCircle
 62
1
  6
DASHED
 10
137.4675027428
 20
246.1805547209
 40
0.5950484603
  0
CIRCLE
  5
563
100
AcDbEntity
  8
HIDDEN
100
AcDbCircle
 62
1
  6
DASHED
 10
48.2102337039
 20
246.1805547209
 40
0.5950484603
  0
CIRCLE
  5
564
100
AcDbEntity
  8
HIDDEN
100
AcDbCircle
 62
1
  6
DASHED
 10
70.5245509636
 20
246.1805547209
 40
0.5950484603
  0
CIRCLE
  5
565
100
AcDbEntity
  8
HIDDEN
100
AcDbCircle
 62
1
  6
DASHED
 10
92.8388682233
 20
246.1805547209
 40
0.5950484603
  0
CIRCLE
  5
566
100
AcDbEntity
  8
HIDDEN
100
AcDbCircle
 62
1
  6
DASHED
 10
115.1531854831
 20
246.1805547209
 40
0.5950484603
  0
ARC
  5
567
100
AcDbEntity
  8
HIDDEN
100
AcDbCircle
 62
1
  6
DASHED
 10
253.5757121715
 20
121.3629250492
 40
60.5141117359
100
AcDbArc
 50
171.0280379999
 51
174.8604680001
  0
ARC
  5
568
100
AcDbEntity
  8
HIDDEN
100
AcDbCircle
 62
1
  6
DASHED
 10
224.3174624748
 20
121.8462921367
 40
32.1877851356
100
AcDbArc
 50
163.8480959999
 51
171.176036
  0
ARC
  5
569
100
AcDbEntity
  8
HIDDEN
100
AcDbCircle
 62
1
  6
DASHED
 10
202.969911374
 20
126.1060484415
 40
10.9356693945
100
AcDbArc
 50
154.5784990001
 51
176.446375
  0
ARC
  5
56A
100
AcDbEntity
  8
HIDDEN
100
AcDbCircle
 62
1
  6
DASHED
 10
185.9168742511
 20
126.1060484415
 40
10.9356693945
100
AcDbArc
 50
3.553625
 51
25.4215009999
  0
CIRCLE
  5
56B
100
AcDbEntity
  8
0
100
AcDbCircle
 62
3
  6
CONTINUOUS
 10
298.0149338653
 20
104.704249004
 40
7.4381057532
  0
CIRCLE
  5
56C
100
AcDbEntity
  8
0
100
AcDbCircle
 62
3
  6
CONTINUOUS
 10
194.4433928126
 20
46.7210528698
 40
7.0662004656
  0
CIRCLE
  5
56D
100
AcDbEntity
  8
0
100
AcDbCircle
 62
3
  6
CONTINUOUS
 10
194.4433928126
 20
46.7210528698
 40
6.6942951779
  0
ARC
  5
56E
100
AcDbEntity
  8
HIDDEN
100
AcDbCircle
 62
1
  6
DASHED
 10
197.9919405034
 20
126.6281613657
 40
6.6056819001
100
AcDbArc
 50
140.8301900001
 51
178.649296
  0
ARC
  5
56F
100
AcDbEntity
  8
HIDDEN
100
AcDbCircle
 62
1
  6
DASHED
 10
190.8948451218
 20
126.6281613657
 40
6.6056819001
100
AcDbArc
 50
1.350704
 51
39.1698099999
  0
CIRCLE
  5
570
100
AcDbEntity
  8
0
100
AcDbCircle
 62
3
  6
CONTINUOUS
 10
194.4433928126
 20
46.7210528698
 40
4.8347687396
  0
ARC
  5
571
100
AcDbEntity
  8
HIDDEN
100
AcDbCircle
 62
1
  6
DASHED
 10
194.4433928126
 20
127.4533003381
 40
3.7934339342
100
AcDbArc
 50
0.0
 51
180.0
  0
ARC
  5
572
100
AcDbEntity
  8
HIDDEN
100
AcDbCircle
 62
1
  6
DASHED
 10
194.4433928126
 20
127.4533003381
 40
3.4215286465
100
AcDbArc
 50
125.3511159998
 51
180.0
  0
ARC
  5
573
100
AcDbEntity
  8
HIDDEN
100
AcDbCircle
 62
1
  6
DASHED
 10
194.4433928126
 20
127.4533003381
 40
3.4215286465
100
AcDbArc
 50
0.0
 51
54.6488840002
  0
CIRCLE
  5
574
100
AcDbEntity
  8
MM_4_0_025
100
AcDbCircle
 62
1
  6
CONTINUOUS
 10
294.723670684
 20
52.1384983116
 40
2.0
  0
CIRCLE
  5
575
100
AcDbEntity
  8
MM_4_0_025
100
AcDbCircle
 62
1
  6
CONTINUOUS
 10
294.723670684
 20
52.1384983116
 40
1.2
  0
ARC
  5
576
100
AcDbEntity
  8
HIDDEN
100
AcDbCircle
 62
1
  6
DASHED
 10
196.9723487687
 20
107.9770155354
 40
0.7438105753
100
AcDbArc
 50
180.0
 51
270.0
  0
ARC
  5
577
100
AcDbEntity
  8
HIDDEN
100
AcDbCircle
 62
1
  6
DASHED
 10
196.9723487687
 20
109.1671124559
 40
0.7438105753
100
AcDbArc
 50
90.0
 51
180.0
  0
CIRCLE
  5
578
100
AcDbEntity
  8
HIDDEN
100
AcDbCircle
 62
1
  6
DASHED
 10
197.2698729988
 20
108.5720638469
 40
0.632238989
  0
CIRCLE
  5
579
100
AcDbEntity
  8
0
100
AcDbCircle
 62
3
  6
CONTINUOUS
 10
281.353576978
 20
122.5557028118
 40
0.6099246718
  0
CIRCLE
  5
57A
100
AcDbEntity
  8
HIDDEN
100
AcDbCircle
 62
1
  6
DASHED
 10
206.3443620177
 20
106.93568073
 40
0.5950484603
  0
CIRCLE
  5
57B
100
AcDbEntity
  8
0
100
AcDbCircle
 62
1
  6
DASHED
 10
276.8907135261
 20
239.0364389075
 40
2.231431726
  0
ARC
  5
57C
100
AcDbEntity
  8
0
100
AcDbCircle
 62
1
  6
DASHED
 10
283.4279740765
 20
239.032534497
 40
2.0325567123
100
AcDbArc
 50
152.3494820001
 51
207.6505179999
  0
CIRCLE
  5
57D
100
AcDbEntity
  8
0
100
AcDbCircle
 62
1
  6
DASHED
 10
276.8907135261
 20
239.0364389075
 40
1.6363832657
  0
ARC
  5
57E
100
AcDbEntity
  8
0
100
AcDbCircle
 62
1
  6
DASHED
 10
281.9994866104
 20
237.6132882822
 40
0.6040692462
100
AcDbArc
 50
128.004626
 51
231.995374
  0
ARC
  5
57F
100
AcDbEntity
  8
0
100
AcDbCircle
 62
1
  6
DASHED
 10
281.9994866104
 20
240.4517808605
 40
0.6040692462
100
AcDbArc
 50
128.004626
 51
231.995374
  0
CIRCLE
  5
580
100
AcDbEntity
  8
HIDDEN
100
AcDbCircle
 62
1
  6
DASHED
 10
204.4104545219
 20
246.1805547209
 40
0.5950484603
  0
CIRCLE
  5
581
100
AcDbEntity
  8
HIDDEN
100
AcDbCircle
 62
1
  6
DASHED
 10
182.0961372622
 20
246.1805547209
 40
0.5950484603
  0
ENDSEC
  0
SECTION
  2
OBJECTS
  0
DICTIONARY
  5
C
100
AcDbDictionary
280
0
281
1
  3
ACAD_GROUP
350
D
  3
ACAD_MLINESTYLE
350
17
  3
ACAD_LAYOUT
350
1A
  3
ACAD_PLOTSETTINGS
350
19
  3
ACAD_PLOTSTYLENAME
350
E
  0
DICTIONARY
  5
D
102
{ACAD_REACTORS
330
C
102
}
100
AcDbDictionary
280
0
281
1
  0
ACDBDICTIONARYWDFLT
  5
E
102
{ACAD_REACTORS
330
C
102
}
100
AcDbDictionary
281
1
  3
Normal
350
F
100
AcDbDictionaryWithDefault
340
F
  0
DICTIONARY
  5
17
102
{ACAD_REACTORS
330
C
102
}
100
AcDbDictionary
280
0
281
1
  3
Standard
350
18
  0
DICTIONARY
  5
19
102
{ACAD_REACTORS
330
C
102
}
100
AcDbDictionary
281
1
  0
DICTIONARY
  5
1A
102
{ACAD_REACTORS
330
C
102
}
100
AcDbDictionary
281
1
  3
Model
350
582
  3
Layout1
350
583
  0
ACDBPLACEHOLDER
  5
F
102
{ACAD_REACTORS
330
E
102
}
  0
MLINESTYLE
  5
18
102
{ACAD_REACTORS
330
17
102
}
100
AcDbMlineStyle
  2
STANDARD
 70
0
  3

 62
256
 51
90.0
 52
90.0
 71
2
 49
0.5
 62
256
  6
BYLAYER
 49
-0.5
 62
256
  6
BYLAYER
  0
LAYOUT
  5
582
102
{ACAD_REACTORS
330
1A
102
}
100
AcDbPlotSettings
  1

  2
none_device
  4

  6

 40
0.0
 41
0.0
 42
0.0
 43
0.0
 44
420.0
 45
297.0
 46
0.0
 47
0.0
 48
0.0
 49
0.0
140
0.0
141
0.0
142
1.0
143
1.0
 70
1024
 72
1
 73
0
 74
0
  7

 75
0
147
1.0
148
0.0
149
0.0
100
AcDbLayout
  1
Model
 70
0
 71
0
 10
0.0
 20
0.0
 11
420.0
 21
297.0
 12
0.0
 22
0.0
 32
0.0
 14
0.0
 24
0.0
 34
0.0
 15
0.0
 25
0.0
 35
0.0
146
0.0
 13
0.0
 23
0.0
 33
0.0
 16
1.0
 26
0.0
 36
0.0
 17
0.0
 27
1.0
 37
0.0
 76
0
330
221
345
0
346
0
  0
LAYOUT
  5
583
102
{ACAD_REACTORS
330
1A
102
}
100
AcDbPlotSettings
  1

  2
none_device
  4

  6

 40
0.0
 41
0.0
 42
0.0
 43
0.0
 44
420.0
 45
297.0
 46
0.0
 47
0.0
 48
0.0
 49
0.0
140
0.0
141
0.0
142
1.0
143
1.0
 70
0
 72
1
 73
0
 74
0
  7

 75
0
147
1.0
148
0.0
149
0.0
100
AcDbLayout
  1
Layout1
 70
0
 71
1
 10
0.0
 20
0.0
 11
420.0
 21
297.0
 12
0.0
 22
0.0
 32
0.0
 14
0.0
 24
0.0
 34
0.0
 15
0.0
 25
0.0
 35
0.0
146
0.0
 13
0.0
 23
0.0
 33
0.0
 16
1.0
 26
0.0
 36
0.0
 17
0.0
 27
1.0
 37
0.0
 76
0
330
222
345
0
346
0
  0
ENDSEC
  0
EOF
